  0
SECTION
  2
HEADER
  9
$ACADVER
  1
AC1006
  9
$EXTMIN
 10
0.000000
 20
0.000000
 30
0.000000
  9
$EXTMAX
 10
512.000000
 20
512.000000
 30
0.000000
  0
ENDSEC
  0
SECTION
  2
ENTITIES
  0
POLYLINE
  8
0
 66
1
 70
1
  0
VERTEX
  8
0
 10
34.601653
 20
462.476179
 42
0.060375
  0
VERTEX
  8
0
 10
28.996369
 20
458.630639
 42
0.026663
  0
VERTEX
  8
0
 10
22.569426
 20
452.333163
 42
0.026303
  0
VERTEX
  8
0
 10
16.517965
 20
444.996037
 42
0.036861
  0
VERTEX
  8
0
 10
11.982985
 20
437.816699
 42
0.024073
  0
VERTEX
  8
0
 10
8.804677
 20
431.092748
 42
0.027003
  0
VERTEX
  8
0
 10
6.421731
 20
424.343974
 42
0.021577
  0
VERTEX
  8
0
 10
4.414136
 20
416.220759
 42
0.008740
  0
VERTEX
  8
0
 10
2.353020
 20
405.000000
 42
0.024100
  0
VERTEX
  8
0
 10
0.391266
 20
388.163107
 42
0.044142
  0
VERTEX
  8
0
 10
0.673260
 20
374.358929
 42
0.048455
  0
VERTEX
  8
0
 10
3.309069
 20
361.712700
 42
0.036559
  0
VERTEX
  8
0
 10
8.516086
 20
348.500000
 42
0.041624
  0
VERTEX
  8
0
 10
15.260037
 20
337.034328
 42
0.042271
  0
VERTEX
  8
0
 10
23.778915
 20
326.907623
 42
0.042402
  0
VERTEX
  8
0
 10
33.852595
 20
318.385219
 42
0.042436
  0
VERTEX
  8
0
 10
45.216987
 20
311.686911
 42
-0.006499
  0
VERTEX
  8
0
 10
50.292886
 20
309.167159
 42
-0.049918
  0
VERTEX
  8
0
 10
52.522968
 20
307.726625
 42
-0.114338
  0
VERTEX
  8
0
 10
53.577206
 20
306.395476
 42
-0.107997
  0
VERTEX
  8
0
 10
53.966987
 20
304.707842
 42
0.042568
  0
VERTEX
  8
0
 10
54.425272
 20
299.993553
 42
0.012524
  0
VERTEX
  8
0
 10
55.920226
 20
292.876376
 42
0.013036
  0
VERTEX
  8
0
 10
57.891474
 20
285.410879
 42
0.021319
  0
VERTEX
  8
0
 10
59.992296
 20
279.214075
 42
0.025568
  0
VERTEX
  8
0
 10
63.532846
 20
271.298836
 42
0.024819
  0
VERTEX
  8
0
 10
67.894659
 20
263.704852
 42
0.024437
  0
VERTEX
  8
0
 10
73.059003
 20
256.468810
 42
0.023064
  0
VERTEX
  8
0
 10
79.000000
 20
249.624255
 42
0.025625
  0
VERTEX
  8
0
 10
87.370416
 20
241.690983
 42
0.030777
  0
VERTEX
  8
0
 10
96.032811
 20
235.162753
 42
0.031283
  0
VERTEX
  8
0
 10
105.305056
 20
229.832366
 42
0.028126
  0
VERTEX
  8
0
 10
115.500000
 20
225.486404
 42
-0.026893
  0
VERTEX
  8
0
 10
119.146776
 20
223.942441
 42
-0.078714
  0
VERTEX
  8
0
 10
121.375691
 20
222.380056
 42
-0.110937
  0
VERTEX
  8
0
 10
122.578579
 20
220.549456
 42
-0.090339
  0
VERTEX
  8
0
 10
123.000000
 20
218.236056
 42
0.063856
  0
VERTEX
  8
0
 10
123.746129
 20
212.417601
 42
0.011973
  0
VERTEX
  8
0
 10
126.710467
 20
202.070725
 42
0.010647
  0
VERTEX
  8
0
 10
131.283442
 20
188.465737
 42
0.004992
  0
VERTEX
  8
0
 10
137.748114
 20
171.055660
 42
0.000000
  0
VERTEX
  8
0
 10
148.251628
 20
143.611320
 42
0.000000
  0
VERTEX
  8
0
 10
145.404532
 20
135.555660
 42
0.022457
  0
VERTEX
  8
0
 10
143.721107
 20
130.012049
 42
0.038390
  0
VERTEX
  8
0
 10
142.888219
 20
125.250621
 42
0.018712
  0
VERTEX
  8
0
 10
142.491507
 20
118.535681
 42
0.001878
  0
VERTEX
  8
0
 10
142.205098
 20
102.479587
 42
0.000000
  0
VERTEX
  8
0
 10
141.852761
 20
77.459173
 42
0.000000
  0
VERTEX
  8
0
 10
145.191055
 20
71.010453
 42
0.047447
  0
VERTEX
  8
0
 10
148.471472
 20
65.920656
 42
0.046449
  0
VERTEX
  8
0
 10
152.673721
 20
61.500753
 42
0.046729
  0
VERTEX
  8
0
 10
157.593192
 20
57.955803
 42
0.049310
  0
VERTEX
  8
0
 10
163.000000
 20
55.459838
 42
0.053449
  0
VERTEX
  8
0
 10
170.490248
 20
53.728551
 42
0.006011
  0
VERTEX
  8
0
 10
187.870257
 20
51.838360
 42
0.007350
  0
VERTEX
  8
0
 10
208.402512
 20
50.158992
 42
0.006352
  0
VERTEX
  8
0
 10
229.999614
 20
48.987118
 42
0.013123
  0
VERTEX
  8
0
 10
258.033951
 20
48.559299
 42
0.008408
  0
VERTEX
  8
0
 10
290.581617
 20
49.464369
 42
0.008184
  0
VERTEX
  8
0
 10
321.177741
 20
51.332511
 42
0.025341
  0
VERTEX
  8
0
 10
341.696857
 20
53.973811
 42
0.041735
  0
VERTEX
  8
0
 10
347.203651
 20
55.451193
 42
0.041878
  0
VERTEX
  8
0
 10
352.382001
 20
57.821330
 42
0.041568
  0
VERTEX
  8
0
 10
357.127612
 20
61.040430
 42
0.039862
  0
VERTEX
  8
0
 10
361.347710
 20
65.041841
 42
0.052930
  0
VERTEX
  8
0
 10
365.522141
 20
70.808892
 42
0.077952
  0
VERTEX
  8
0
 10
367.751215
 20
76.638844
 42
0.044989
  0
VERTEX
  8
0
 10
368.751527
 20
84.956267
 42
0.007655
  0
VERTEX
  8
0
 10
368.982636
 20
100.931501
 42
0.007620
  0
VERTEX
  8
0
 10
368.753442
 20
115.179718
 42
0.023362
  0
VERTEX
  8
0
 10
368.000816
 20
124.804127
 42
0.033144
  0
VERTEX
  8
0
 10
366.564548
 20
132.231363
 42
0.037742
  0
VERTEX
  8
0
 10
364.198886
 20
139.076818
 42
0.000000
  0
VERTEX
  8
0
 10
362.219544
 20
143.653636
 42
0.000000
  0
VERTEX
  8
0
 10
371.629314
 20
168.076818
 42
0.002114
  0
VERTEX
  8
0
 10
378.784206
 20
186.884076
 42
0.010400
  0
VERTEX
  8
0
 10
382.554566
 20
197.593877
 42
0.017087
  0
VERTEX
  8
0
 10
384.925329
 20
205.730238
 42
0.015391
  0
VERTEX
  8
0
 10
386.828238
 20
214.296978
 42
0.000000
  0
VERTEX
  8
0
 10
388.500000
 20
223.093957
 42
0.000000
  0
VERTEX
  8
0
 10
395.225851
 20
225.441935
 42
0.071109
  0
VERTEX
  8
0
 10
417.790921
 20
237.127939
 42
0.069438
  0
VERTEX
  8
0
 10
436.385957
 20
254.747915
 42
0.068642
  0
VERTEX
  8
0
 10
449.613523
 20
276.986220
 42
0.066853
  0
VERTEX
  8
0
 10
456.476932
 20
302.175165
 42
0.000000
  0
VERTEX
  8
0
 10
457.100101
 20
306.850331
 42
0.000000
  0
VERTEX
  8
0
 10
466.300051
 20
311.363316
 42
0.058271
  0
VERTEX
  8
0
 10
482.856794
 20
322.033340
 42
0.062377
  0
VERTEX
  8
0
 10
496.080913
 20
336.021521
 42
0.061644
  0
VERTEX
  8
0
 10
505.565500
 20
352.993504
 42
0.054764
  0
VERTEX
  8
0
 10
511.099944
 20
372.455925
 42
0.037176
  0
VERTEX
  8
0
 10
511.791882
 20
379.849530
 42
0.020762
  0
VERTEX
  8
0
 10
511.588212
 20
388.890794
 42
0.018152
  0
VERTEX
  8
0
 10
510.536820
 20
399.333692
 42
0.012616
  0
VERTEX
  8
0
 10
508.625853
 20
411.035711
 42
0.024077
  0
VERTEX
  8
0
 10
505.338927
 20
424.749104
 42
0.042347
  0
VERTEX
  8
0
 10
501.147640
 20
435.618424
 42
0.046248
  0
VERTEX
  8
0
 10
495.482751
 20
444.960301
 42
0.036054
  0
VERTEX
  8
0
 10
487.743360
 20
453.971521
 42
0.017778
  0
VERTEX
  8
0
 10
481.989879
 20
459.369740
 42
0.059697
  0
VERTEX
  8
0
 10
477.729582
 20
462.276537
 42
0.094483
  0
VERTEX
  8
0
 10
474.074859
 20
463.371481
 42
0.105755
  0
VERTEX
  8
0
 10
470.426503
 20
462.975744
 42
0.042680
  0
VERTEX
  8
0
 10
468.968576
 20
462.352313
 42
0.031854
  0
VERTEX
  8
0
 10
467.480008
 20
461.433347
 42
0.032548
  0
VERTEX
  8
0
 10
466.179935
 20
460.378071
 42
0.061037
  0
VERTEX
  8
0
 10
465.307047
 20
459.345861
 42
0.076095
  0
VERTEX
  8
0
 10
464.435553
 20
457.436258
 42
0.002220
  0
VERTEX
  8
0
 10
462.045820
 20
448.861738
 42
0.004416
  0
VERTEX
  8
0
 10
459.360145
 20
438.706045
 42
0.003024
  0
VERTEX
  8
0
 10
456.482857
 20
427.131681
 42
-0.001787
  0
VERTEX
  8
0
 10
453.643088
 20
415.586350
 42
-0.002675
  0
VERTEX
  8
0
 10
451.072625
 20
405.523890
 42
-0.001111
  0
VERTEX
  8
0
 10
448.807315
 20
396.927929
 42
-0.057940
  0
VERTEX
  8
0
 10
448.178603
 20
395.333723
 42
-0.070933
  0
VERTEX
  8
0
 10
446.223266
 20
392.668905
 42
-0.033564
  0
VERTEX
  8
0
 10
443.037272
 20
389.823220
 42
-0.033542
  0
VERTEX
  8
0
 10
439.462361
 20
387.404286
 42
-0.064324
  0
VERTEX
  8
0
 10
436.277334
 20
386.060128
 42
-0.058661
  0
VERTEX
  8
0
 10
433.312564
 20
385.600853
 42
-0.002822
  0
VERTEX
  8
0
 10
423.292666
 20
385.291561
 42
-0.004156
  0
VERTEX
  8
0
 10
410.525398
 20
385.075748
 42
-0.002111
  0
VERTEX
  8
0
 10
394.462091
 20
385.005577
 42
0.000000
  0
VERTEX
  8
0
 10
356.424182
 20
385.000000
 42
0.000000
  0
VERTEX
  8
0
 10
352.132438
 20
391.527744
 42
0.074382
  0
VERTEX
  8
0
 10
343.350108
 20
401.339473
 42
0.064071
  0
VERTEX
  8
0
 10
331.645858
 20
408.746863
 42
0.057179
  0
VERTEX
  8
0
 10
317.185309
 20
413.571762
 42
0.040804
  0
VERTEX
  8
0
 10
300.239037
 20
415.722620
 42
0.018085
  0
VERTEX
  8
0
 10
289.792165
 20
415.811604
 42
0.028619
  0
VERTEX
  8
0
 10
280.872118
 20
415.052721
 42
0.030221
  0
VERTEX
  8
0
 10
272.457379
 20
413.324902
 42
0.023596
  0
VERTEX
  8
0
 10
263.570024
 20
410.476823
 42
0.000000
  0
VERTEX
  8
0
 10
254.640049
 20
407.142986
 42
0.000000
  0
VERTEX
  8
0
 10
250.893229
 20
409.054470
 42
0.036876
  0
VERTEX
  8
0
 10
243.658375
 20
412.096487
 42
0.036136
  0
VERTEX
  8
0
 10
236.006259
 20
414.067224
 42
0.030109
  0
VERTEX
  8
0
 10
226.992725
 20
415.150610
 42
0.015017
  0
VERTEX
  8
0
 10
215.500000
 20
415.488461
 42
0.013300
  0
VERTEX
  8
0
 10
203.398586
 20
415.158720
 42
0.033756
  0
VERTEX
  8
0
 10
194.675123
 20
414.095125
 42
0.039173
  0
VERTEX
  8
0
 10
186.961468
 20
411.984230
 42
0.024279
  0
VERTEX
  8
0
 10
178.284151
 20
408.377018
 42
0.039816
  0
VERTEX
  8
0
 10
171.868403
 20
404.685604
 42
0.031139
  0
VERTEX
  8
0
 10
165.537853
 20
399.732163
 42
0.032005
  0
VERTEX
  8
0
 10
160.220035
 20
394.362983
 42
0.066539
  0
VERTEX
  8
0
 10
156.977959
 20
389.454470
 42
0.000000
  0
VERTEX
  8
0
 10
154.821587
 20
385.000000
 42
0.000000
  0
VERTEX
  8
0
 10
117.160794
 20
385.005577
 42
-0.002114
  0
VERTEX
  8
0
 10
101.133933
 20
385.075726
 42
-0.004275
  0
VERTEX
  8
0
 10
88.513429
 20
385.292262
 42
-0.003018
  0
VERTEX
  8
0
 10
78.686842
 20
385.604273
 42
-0.058337
  0
VERTEX
  8
0
 10
75.679221
 20
386.072124
 42
-0.071090
  0
VERTEX
  8
0
 10
72.152095
 20
387.616881
 42
-0.038069
  0
VERTEX
  8
0
 10
68.304138
 20
390.427452
 42
-0.038147
  0
VERTEX
  8
0
 10
64.992280
 20
393.724784
 42
-0.085167
  0
VERTEX
  8
0
 10
63.166557
 20
396.760797
 42
-0.030192
  0
VERTEX
  8
0
 10
62.527937
 20
398.746749
 42
-0.001006
  0
VERTEX
  8
0
 10
60.489079
 20
406.773484
 42
-0.001908
  0
VERTEX
  8
0
 10
58.137000
 20
416.264797
 42
-0.001327
  0
VERTEX
  8
0
 10
55.550274
 20
427.000000
 42
0.002310
  0
VERTEX
  8
0
 10
52.931478
 20
437.775276
 42
0.003217
  0
VERTEX
  8
0
 10
50.481159
 20
447.392801
 42
0.001971
  0
VERTEX
  8
0
 10
48.336226
 20
455.460841
 42
0.041256
  0
VERTEX
  8
0
 10
47.490382
 20
457.805281
 42
0.049099
  0
VERTEX
  8
0
 10
46.625133
 20
459.292789
 42
0.045761
  0
VERTEX
  8
0
 10
45.468028
 20
460.621658
 42
0.045377
  0
VERTEX
  8
0
 10
44.078014
 20
461.727964
 42
0.046474
  0
VERTEX
  8
0
 10
42.521935
 20
462.555281
 42
0.012699
  0
VERTEX
  8
0
 10
39.733183
 20
463.638161
 42
0.088977
  0
VERTEX
  8
0
 10
38.300299
 20
463.880437
 42
0.100002
  0
VERTEX
  8
0
 10
36.943826
 20
463.592267
 42
0.018010
  0
SEQEND
  0
POLYLINE
  8
0
 66
1
 70
1
  0
VERTEX
  8
0
 10
38.824211
 20
411.074187
 42
0.003242
  0
VERTEX
  8
0
 10
41.887811
 20
398.705847
 42
0.016776
  0
VERTEX
  8
0
 10
43.853775
 20
391.941470
 42
0.029594
  0
VERTEX
  8
0
 10
45.676318
 20
387.318964
 42
0.034779
  0
VERTEX
  8
0
 10
47.950744
 20
383.197503
 42
0.039072
  0
VERTEX
  8
0
 10
51.669106
 20
378.325434
 42
0.039230
  0
VERTEX
  8
0
 10
56.095497
 20
374.098287
 42
0.038791
  0
VERTEX
  8
0
 10
61.177464
 20
370.573458
 42
0.036445
  0
VERTEX
  8
0
 10
66.847461
 20
367.792358
 42
0.050023
  0
VERTEX
  8
0
 10
71.440584
 20
366.455691
 42
0.031286
  0
VERTEX
  8
0
 10
77.005285
 20
365.780873
 42
0.011582
  0
VERTEX
  8
0
 10
86.500496
 20
365.448757
 42
0.000946
  0
VERTEX
  8
0
 10
111.352394
 20
365.202532
 42
0.000000
  0
VERTEX
  8
0
 10
150.204789
 20
364.891116
 42
0.000000
  0
VERTEX
  8
0
 10
149.623764
 20
362.695558
 42
0.002039
  0
VERTEX
  8
0
 10
149.224200
 20
361.160407
 42
0.000084
  0
VERTEX
  8
0
 10
147.811825
 20
355.637873
 42
0.000146
  0
VERTEX
  8
0
 10
146.141545
 20
349.094387
 42
0.000103
  0
VERTEX
  8
0
 10
144.271370
 20
341.752519
 42
0.000000
  0
VERTEX
  8
0
 10
139.500000
 20
323.005038
 42
0.000000
  0
VERTEX
  8
0
 10
107.500000
 20
323.019882
 42
-0.004164
  0
VERTEX
  8
0
 10
84.526121
 20
323.221861
 42
-0.023959
  0
VERTEX
  8
0
 10
72.391009
 20
324.012101
 42
-0.042714
  0
VERTEX
  8
0
 10
63.803099
 20
325.737890
 42
-0.038518
  0
VERTEX
  8
0
 10
55.317968
 20
328.938387
 42
-0.053984
  0
VERTEX
  8
0
 10
43.624688
 20
336.036173
 42
-0.058026
  0
VERTEX
  8
0
 10
34.034278
 20
345.323271
 42
-0.057498
  0
VERTEX
  8
0
 10
26.766233
 20
356.645631
 42
-0.051399
  0
VERTEX
  8
0
 10
21.934565
 20
369.755849
 42
-0.030430
  0
VERTEX
  8
0
 10
20.525413
 20
377.100837
 42
-0.036498
  0
VERTEX
  8
0
 10
20.133341
 20
384.126877
 42
-0.028437
  0
VERTEX
  8
0
 10
20.748409
 20
392.414606
 42
-0.010437
  0
VERTEX
  8
0
 10
22.524702
 20
404.025266
 42
-0.007569
  0
VERTEX
  8
0
 10
23.910778
 20
411.317998
 42
-0.016100
  0
VERTEX
  8
0
 10
25.248724
 20
416.902282
 42
-0.020004
  0
VERTEX
  8
0
 10
26.713339
 20
421.516432
 42
-0.023526
  0
VERTEX
  8
0
 10
28.475412
 20
425.750000
 42
-0.008661
  0
VERTEX
  8
0
 10
29.847884
 20
428.528736
 42
-0.013461
  0
VERTEX
  8
0
 10
31.136270
 20
430.870313
 42
-0.007636
  0
VERTEX
  8
0
 10
32.279252
 20
432.754783
 42
-0.258092
  0
VERTEX
  8
0
 10
32.722665
 20
433.000000
 42
-0.335409
  0
VERTEX
  8
0
 10
33.131101
 20
432.691283
 42
-0.001228
  0
VERTEX
  8
0
 10
34.853758
 20
426.559292
 42
-0.005456
  0
VERTEX
  8
0
 10
36.740578
 20
419.480876
 42
-0.003316
  0
SEQEND
  0
POLYLINE
  8
0
 66
1
 70
1
  0
VERTEX
  8
0
 10
483.524588
 20
425.750000
 42
-0.046368
  0
VERTEX
  8
0
 10
486.340281
 20
418.007063
 42
-0.014028
  0
VERTEX
  8
0
 10
489.170728
 20
405.811761
 42
-0.014434
  0
VERTEX
  8
0
 10
491.338669
 20
393.267641
 42
-0.036369
  0
VERTEX
  8
0
 10
491.982636
 20
384.025266
 42
-0.070952
  0
VERTEX
  8
0
 10
489.601025
 20
367.693903
 42
-0.066344
  0
VERTEX
  8
0
 10
482.732357
 20
352.270423
 42
-0.066791
  0
VERTEX
  8
0
 10
472.118360
 20
339.274424
 42
-0.073784
  0
VERTEX
  8
0
 10
458.777663
 20
330.044134
 42
-0.034158
  0
VERTEX
  8
0
 10
449.295404
 20
326.150037
 42
-0.048632
  0
VERTEX
  8
0
 10
440.422256
 20
324.126701
 42
-0.027379
  0
VERTEX
  8
0
 10
428.138660
 20
323.237487
 42
-0.004248
  0
VERTEX
  8
0
 10
403.750000
 20
323.017364
 42
-0.000715
  0
VERTEX
  8
0
 10
391.191607
 20
323.028671
 42
-0.001193
  0
VERTEX
  8
0
 10
380.618664
 20
323.078538
 42
-0.000057
  0
VERTEX
  8
0
 10
371.098708
 20
323.147244
 42
-0.405518
  0
VERTEX
  8
0
 10
370.994387
 20
323.250000
 42
0.057207
  0
VERTEX
  8
0
 10
370.966909
 20
323.449697
 42
0.000030
  0
VERTEX
  8
0
 10
369.413335
 20
329.506497
 42
0.000412
  0
VERTEX
  8
0
 10
367.678819
 20
336.243990
 42
0.000251
  0
VERTEX
  8
0
 10
365.619964
 20
344.197651
 42
0.000000
  0
VERTEX
  8
0
 10
360.251155
 20
364.895302
 42
0.000000
  0
VERTEX
  8
0
 10
399.875577
 20
365.203280
 42
0.000917
  0
VERTEX
  8
0
 10
425.276809
 20
365.447310
 42
0.011413
  0
VERTEX
  8
0
 10
434.911457
 20
365.777583
 42
0.031091
  0
VERTEX
  8
0
 10
440.535828
 20
366.451509
 42
0.050529
  0
VERTEX
  8
0
 10
445.152539
 20
367.791013
 42
0.036417
  0
VERTEX
  8
0
 10
450.823244
 20
370.573511
 42
0.038778
  0
VERTEX
  8
0
 10
455.905247
 20
374.098881
 42
0.039221
  0
VERTEX
  8
0
 10
460.331305
 20
378.325927
 42
0.039070
  0
VERTEX
  8
0
 10
464.049256
 20
383.197503
 42
0.034779
  0
VERTEX
  8
0
 10
466.323682
 20
387.318964
 42
0.029594
  0
VERTEX
  8
0
 10
468.146225
 20
391.941470
 42
0.016776
  0
VERTEX
  8
0
 10
470.112189
 20
398.705847
 42
0.003242
  0
VERTEX
  8
0
 10
473.175789
 20
411.074187
 42
-0.003316
  0
VERTEX
  8
0
 10
475.259422
 20
419.480876
 42
-0.005456
  0
VERTEX
  8
0
 10
477.146242
 20
426.559292
 42
-0.001228
  0
VERTEX
  8
0
 10
478.868899
 20
432.691283
 42
-0.335409
  0
VERTEX
  8
0
 10
479.277335
 20
433.000000
 42
-0.258092
  0
VERTEX
  8
0
 10
479.720748
 20
432.754783
 42
-0.007636
  0
VERTEX
  8
0
 10
480.863730
 20
430.870313
 42
-0.013461
  0
VERTEX
  8
0
 10
482.152116
 20
428.528736
 42
-0.008661
  0
SEQEND
  0
POLYLINE
  8
0
 66
1
 70
1
  0
VERTEX
  8
0
 10
229.566341
 20
394.911094
 42
-0.015361
  0
VERTEX
  8
0
 10
232.181446
 20
394.347648
 42
-0.010245
  0
VERTEX
  8
0
 10
235.140242
 20
393.549684
 42
-0.010320
  0
VERTEX
  8
0
 10
237.980605
 20
392.656864
 42
-0.019858
  0
VERTEX
  8
0
 10
240.208953
 20
391.805608
 42
0.000000
  0
VERTEX
  8
0
 10
244.917905
 20
389.789028
 42
0.000000
  0
VERTEX
  8
0
 10
245.208953
 20
359.311252
 42
0.000000
  0
VERTEX
  8
0
 10
245.500000
 20
328.833477
 42
0.000000
  0
VERTEX
  8
0
 10
248.765777
 20
325.916738
 42
0.034235
  0
VERTEX
  8
0
 10
250.202375
 20
324.800502
 42
0.031545
  0
VERTEX
  8
0
 10
251.816559
 20
323.856792
 42
0.033029
  0
VERTEX
  8
0
 10
253.364709
 20
323.202350
 42
0.083671
  0
VERTEX
  8
0
 10
254.565436
 20
323.000000
 42
0.074299
  0
VERTEX
  8
0
 10
257.172966
 20
323.389624
 42
0.046880
  0
VERTEX
  8
0
 10
260.024303
 20
324.562820
 42
0.047638
  0
VERTEX
  8
0
 10
262.509187
 20
326.188128
 42
0.101587
  0
VERTEX
  8
0
 10
263.970356
 20
327.944609
 42
0.112283
  0
VERTEX
  8
0
 10
264.429770
 20
329.619123
 42
0.002973
  0
VERTEX
  8
0
 10
264.725382
 20
337.355104
 42
0.005480
  0
VERTEX
  8
0
 10
264.934480
 20
347.175775
 42
0.002582
  0
VERTEX
  8
0
 10
265.000000
 20
359.862410
 42
0.000000
  0
VERTEX
  8
0
 10
265.000000
 20
389.856302
 42
0.000000
  0
VERTEX
  8
0
 10
270.295460
 20
391.837588
 42
-0.025892
  0
VERTEX
  8
0
 10
277.104229
 20
393.990515
 42
-0.030508
  0
VERTEX
  8
0
 10
283.737770
 20
395.290253
 42
-0.028262
  0
VERTEX
  8
0
 10
290.888536
 20
395.834596
 42
-0.017659
  0
VERTEX
  8
0
 10
299.288933
 20
395.701470
 42
-0.014449
  0
VERTEX
  8
0
 10
307.263169
 20
395.061711
 42
-0.031107
  0
VERTEX
  8
0
 10
313.333369
 20
394.012548
 42
-0.034988
  0
VERTEX
  8
0
 10
318.764223
 20
392.313003
 42
-0.023952
  0
VERTEX
  8
0
 10
324.662882
 20
389.670830
 42
-0.044944
  0
VERTEX
  8
0
 10
329.767342
 20
386.478756
 42
-0.063137
  0
VERTEX
  8
0
 10
333.602464
 20
382.724190
 42
-0.065643
  0
VERTEX
  8
0
 10
336.275702
 20
378.252472
 42
-0.053825
  0
VERTEX
  8
0
 10
337.922964
 20
372.930419
 42
0.010721
  0
VERTEX
  8
0
 10
338.760262
 20
369.078826
 42
0.001462
  0
VERTEX
  8
0
 10
340.705898
 20
361.073695
 42
0.001682
  0
VERTEX
  8
0
 10
343.070886
 20
351.603082
 42
0.001420
  0
VERTEX
  8
0
 10
345.635616
 20
341.597052
 42
-0.003440
  0
VERTEX
  8
0
 10
348.054260
 20
331.999917
 42
-0.005577
  0
VERTEX
  8
0
 10
349.962789
 20
323.806128
 42
-0.001390
  0
VERTEX
  8
0
 10
351.520186
 20
316.671325
 42
-0.273559
  0
VERTEX
  8
0
 10
351.297052
 20
316.002304
 42
-0.008880
  0
VERTEX
  8
0
 10
350.658153
 20
315.467366
 42
-0.000030
  0
VERTEX
  8
0
 10
342.802884
 20
309.124933
 42
-0.000167
  0
VERTEX
  8
0
 10
333.907765
 20
301.948701
 42
-0.000105
  0
VERTEX
  8
0
 10
323.500000
 20
293.561441
 42
0.002746
  0
VERTEX
  8
0
 10
304.779025
 20
278.311040
 42
0.017986
  0
VERTEX
  8
0
 10
295.712536
 20
270.277751
 42
0.035556
  0
VERTEX
  8
0
 10
290.237157
 20
264.265486
 42
0.043392
  0
VERTEX
  8
0
 10
286.063192
 20
257.906932
 42
0.046189
  0
VERTEX
  8
0
 10
282.739162
 20
250.085036
 42
0.048813
  0
VERTEX
  8
0
 10
280.983919
 20
241.929143
 42
0.024889
  0
VERTEX
  8
0
 10
280.203245
 20
229.872859
 42
0.003616
  0
VERTEX
  8
0
 10
280.014781
 20
205.280729
 42
0.000000
  0
VERTEX
  8
0
 10
280.000000
 20
171.061457
 42
0.000000
  0
VERTEX
  8
0
 10
274.250000
 20
167.423498
 42
0.015035
  0
VERTEX
  8
0
 10
269.581604
 20
164.269425
 42
0.025944
  0
VERTEX
  8
0
 10
265.925787
 20
161.336491
 42
0.026203
  0
VERTEX
  8
0
 10
262.617956
 20
158.061623
 42
0.015713
  0
VERTEX
  8
0
 10
259.027592
 20
153.855537
 42
0.000000
  0
VERTEX
  8
0
 10
255.308806
 20
149.211073
 42
0.000000
  0
VERTEX
  8
0
 10
251.245612
 20
154.413560
 42
0.032402
  0
VERTEX
  8
0
 10
247.550459
 20
158.560627
 42
0.020157
  0
VERTEX
  8
0
 10
242.728133
 20
162.945052
 42
0.020137
  0
VERTEX
  8
0
 10
237.774772
 20
166.767948
 42
0.048100
  0
VERTEX
  8
0
 10
233.750000
 20
169.077182
 42
0.000000
  0
VERTEX
  8
0
 10
231.000000
 20
170.321030
 42
0.000000
  0
VERTEX
  8
0
 10
231.000000
 20
205.450416
 42
0.003205
  0
VERTEX
  8
0
 10
230.837723
 20
230.767225
 42
0.026258
  0
VERTEX
  8
0
 10
230.083939
 20
242.290191
 42
0.053148
  0
VERTEX
  8
0
 10
228.288198
 20
250.171561
 42
0.039890
  0
VERTEX
  8
0
 10
224.739568
 20
258.337242
 42
0.047565
  0
VERTEX
  8
0
 10
220.627410
 20
264.549125
 42
0.034437
  0
VERTEX
  8
0
 10
214.974675
 20
270.633253
 42
0.017060
  0
VERTEX
  8
0
 10
205.470933
 20
278.954801
 42
0.002559
  0
VERTEX
  8
0
 10
185.748072
 20
294.901927
 42
-0.002631
  0
VERTEX
  8
0
 10
175.493725
 20
303.195596
 42
-0.004240
  0
VERTEX
  8
0
 10
166.857246
 20
310.379255
 42
-0.000923
  0
VERTEX
  8
0
 10
159.367198
 20
316.741326
 42
-0.219633
  0
VERTEX
  8
0
 10
159.000000
 20
317.536935
 42
-0.059584
  0
VERTEX
  8
0
 10
159.113493
 20
318.485924
 42
-0.000314
  0
VERTEX
  8
0
 10
161.326437
 20
327.580598
 42
-0.001388
  0
VERTEX
  8
0
 10
163.883961
 20
337.937755
 42
-0.000880
  0
VERTEX
  8
0
 10
166.919785
 20
349.996564
 42
-0.003065
  0
VERTEX
  8
0
 10
172.832209
 20
372.722887
 42
-0.042455
  0
VERTEX
  8
0
 10
175.704911
 20
380.703880
 42
-0.105422
  0
VERTEX
  8
0
 10
179.136786
 20
385.309074
 42
-0.055522
  0
VERTEX
  8
0
 10
185.013376
 20
389.410763
 42
-0.058553
  0
VERTEX
  8
0
 10
194.233869
 20
393.109167
 42
-0.035428
  0
VERTEX
  8
0
 10
205.791693
 20
395.375881
 42
-0.034397
  0
VERTEX
  8
0
 10
218.083717
 20
396.041128
 42
-0.041723
  0
SEQEND
  0
POLYLINE
  8
0
 66
1
 70
1
  0
VERTEX
  8
0
 10
134.000000
 20
302.612801
 42
-0.061146
  0
VERTEX
  8
0
 10
133.962327
 20
302.305899
 42
-0.000071
  0
VERTEX
  8
0
 10
132.405540
 20
296.064019
 42
-0.000658
  0
VERTEX
  8
0
 10
130.653068
 20
289.080951
 42
-0.000405
  0
VERTEX
  8
0
 10
128.572051
 20
280.862801
 42
0.004569
  0
VERTEX
  8
0
 10
126.442079
 20
272.146943
 42
0.004952
  0
VERTEX
  8
0
 10
124.530420
 20
263.623855
 42
0.004673
  0
VERTEX
  8
0
 10
123.033063
 20
256.289569
 42
0.023905
  0
VERTEX
  8
0
 10
122.435534
 20
252.175855
 42
-0.004754
  0
VERTEX
  8
0
 10
121.922004
 20
247.347189
 42
-0.086590
  0
VERTEX
  8
0
 10
121.483620
 20
245.868485
 42
-0.270202
  0
VERTEX
  8
0
 10
120.683418
 20
245.341887
 42
-0.073292
  0
VERTEX
  8
0
 10
119.113484
 20
245.486867
 42
-0.088555
  0
VERTEX
  8
0
 10
110.688935
 20
249.199202
 42
-0.030610
  0
VERTEX
  8
0
 10
100.087163
 20
257.307436
 42
-0.031006
  0
VERTEX
  8
0
 10
90.145709
 20
267.065666
 42
-0.056426
  0
VERTEX
  8
0
 10
83.541522
 20
276.316879
 42
-0.021069
  0
VERTEX
  8
0
 10
80.750809
 20
281.877936
 42
-0.014997
  0
VERTEX
  8
0
 10
78.080561
 20
288.319229
 42
-0.015181
  0
VERTEX
  8
0
 10
75.898315
 20
294.635924
 42
-0.030610
  0
VERTEX
  8
0
 10
74.640983
 20
299.750000
 42
0.000000
  0
VERTEX
  8
0
 10
74.050000
 20
303.000000
 42
0.000000
  0
VERTEX
  8
0
 10
104.025000
 20
303.000000
 42
-0.001210
  0
VERTEX
  8
0
 10
115.518923
 20
302.972176
 42
-0.002019
  0
VERTEX
  8
0
 10
125.194844
 20
302.886260
 42
-0.000164
  0
VERTEX
  8
0
 10
133.843241
 20
302.771702
 42
-0.410243
  0
SEQEND
  0
POLYLINE
  8
0
 66
1
 70
1
  0
VERTEX
  8
0
 10
436.000000
 20
301.394345
 42
-0.063360
  0
VERTEX
  8
0
 10
435.521882
 20
297.636433
 42
-0.016587
  0
VERTEX
  8
0
 10
433.802529
 20
291.795385
 42
-0.017270
  0
VERTEX
  8
0
 10
431.484594
 20
285.522974
 42
-0.022858
  0
VERTEX
  8
0
 10
428.923352
 20
280.000000
 42
-0.022600
  0
VERTEX
  8
0
 10
424.879803
 20
273.020984
 42
-0.025298
  0
VERTEX
  8
0
 10
420.360934
 20
266.703300
 42
-0.026527
  0
VERTEX
  8
0
 10
415.452452
 20
261.157726
 42
-0.031468
  0
VERTEX
  8
0
 10
410.241807
 20
256.491752
 42
-0.026582
  0
VERTEX
  8
0
 10
404.759241
 20
252.625195
 42
-0.015669
  0
VERTEX
  8
0
 10
397.840417
 20
248.573652
 42
-0.007023
  0
VERTEX
  8
0
 10
390.961808
 20
244.954278
 42
-0.324667
  0
VERTEX
  8
0
 10
389.476432
 20
245.190235
 42
-0.144362
  0
VERTEX
  8
0
 10
389.182757
 20
245.729524
 42
-0.005735
  0
VERTEX
  8
0
 10
388.731706
 20
247.949564
 42
-0.009711
  0
VERTEX
  8
0
 10
388.273993
 20
250.623170
 42
-0.006673
  0
VERTEX
  8
0
 10
387.854561
 20
253.670331
 42
0.019018
  0
VERTEX
  8
0
 10
387.153385
 20
257.974932
 42
0.004196
  0
VERTEX
  8
0
 10
385.609200
 20
265.295347
 42
0.004358
  0
VERTEX
  8
0
 10
383.678319
 20
273.731646
 42
0.004182
  0
VERTEX
  8
0
 10
381.574933
 20
282.250000
 42
0.000000
  0
VERTEX
  8
0
 10
376.266748
 20
303.000000
 42
0.000000
  0
VERTEX
  8
0
 10
406.133374
 20
303.000000
 42
-0.001266
  0
VERTEX
  8
0
 10
423.646480
 20
302.955652
 42
-0.012162
  0
VERTEX
  8
0
 10
431.099777
 20
302.736560
 42
-0.021930
  0
VERTEX
  8
0
 10
435.182025
 20
302.337019
 42
-0.373375
  0
SEQEND
  0
POLYLINE
  8
0
 66
1
 70
1
  0
VERTEX
  8
0
 10
163.250000
 20
287.113118
 42
0.000000
  0
VERTEX
  8
0
 10
171.000000
 20
280.871529
 42
0.000000
  0
VERTEX
  8
0
 10
171.000000
 20
260.617266
 42
0.007924
  0
VERTEX
  8
0
 10
171.240980
 20
245.413332
 42
0.040547
  0
VERTEX
  8
0
 10
172.190377
 20
237.028370
 42
0.067447
  0
VERTEX
  8
0
 10
174.233819
 20
231.032941
 42
0.051475
  0
VERTEX
  8
0
 10
177.955800
 20
225.175132
 42
0.056575
  0
VERTEX
  8
0
 10
182.592419
 20
220.506166
 42
0.057710
  0
VERTEX
  8
0
 10
188.128294
 20
217.031186
 42
0.053192
  0
VERTEX
  8
0
 10
194.712773
 20
214.709597
 42
0.037413
  0
VERTEX
  8
0
 10
202.476093
 20
213.473484
 42
0.000000
  0
VERTEX
  8
0
 10
211.000000
 20
212.763446
 42
0.000000
  0
VERTEX
  8
0
 10
211.000000
 20
194.881723
 42
0.000000
  0
VERTEX
  8
0
 10
211.000000
 20
177.000000
 42
0.000000
  0
VERTEX
  8
0
 10
203.750000
 20
176.985219
 42
0.037058
  0
VERTEX
  8
0
 10
194.466408
 20
176.277183
 42
0.039209
  0
VERTEX
  8
0
 10
185.567876
 20
174.206978
 42
0.038701
  0
VERTEX
  8
0
 10
176.999433
 20
170.741618
 42
0.034329
  0
VERTEX
  8
0
 10
168.699560
 20
165.875045
 42
-0.005250
  0
VERTEX
  8
0
 10
166.424732
 20
164.357025
 42
-0.008712
  0
VERTEX
  8
0
 10
164.471407
 20
163.130957
 42
-0.003021
  0
VERTEX
  8
0
 10
162.794498
 20
162.132457
 42
-0.384723
  0
VERTEX
  8
0
 10
162.574790
 20
162.177799
 42
-0.070181
  0
VERTEX
  8
0
 10
161.375593
 20
164.411987
 42
-0.000499
  0
VERTEX
  8
0
 10
154.001219
 20
184.521662
 42
-0.001439
  0
VERTEX
  8
0
 10
147.221017
 20
203.235168
 42
-0.019244
  0
VERTEX
  8
0
 10
145.017104
 20
210.205405
 42
-0.028053
  0
VERTEX
  8
0
 10
143.235615
 20
218.495831
 42
-0.019118
  0
VERTEX
  8
0
 10
142.106442
 20
228.074373
 42
-0.018862
  0
VERTEX
  8
0
 10
141.698994
 20
237.911795
 42
-0.023893
  0
VERTEX
  8
0
 10
142.100061
 20
247.000000
 42
-0.027622
  0
VERTEX
  8
0
 10
143.264318
 20
254.857099
 42
-0.004278
  0
VERTEX
  8
0
 10
146.559554
 20
270.249906
 42
-0.004506
  0
VERTEX
  8
0
 10
150.126589
 20
285.590606
 42
-0.023892
  0
VERTEX
  8
0
 10
152.552325
 20
293.862624
 42
-0.240041
  0
VERTEX
  8
0
 10
153.166578
 20
294.454212
 42
-0.217927
  0
VERTEX
  8
0
 10
154.045219
 20
294.336025
 42
-0.027975
  0
VERTEX
  8
0
 10
155.871700
 20
293.035422
 42
-0.000820
  0
SEQEND
  0
POLYLINE
  8
0
 66
1
 70
1
  0
VERTEX
  8
0
 10
361.828639
 20
278.750000
 42
-0.002672
  0
VERTEX
  8
0
 10
365.976475
 20
262.018306
 42
-0.019989
  0
VERTEX
  8
0
 10
367.582362
 20
254.001043
 42
-0.029484
  0
VERTEX
  8
0
 10
368.263391
 20
247.128066
 42
-0.009787
  0
VERTEX
  8
0
 10
368.468423
 20
237.000000
 42
-0.007001
  0
VERTEX
  8
0
 10
368.371979
 20
229.767428
 42
-0.013455
  0
VERTEX
  8
0
 10
368.057632
 20
223.977917
 42
-0.016253
  0
VERTEX
  8
0
 10
367.495147
 20
219.050087
 42
-0.019968
  0
VERTEX
  8
0
 10
366.638527
 20
214.500000
 42
-0.025420
  0
VERTEX
  8
0
 10
364.765417
 20
207.907855
 42
-0.004001
  0
VERTEX
  8
0
 10
360.321738
 20
195.170836
 42
-0.004362
  0
VERTEX
  8
0
 10
354.748639
 20
180.016286
 42
-0.003506
  0
VERTEX
  8
0
 10
348.498167
 20
163.811556
 42
-0.153348
  0
VERTEX
  8
0
 10
347.924532
 20
163.101426
 42
-0.224605
  0
VERTEX
  8
0
 10
347.142718
 20
162.987165
 42
-0.072388
  0
VERTEX
  8
0
 10
345.852038
 20
163.596812
 42
-0.008094
  0
VERTEX
  8
0
 10
343.166633
 20
165.441864
 42
0.038644
  0
VERTEX
  8
0
 10
334.966304
 20
170.367766
 42
0.037921
  0
VERTEX
  8
0
 10
326.054596
 20
174.008864
 42
0.038109
  0
VERTEX
  8
0
 10
316.739911
 20
176.247784
 42
0.039948
  0
VERTEX
  8
0
 10
307.340037
 20
177.000000
 42
0.000000
  0
VERTEX
  8
0
 10
300.000000
 20
177.000000
 42
0.000000
  0
VERTEX
  8
0
 10
300.000000
 20
194.881723
 42
0.000000
  0
VERTEX
  8
0
 10
300.000000
 20
212.763446
 42
0.000000
  0
VERTEX
  8
0
 10
308.523907
 20
213.473484
 42
0.050770
  0
VERTEX
  8
0
 10
318.266681
 20
215.292308
 42
0.070935
  0
VERTEX
  8
0
 10
326.319010
 20
218.962358
 42
0.075374
  0
VERTEX
  8
0
 10
332.670645
 20
224.530293
 42
0.066906
  0
VERTEX
  8
0
 10
337.394344
 20
231.949195
 42
0.051018
  0
VERTEX
  8
0
 10
338.564737
 20
235.350423
 42
0.034634
  0
VERTEX
  8
0
 10
339.218681
 20
239.396729
 42
0.016445
  0
VERTEX
  8
0
 10
339.588906
 20
245.761350
 42
0.002277
  0
VERTEX
  8
0
 10
339.862504
 20
259.000000
 42
0.000000
  0
VERTEX
  8
0
 10
340.225007
 20
281.500000
 42
0.000000
  0
VERTEX
  8
0
 10
348.362504
 20
288.173013
 42
-0.002871
  0
VERTEX
  8
0
 10
351.525107
 20
290.736219
 42
-0.004451
  0
VERTEX
  8
0
 10
354.287022
 20
292.908444
 42
-0.001477
  0
VERTEX
  8
0
 10
356.691554
 20
294.753873
 42
-0.131972
  0
VERTEX
  8
0
 10
357.103953
 20
294.923013
 42
-0.367383
  0
VERTEX
  8
0
 10
357.407767
 20
294.725106
 42
-0.001263
  0
VERTEX
  8
0
 10
358.740960
 20
290.203948
 42
-0.005591
  0
VERTEX
  8
0
 10
360.205196
 20
284.975200
 42
-0.003378
  0
SEQEND
  0
POLYLINE
  8
0
 66
1
 70
1
  0
VERTEX
  8
0
 10
200.834186
 20
256.522937
 42
-0.042285
  0
VERTEX
  8
0
 10
204.387273
 20
252.616809
 42
-0.038710
  0
VERTEX
  8
0
 10
207.350714
 20
248.055931
 42
-0.039642
  0
VERTEX
  8
0
 10
209.508084
 20
243.219486
 42
-0.051074
  0
VERTEX
  8
0
 10
210.655901
 20
238.493820
 42
0.000000
  0
VERTEX
  8
0
 10
211.271848
 20
234.000000
 42
0.000000
  0
VERTEX
  8
0
 10
204.385924
 20
234.031803
 42
-0.020357
  0
VERTEX
  8
0
 10
199.746093
 20
234.242254
 42
-0.078684
  0
VERTEX
  8
0
 10
196.957288
 20
234.933829
 42
-0.098945
  0
VERTEX
  8
0
 10
194.857770
 20
236.362099
 42
-0.043207
  0
VERTEX
  8
0
 10
192.704109
 20
238.972506
 42
-0.081542
  0
VERTEX
  8
0
 10
191.843221
 20
240.797680
 42
-0.040124
  0
VERTEX
  8
0
 10
191.337364
 20
243.321637
 42
-0.023717
  0
VERTEX
  8
0
 10
191.071578
 20
247.103129
 42
-0.005686
  0
VERTEX
  8
0
 10
191.000000
 20
253.396820
 42
0.000000
  0
VERTEX
  8
0
 10
191.000000
 20
265.348628
 42
0.000000
  0
VERTEX
  8
0
 10
193.750000
 20
262.947252
 42
-0.003383
  0
VERTEX
  8
0
 10
195.104097
 20
261.748574
 42
-0.001308
  0
VERTEX
  8
0
 10
196.965355
 20
260.069541
 42
-0.001295
  0
VERTEX
  8
0
 10
198.973325
 20
258.239107
 42
-0.001601
  0
SEQEND
  0
POLYLINE
  8
0
 66
1
 70
1
  0
VERTEX
  8
0
 10
319.500430
 20
241.164769
 42
-0.060003
  0
VERTEX
  8
0
 10
319.094334
 20
240.098310
 42
-0.026818
  0
VERTEX
  8
0
 10
318.324486
 20
238.806174
 42
-0.026078
  0
VERTEX
  8
0
 10
317.353678
 20
237.510651
 42
-0.032050
  0
VERTEX
  8
0
 10
316.313534
 20
236.414769
 42
-0.050234
  0
VERTEX
  8
0
 10
314.628345
 20
235.141573
 42
-0.075117
  0
VERTEX
  8
0
 10
312.929104
 20
234.429766
 42
-0.050111
  0
VERTEX
  8
0
 10
310.633381
 20
234.090783
 42
-0.011616
  0
VERTEX
  8
0
 10
306.726169
 20
234.000000
 42
0.000000
  0
VERTEX
  8
0
 10
299.744384
 20
234.000000
 42
0.000000
  0
VERTEX
  8
0
 10
300.407447
 20
238.146572
 42
-0.041735
  0
VERTEX
  8
0
 10
301.818186
 20
243.862184
 42
-0.051277
  0
VERTEX
  8
0
 10
304.097554
 20
248.860273
 42
-0.047078
  0
VERTEX
  8
0
 10
307.519418
 20
253.608861
 42
-0.028072
  0
VERTEX
  8
0
 10
312.395375
 20
258.590901
 42
0.000000
  0
VERTEX
  8
0
 10
319.500000
 20
265.078446
 42
0.000000
  0
VERTEX
  8
0
 10
319.790873
 20
254.289223
 42
-0.005476
  0
VERTEX
  8
0
 10
319.859724
 20
249.986927
 42
-0.006794
  0
VERTEX
  8
0
 10
319.825541
 20
245.983360
 42
-0.005649
  0
VERTEX
  8
0
 10
319.713413
 20
242.629981
 42
-0.049854
  0
SEQEND
  0
POLYLINE
  8
0
 66
1
 70
1
  0
VERTEX
  8
0
 10
216.198622
 20
154.933089
 42
-0.068666
  0
VERTEX
  8
0
 10
227.087075
 20
149.510555
 42
-0.072690
  0
VERTEX
  8
0
 10
235.863437
 20
141.427578
 42
-0.072916
  0
VERTEX
  8
0
 10
241.939030
 20
131.194850
 42
-0.069751
  0
VERTEX
  8
0
 10
244.939070
 20
119.492365
 42
0.018075
  0
VERTEX
  8
0
 10
245.766267
 20
113.937411
 42
0.065498
  0
VERTEX
  8
0
 10
246.870086
 20
110.547380
 42
0.094808
  0
VERTEX
  8
0
 10
248.564980
 20
108.245311
 42
0.067566
  0
VERTEX
  8
0
 10
251.192009
 20
106.400708
 42
0.032411
  0
VERTEX
  8
0
 10
252.984968
 20
105.616203
 42
0.069973
  0
VERTEX
  8
0
 10
254.455536
 20
105.305939
 42
0.065045
  0
VERTEX
  8
0
 10
256.021556
 20
105.402675
 42
0.024879
  0
VERTEX
  8
0
 10
258.146047
 20
105.925611
 42
0.075447
  0
VERTEX
  8
0
 10
261.170087
 20
107.355577
 42
0.116649
  0
VERTEX
  8
0
 10
263.123230
 20
109.468031
 42
0.074525
  0
VERTEX
  8
0
 10
264.447580
 20
112.931619
 42
0.017172
  0
VERTEX
  8
0
 10
265.582941
 20
119.097507
 42
-0.044411
  0
VERTEX
  8
0
 10
267.918744
 20
128.788405
 42
-0.054027
  0
VERTEX
  8
0
 10
271.836448
 20
137.258430
 42
-0.056641
  0
VERTEX
  8
0
 10
277.291032
 20
144.369311
 42
-0.057439
  0
VERTEX
  8
0
 10
284.178680
 20
150.037090
 42
-0.117105
  0
VERTEX
  8
0
 10
302.753872
 20
156.621280
 42
-0.119202
  0
VERTEX
  8
0
 10
322.174901
 20
154.086425
 42
-0.119357
  0
VERTEX
  8
0
 10
338.272841
 20
142.962730
 42
-0.117619
  0
VERTEX
  8
0
 10
347.605073
 20
125.649811
 42
-0.039545
  0
VERTEX
  8
0
 10
348.227311
 20
122.252984
 42
-0.011617
  0
VERTEX
  8
0
 10
348.645378
 20
116.964715
 42
-0.009426
  0
VERTEX
  8
0
 10
348.903394
 20
109.958013
 42
-0.004338
  0
VERTEX
  8
0
 10
348.988131
 20
100.826725
 42
0.000000
  0
VERTEX
  8
0
 10
349.000000
 20
81.153451
 42
0.000000
  0
VERTEX
  8
0
 10
346.426999
 20
78.095612
 42
-0.089373
  0
VERTEX
  8
0
 10
343.489524
 20
75.656270
 42
-0.068379
  0
VERTEX
  8
0
 10
339.601656
 20
74.111523
 42
-0.032056
  0
VERTEX
  8
0
 10
333.199938
 20
72.962722
 42
-0.004632
  0
VERTEX
  8
0
 10
320.000000
 20
71.582187
 42
-0.012537
  0
VERTEX
  8
0
 10
287.988747
 20
69.341923
 42
-0.011189
  0
VERTEX
  8
0
 10
254.666166
 20
68.594751
 42
-0.011273
  0
VERTEX
  8
0
 10
221.634129
 20
69.338237
 42
-0.013366
  0
VERTEX
  8
0
 10
190.500000
 20
71.576873
 42
-0.004490
  0
VERTEX
  8
0
 10
177.774224
 20
72.950044
 42
-0.030479
  0
VERTEX
  8
0
 10
171.549688
 20
74.066052
 42
-0.063440
  0
VERTEX
  8
0
 10
167.689068
 20
75.541525
 42
-0.078925
  0
VERTEX
  8
0
 10
164.632443
 20
77.861759
 42
0.000000
  0
VERTEX
  8
0
 10
161.860144
 20
80.755416
 42
0.000000
  0
VERTEX
  8
0
 10
162.180072
 20
103.153832
 42
0.000000
  0
VERTEX
  8
0
 10
162.500000
 20
125.552248
 42
0.000000
  0
VERTEX
  8
0
 10
165.935371
 20
132.526124
 42
-0.083640
  0
VERTEX
  8
0
 10
174.957019
 20
145.040799
 42
-0.090231
  0
VERTEX
  8
0
 10
187.369557
 20
153.520363
 42
-0.092648
  0
VERTEX
  8
0
 10
201.687187
 20
156.941994
 42
-0.093962
  0
SEQEND
  0
POLYLINE
  8
0
 66
1
 70
1
  0
VERTEX
  8
0
 10
252.255135
 20
301.786306
 42
0.146165
  0
VERTEX
  8
0
 10
248.232444
 20
299.354030
 42
0.129788
  0
VERTEX
  8
0
 10
245.974183
 20
295.001080
 42
0.124342
  0
VERTEX
  8
0
 10
246.110554
 20
289.948240
 42
0.128450
  0
VERTEX
  8
0
 10
248.636364
 20
285.636364
 42
0.040176
  0
VERTEX
  8
0
 10
250.136662
 20
284.359569
 42
0.064603
  0
VERTEX
  8
0
 10
251.611761
 20
283.561828
 42
0.060644
  0
VERTEX
  8
0
 10
253.308466
 20
283.136547
 42
0.031123
  0
VERTEX
  8
0
 10
255.500000
 20
283.000000
 42
0.031123
  0
VERTEX
  8
0
 10
257.691534
 20
283.136547
 42
0.060644
  0
VERTEX
  8
0
 10
259.388239
 20
283.561828
 42
0.064603
  0
VERTEX
  8
0
 10
260.863338
 20
284.359569
 42
0.040176
  0
VERTEX
  8
0
 10
262.363636
 20
285.636364
 42
0.101840
  0
VERTEX
  8
0
 10
264.397307
 20
288.724093
 42
0.093072
  0
VERTEX
  8
0
 10
265.131883
 20
292.466341
 42
0.093762
  0
VERTEX
  8
0
 10
264.457876
 20
296.196582
 42
0.105302
  0
VERTEX
  8
0
 10
262.475537
 20
299.251736
 42
0.053637
  0
VERTEX
  8
0
 10
260.213206
 20
301.074567
 42
0.082176
  0
VERTEX
  8
0
 10
257.906148
 20
302.069262
 42
0.078818
  0
VERTEX
  8
0
 10
255.330894
 20
302.290699
 42
0.045535
  0
SEQEND
  0
POLYLINE
  8
0
 66
1
 70
1
  0
VERTEX
  8
0
 10
199.250842
 20
120.224098
 42
0.135446
  0
VERTEX
  8
0
 10
196.722164
 20
116.866402
 42
0.094761
  0
VERTEX
  8
0
 10
195.835384
 20
112.186587
 42
0.097451
  0
VERTEX
  8
0
 10
196.741142
 20
107.624131
 42
0.153921
  0
VERTEX
  8
0
 10
199.277244
 20
104.586803
 42
0.119818
  0
VERTEX
  8
0
 10
204.572026
 20
102.766430
 42
0.138462
  0
VERTEX
  8
0
 10
209.803983
 20
103.732151
 42
0.144891
  0
VERTEX
  8
0
 10
213.595505
 20
107.232434
 42
0.135200
  0
VERTEX
  8
0
 10
215.000000
 20
112.331645
 42
0.086501
  0
VERTEX
  8
0
 10
214.322170
 20
116.220381
 42
0.107739
  0
VERTEX
  8
0
 10
212.378821
 20
119.321485
 42
0.109467
  0
VERTEX
  8
0
 10
209.349055
 20
121.299073
 42
0.091678
  0
VERTEX
  8
0
 10
205.562909
 20
121.977764
 42
0.035618
  0
VERTEX
  8
0
 10
203.819507
 20
121.843818
 42
0.030786
  0
VERTEX
  8
0
 10
202.023622
 20
121.462091
 42
0.032056
  0
VERTEX
  8
0
 10
200.412727
 20
120.901153
 42
0.064310
  0
SEQEND
  0
POLYLINE
  8
0
 66
1
 70
1
  0
VERTEX
  8
0
 10
298.636364
 20
119.363636
 42
0.128450
  0
VERTEX
  8
0
 10
296.110554
 20
115.051760
 42
0.124342
  0
VERTEX
  8
0
 10
295.974183
 20
109.998920
 42
0.129788
  0
VERTEX
  8
0
 10
298.232444
 20
105.645970
 42
0.146165
  0
VERTEX
  8
0
 10
302.255135
 20
103.213694
 42
0.093719
  0
VERTEX
  8
0
 10
307.187476
 20
102.884430
 42
0.128055
  0
VERTEX
  8
0
 10
311.313166
 20
104.508219
 42
0.132479
  0
VERTEX
  8
0
 10
314.029907
 20
107.883707
 42
0.103938
  0
VERTEX
  8
0
 10
315.000000
 20
112.500000
 42
0.082750
  0
VERTEX
  8
0
 10
314.344732
 20
116.432210
 42
0.114281
  0
VERTEX
  8
0
 10
312.457309
 20
119.457309
 42
0.114281
  0
VERTEX
  8
0
 10
309.432210
 20
121.344732
 42
0.082750
  0
VERTEX
  8
0
 10
305.500000
 20
122.000000
 42
0.031123
  0
VERTEX
  8
0
 10
303.308466
 20
121.863453
 42
0.060644
  0
VERTEX
  8
0
 10
301.611761
 20
121.438172
 42
0.064603
  0
VERTEX
  8
0
 10
300.136662
 20
120.640431
 42
0.040176
  0
SEQEND
  0
ENDSEC
  0
EOF
