  0
SECTION
  2
HEADER
  9
$ACADVER
  1
AC1006
  9
$EXTMIN
 10
0.000000
 20
0.000000
 30
0.000000
  9
$EXTMAX
 10
512.000000
 20
512.000000
 30
0.000000
  0
ENDSEC
  0
SECTION
  2
ENTITIES
  0
POLYLINE
  8
0
 66
1
 70
1
  0
VERTEX
  8
0
 10
122.777200
 20
510.826167
 42
0.185637
  0
VERTEX
  8
0
 10
122.104338
 20
509.722923
 42
0.144695
  0
VERTEX
  8
0
 10
122.255303
 20
508.315137
 42
0.044852
  0
VERTEX
  8
0
 10
123.487832
 20
505.969856
 42
0.004276
  0
VERTEX
  8
0
 10
127.047524
 20
500.560971
 42
-0.007572
  0
VERTEX
  8
0
 10
129.318966
 20
497.059518
 42
-0.011468
  0
VERTEX
  8
0
 10
131.177677
 20
493.940311
 42
-0.006322
  0
VERTEX
  8
0
 10
132.631764
 20
491.290072
 42
-0.205555
  0
VERTEX
  8
0
 10
132.691744
 20
490.575232
 42
-0.194748
  0
VERTEX
  8
0
 10
132.308109
 20
490.125665
 42
-0.028256
  0
VERTEX
  8
0
 10
131.188651
 20
489.621462
 42
-0.028523
  0
VERTEX
  8
0
 10
129.728665
 20
489.154336
 42
-0.020890
  0
VERTEX
  8
0
 10
128.064780
 20
488.798202
 42
0.027085
  0
VERTEX
  8
0
 10
124.928766
 20
488.086253
 42
0.074087
  0
VERTEX
  8
0
 10
122.863721
 20
487.150901
 42
0.101023
  0
VERTEX
  8
0
 10
121.538284
 20
485.853869
 42
0.084976
  0
VERTEX
  8
0
 10
120.726254
 20
484.061196
 42
0.133249
  0
VERTEX
  8
0
 10
120.745099
 20
482.003916
 42
0.026010
  0
VERTEX
  8
0
 10
121.943355
 20
478.460657
 42
0.025947
  0
VERTEX
  8
0
 10
123.502120
 20
475.061798
 42
0.134641
  0
VERTEX
  8
0
 10
124.895873
 20
473.564354
 42
-0.206376
  0
VERTEX
  8
0
 10
125.749917
 20
472.342885
 42
-0.064218
  0
VERTEX
  8
0
 10
125.921101
 20
470.061302
 42
-0.060141
  0
VERTEX
  8
0
 10
125.480840
 20
467.549422
 42
-0.088710
  0
VERTEX
  8
0
 10
124.468197
 20
465.558870
 42
0.105368
  0
VERTEX
  8
0
 10
123.451234
 20
463.385182
 42
0.051859
  0
VERTEX
  8
0
 10
123.071886
 20
460.341951
 42
0.034438
  0
VERTEX
  8
0
 10
123.278354
 20
456.084651
 42
0.011591
  0
VERTEX
  8
0
 10
124.149402
 20
449.925364
 42
-0.008407
  0
VERTEX
  8
0
 10
124.549845
 20
447.218207
 42
-0.012689
  0
VERTEX
  8
0
 10
124.798871
 20
444.847643
 42
-0.007463
  0
VERTEX
  8
0
 10
124.925789
 20
442.878507
 42
-0.211794
  0
VERTEX
  8
0
 10
124.746307
 20
442.412974
 42
-0.310061
  0
VERTEX
  8
0
 10
123.796866
 20
442.236205
 42
-0.009367
  0
VERTEX
  8
0
 10
119.964518
 20
444.021625
 42
-0.010229
  0
VERTEX
  8
0
 10
114.170575
 20
447.002559
 42
-0.002061
  0
VERTEX
  8
0
 10
104.000000
 20
452.555520
 42
0.012654
  0
VERTEX
  8
0
 10
95.677107
 20
456.873395
 42
0.025606
  0
VERTEX
  8
0
 10
88.885363
 20
459.761431
 42
0.017529
  0
VERTEX
  8
0
 10
80.374514
 20
462.542299
 42
0.003271
  0
VERTEX
  8
0
 10
64.559298
 20
466.991092
 42
-0.007846
  0
VERTEX
  8
0
 10
57.489244
 20
469.049877
 42
-0.003711
  0
VERTEX
  8
0
 10
48.433585
 20
471.915495
 42
-0.003677
  0
VERTEX
  8
0
 10
38.999607
 20
475.054903
 42
-0.005188
  0
VERTEX
  8
0
 10
30.643815
 20
478.001050
 42
0.003568
  0
VERTEX
  8
0
 10
23.309826
 20
480.613660
 42
0.005684
  0
VERTEX
  8
0
 10
16.997736
 20
482.731453
 42
0.001640
  0
VERTEX
  8
0
 10
11.514085
 20
484.482355
 42
0.218207
  0
VERTEX
  8
0
 10
10.834517
 20
484.397726
 42
0.230542
  0
VERTEX
  8
0
 10
10.077112
 20
483.200464
 42
0.202765
  0
VERTEX
  8
0
 10
10.502091
 20
481.772247
 42
0.088082
  0
VERTEX
  8
0
 10
12.418866
 20
480.138789
 42
0.028493
  0
VERTEX
  8
0
 10
15.750000
 20
478.433744
 42
-0.018418
  0
VERTEX
  8
0
 10
23.498018
 20
474.662839
 42
-0.021293
  0
VERTEX
  8
0
 10
30.571288
 20
470.496065
 42
-0.022119
  0
VERTEX
  8
0
 10
36.245783
 20
466.452124
 42
-0.081245
  0
VERTEX
  8
0
 10
39.226502
 20
463.222006
 42
-0.058328
  0
VERTEX
  8
0
 10
43.178487
 20
455.376146
 42
-0.035528
  0
VERTEX
  8
0
 10
46.040711
 20
445.386933
 42
-0.034236
  0
VERTEX
  8
0
 10
47.564079
 20
434.544294
 42
-0.039263
  0
VERTEX
  8
0
 10
47.487256
 20
424.086777
 42
-0.034244
  0
VERTEX
  8
0
 10
45.193701
 20
409.340106
 42
-0.041369
  0
VERTEX
  8
0
 10
40.981420
 20
395.981167
 42
-0.039993
  0
VERTEX
  8
0
 10
34.489718
 20
383.140442
 42
-0.028837
  0
VERTEX
  8
0
 10
25.346717
 20
369.937765
 42
0.012825
  0
VERTEX
  8
0
 10
22.737598
 20
366.416503
 42
0.047645
  0
VERTEX
  8
0
 10
21.374623
 20
364.018389
 42
0.121417
  0
VERTEX
  8
0
 10
21.113849
 20
362.584950
 42
0.365205
  0
VERTEX
  8
0
 10
21.750000
 20
361.918322
 42
0.015221
  0
VERTEX
  8
0
 10
22.287053
 20
361.876327
 42
0.000478
  0
VERTEX
  8
0
 10
24.482813
 20
361.773843
 42
0.000931
  0
VERTEX
  8
0
 10
27.071964
 20
361.660313
 42
0.000645
  0
VERTEX
  8
0
 10
30.000000
 20
361.541175
 42
-0.042741
  0
VERTEX
  8
0
 10
36.975609
 20
360.666036
 42
-0.053561
  0
VERTEX
  8
0
 10
43.166555
 20
358.633272
 42
-0.059557
  0
VERTEX
  8
0
 10
48.221025
 20
355.581120
 42
-0.081171
  0
VERTEX
  8
0
 10
51.830307
 20
351.680236
 42
-0.080859
  0
VERTEX
  8
0
 10
53.687556
 20
347.557244
 42
-0.059905
  0
VERTEX
  8
0
 10
54.397232
 20
342.600362
 42
-0.052778
  0
VERTEX
  8
0
 10
53.932430
 20
337.007979
 42
-0.038757
  0
VERTEX
  8
0
 10
52.296439
 20
331.000000
 42
0.017396
  0
VERTEX
  8
0
 10
50.927649
 20
326.705395
 42
0.122518
  0
VERTEX
  8
0
 10
50.862501
 20
324.529719
 42
0.255119
  0
VERTEX
  8
0
 10
51.843809
 20
323.396018
 42
0.089676
  0
VERTEX
  8
0
 10
54.034112
 20
323.000000
 42
-0.025793
  0
VERTEX
  8
0
 10
55.490027
 20
322.924847
 42
-0.008676
  0
VERTEX
  8
0
 10
57.602206
 20
322.669094
 42
-0.008605
  0
VERTEX
  8
0
 10
59.932891
 20
322.304778
 42
-0.009749
  0
VERTEX
  8
0
 10
62.154190
 20
321.873512
 42
-0.120389
  0
VERTEX
  8
0
 10
69.519784
 20
318.307470
 42
-0.147563
  0
VERTEX
  8
0
 10
73.738350
 20
311.969623
 42
-0.121611
  0
VERTEX
  8
0
 10
74.189714
 20
303.335643
 42
-0.068307
  0
VERTEX
  8
0
 10
70.804757
 20
293.329562
 42
0.035529
  0
VERTEX
  8
0
 10
69.115901
 20
289.239344
 42
0.291046
  0
VERTEX
  8
0
 10
69.585086
 20
287.369877
 42
0.192349
  0
VERTEX
  8
0
 10
71.746044
 20
286.510764
 42
0.016697
  0
VERTEX
  8
0
 10
77.778016
 20
286.722239
 42
-0.054840
  0
VERTEX
  8
0
 10
87.396713
 20
286.326349
 42
-0.096081
  0
VERTEX
  8
0
 10
94.876930
 20
283.661127
 42
-0.095768
  0
VERTEX
  8
0
 10
100.834369
 20
278.385180
 42
-0.054200
  0
VERTEX
  8
0
 10
105.864835
 20
270.120011
 42
-0.023690
  0
VERTEX
  8
0
 10
107.266904
 20
266.719555
 42
-0.043090
  0
VERTEX
  8
0
 10
108.031978
 20
263.815321
 42
-0.033791
  0
VERTEX
  8
0
 10
108.389965
 20
260.382188
 42
-0.009535
  0
VERTEX
  8
0
 10
108.482943
 20
255.000000
 42
-0.007536
  0
VERTEX
  8
0
 10
108.412658
 20
250.833276
 42
-0.005340
  0
VERTEX
  8
0
 10
108.213412
 20
246.160938
 42
-0.005391
  0
VERTEX
  8
0
 10
107.927253
 20
241.701504
 42
-0.011364
  0
VERTEX
  8
0
 10
107.589343
 20
238.250000
 42
0.004685
  0
VERTEX
  8
0
 10
107.081363
 20
233.690245
 42
0.064881
  0
VERTEX
  8
0
 10
107.127716
 20
232.035454
 42
0.228856
  0
VERTEX
  8
0
 10
107.648175
 20
231.286891
 42
0.129030
  0
VERTEX
  8
0
 10
108.741391
 20
231.000000
 42
0.097492
  0
VERTEX
  8
0
 10
109.633883
 20
231.175691
 42
0.050491
  0
VERTEX
  8
0
 10
110.640794
 20
231.712292
 42
0.047510
  0
VERTEX
  8
0
 10
111.600660
 20
232.497234
 42
0.052631
  0
VERTEX
  8
0
 10
112.358786
 20
233.424825
 42
-0.094550
  0
VERTEX
  8
0
 10
119.993221
 20
241.320471
 42
-0.075777
  0
VERTEX
  8
0
 10
130.596008
 20
246.605493
 42
-0.075791
  0
VERTEX
  8
0
 10
142.289877
 20
248.490910
 42
-0.094653
  0
VERTEX
  8
0
 10
153.089786
 20
246.523637
 42
0.177355
  0
VERTEX
  8
0
 10
154.832799
 20
246.492494
 42
0.206947
  0
VERTEX
  8
0
 10
156.045530
 20
247.602780
 42
0.116309
  0
VERTEX
  8
0
 10
156.489723
 20
249.915434
 42
0.046231
  0
VERTEX
  8
0
 10
156.054497
 20
253.138673
 42
-0.016647
  0
VERTEX
  8
0
 10
155.670635
 20
255.099489
 42
-0.010717
  0
VERTEX
  8
0
 10
155.350587
 20
257.393860
 42
-0.010773
  0
VERTEX
  8
0
 10
155.133769
 20
259.654435
 42
-0.019862
  0
VERTEX
  8
0
 10
155.070335
 20
261.500000
 42
0.000000
  0
VERTEX
  8
0
 10
155.091778
 20
265.500000
 42
0.000000
  0
VERTEX
  8
0
 10
158.128082
 20
259.000000
 42
-0.013076
  0
VERTEX
  8
0
 10
159.985761
 20
254.735798
 42
-0.065685
  0
VERTEX
  8
0
 10
160.637100
 20
252.221914
 42
-0.055975
  0
VERTEX
  8
0
 10
160.666179
 20
249.454698
 42
-0.007900
  0
VERTEX
  8
0
 10
159.998953
 20
243.784039
 42
0.046935
  0
VERTEX
  8
0
 10
159.466421
 20
230.178964
 42
0.033757
  0
VERTEX
  8
0
 10
161.320243
 20
215.080090
 42
0.032788
  0
VERTEX
  8
0
 10
165.299231
 20
199.828851
 42
0.036241
  0
VERTEX
  8
0
 10
171.139308
 20
185.750000
 42
0.011202
  0
VERTEX
  8
0
 10
172.309125
 20
183.546551
 42
0.016941
  0
VERTEX
  8
0
 10
173.433558
 20
181.689063
 42
0.011775
  0
VERTEX
  8
0
 10
174.431957
 20
180.235247
 42
0.240871
  0
VERTEX
  8
0
 10
174.891950
 20
180.000000
 42
0.185196
  0
VERTEX
  8
0
 10
175.947850
 20
180.404987
 42
0.074210
  0
VERTEX
  8
0
 10
176.949465
 20
181.618172
 42
0.054311
  0
VERTEX
  8
0
 10
177.827871
 20
183.515947
 42
0.029444
  0
VERTEX
  8
0
 10
178.504965
 20
186.000000
 42
-0.031105
  0
VERTEX
  8
0
 10
179.413542
 20
189.290192
 42
-0.037111
  0
VERTEX
  8
0
 10
180.683626
 20
192.246217
 42
-0.039803
  0
VERTEX
  8
0
 10
182.002514
 20
194.351925
 42
-0.389373
  0
VERTEX
  8
0
 10
182.947147
 20
194.532665
 42
-0.102265
  0
VERTEX
  8
0
 10
183.422463
 20
194.083251
 42
-0.007003
  0
VERTEX
  8
0
 10
184.467711
 20
192.540810
 42
-0.009770
  0
VERTEX
  8
0
 10
185.661341
 20
190.645496
 42
-0.007171
  0
VERTEX
  8
0
 10
186.913109
 20
188.499969
 42
0.017149
  0
VERTEX
  8
0
 10
188.199272
 20
186.393209
 42
0.024141
  0
VERTEX
  8
0
 10
189.497158
 20
184.615616
 42
0.021927
  0
VERTEX
  8
0
 10
190.664703
 20
183.291881
 42
0.203794
  0
VERTEX
  8
0
 10
191.351079
 20
183.000000
 42
0.170902
  0
VERTEX
  8
0
 10
191.987493
 20
183.224073
 42
0.037556
  0
VERTEX
  8
0
 10
192.846884
 20
184.028125
 42
0.034965
  0
VERTEX
  8
0
 10
193.750456
 20
185.160056
 42
0.027451
  0
VERTEX
  8
0
 10
194.569933
 20
186.500000
 42
-0.016097
  0
VERTEX
  8
0
 10
196.075575
 20
189.092311
 42
-0.191080
  0
VERTEX
  8
0
 10
196.993463
 20
189.768337
 42
-0.213531
  0
VERTEX
  8
0
 10
198.070002
 20
189.590686
 42
-0.020560
  0
VERTEX
  8
0
 10
200.272871
 20
188.000000
 42
0.031828
  0
VERTEX
  8
0
 10
202.483187
 20
186.478473
 42
0.157259
  0
VERTEX
  8
0
 10
203.936975
 20
186.142242
 42
0.182648
  0
VERTEX
  8
0
 10
205.187099
 20
186.739954
 42
0.045895
  0
VERTEX
  8
0
 10
206.617199
 20
188.538525
 42
0.065380
  0
VERTEX
  8
0
 10
207.422260
 20
190.207407
 42
0.053152
  0
VERTEX
  8
0
 10
207.841724
 20
192.149789
 42
0.034212
  0
VERTEX
  8
0
 10
207.943605
 20
194.823537
 42
0.009531
  0
VERTEX
  8
0
 10
207.736654
 20
199.011666
 42
0.000000
  0
VERTEX
  8
0
 10
207.192803
 20
206.946282
 42
0.000000
  0
VERTEX
  8
0
 10
210.846402
 20
205.351284
 42
0.020797
  0
VERTEX
  8
0
 10
217.636890
 20
202.717281
 42
0.011888
  0
VERTEX
  8
0
 10
226.027886
 20
200.078691
 42
0.011809
  0
VERTEX
  8
0
 10
234.697049
 20
197.797795
 42
0.017668
  0
VERTEX
  8
0
 10
242.374196
 20
196.254939
 42
-0.000347
  0
VERTEX
  8
0
 10
246.270059
 20
195.611473
 42
-0.000563
  0
VERTEX
  8
0
 10
249.581938
 20
195.058267
 42
-0.000069
  0
VERTEX
  8
0
 10
252.534202
 20
194.561298
 42
-0.045914
  0
VERTEX
  8
0
 10
252.691977
 20
194.519551
 42
-0.263372
  0
VERTEX
  8
0
 10
252.782785
 20
194.412895
 42
-0.000823
  0
VERTEX
  8
0
 10
253.127997
 20
192.604457
 42
-0.004229
  0
VERTEX
  8
0
 10
253.500773
 20
190.538505
 42
-0.002596
  0
VERTEX
  8
0
 10
253.906714
 20
188.098624
 42
0.039685
  0
VERTEX
  8
0
 10
255.505142
 20
181.538533
 42
0.036230
  0
VERTEX
  8
0
 10
258.156602
 20
175.102054
 42
0.035708
  0
VERTEX
  8
0
 10
261.755098
 20
169.024311
 42
0.035919
  0
VERTEX
  8
0
 10
266.175370
 20
163.533104
 42
0.023961
  0
VERTEX
  8
0
 10
270.089960
 20
159.712018
 42
0.122309
  0
VERTEX
  8
0
 10
272.763946
 20
158.313141
 42
0.331066
  0
VERTEX
  8
0
 10
274.347241
 20
158.984106
 42
0.133419
  0
VERTEX
  8
0
 10
275.000000
 20
161.386828
 42
-0.035662
  0
VERTEX
  8
0
 10
275.152488
 20
163.522043
 42
-0.052816
  0
VERTEX
  8
0
 10
275.612966
 20
165.339647
 42
-0.068091
  0
VERTEX
  8
0
 10
276.282668
 20
166.596330
 42
-0.240797
  0
VERTEX
  8
0
 10
277.072260
 20
167.000000
 42
-0.116300
  0
VERTEX
  8
0
 10
277.612394
 20
166.872643
 42
-0.007382
  0
VERTEX
  8
0
 10
279.068010
 20
166.118750
 42
-0.010521
  0
VERTEX
  8
0
 10
280.786478
 20
165.149181
 42
-0.007613
  0
VERTEX
  8
0
 10
282.661052
 20
164.000000
 42
0.055932
  0
VERTEX
  8
0
 10
288.828233
 20
160.994803
 42
0.298531
  0
VERTEX
  8
0
 10
292.292363
 20
161.837169
 42
0.208328
  0
VERTEX
  8
0
 10
293.730298
 20
165.885917
 42
0.031642
  0
VERTEX
  8
0
 10
292.567627
 20
174.590573
 42
-0.025321
  0
VERTEX
  8
0
 10
291.644494
 20
180.894022
 42
-0.030848
  0
VERTEX
  8
0
 10
291.447105
 20
186.854089
 42
-0.029692
  0
VERTEX
  8
0
 10
291.873447
 20
191.689918
 42
-0.220975
  0
VERTEX
  8
0
 10
293.109961
 20
193.567960
 42
-0.113812
  0
VERTEX
  8
0
 10
293.840640
 20
193.815728
 42
-0.002543
  0
VERTEX
  8
0
 10
297.558189
 20
194.170680
 42
-0.005615
  0
VERTEX
  8
0
 10
301.937586
 20
194.516826
 42
-0.003753
  0
VERTEX
  8
0
 10
306.957307
 20
194.819077
 42
0.000000
  0
VERTEX
  8
0
 10
319.882061
 20
195.500000
 42
0.000000
  0
VERTEX
  8
0
 10
321.004419
 20
189.054082
 42
0.033514
  0
VERTEX
  8
0
 10
322.439483
 20
183.174459
 42
0.031213
  0
VERTEX
  8
0
 10
324.673832
 20
177.393275
 42
0.032197
  0
VERTEX
  8
0
 10
327.514965
 20
172.137536
 42
0.043718
  0
VERTEX
  8
0
 10
330.765951
 20
167.837304
 42
0.051161
  0
VERTEX
  8
0
 10
333.541117
 20
165.334449
 42
0.103226
  0
VERTEX
  8
0
 10
336.211335
 20
164.123078
 42
0.130182
  0
VERTEX
  8
0
 10
338.722795
 20
164.220417
 42
0.109919
  0
VERTEX
  8
0
 10
341.041593
 20
165.537641
 42
-0.050175
  0
VERTEX
  8
0
 10
342.039463
 20
166.273331
 42
-0.115582
  0
VERTEX
  8
0
 10
342.923476
 20
166.551529
 42
-0.097023
  0
VERTEX
  8
0
 10
343.937589
 20
166.430592
 42
-0.028856
  0
VERTEX
  8
0
 10
345.399226
 20
165.863962
 42
0.037802
  0
VERTEX
  8
0
 10
346.932180
 20
165.300984
 42
0.106683
  0
VERTEX
  8
0
 10
348.064704
 20
165.228596
 42
0.096178
  0
VERTEX
  8
0
 10
349.194768
 20
165.628974
 42
0.027272
  0
VERTEX
  8
0
 10
350.755089
 20
166.666469
 42
0.066951
  0
VERTEX
  8
0
 10
352.710423
 20
168.581671
 42
0.081045
  0
VERTEX
  8
0
 10
353.940853
 20
170.832212
 42
0.058984
  0
VERTEX
  8
0
 10
354.629169
 20
173.899356
 42
0.019653
  0
VERTEX
  8
0
 10
354.922282
 20
178.500000
 42
-0.047557
  0
VERTEX
  8
0
 10
355.392247
 20
182.418466
 42
-0.037720
  0
VERTEX
  8
0
 10
356.611388
 20
186.506680
 42
-0.037047
  0
VERTEX
  8
0
 10
358.462987
 20
190.447108
 42
-0.041164
  0
VERTEX
  8
0
 10
360.820777
 20
193.926089
 42
0.000000
  0
VERTEX
  8
0
 10
362.774252
 20
196.352179
 42
0.000000
  0
VERTEX
  8
0
 10
372.887126
 20
195.063404
 42
-0.007784
  0
VERTEX
  8
0
 10
378.916208
 20
194.199483
 42
-0.051040
  0
VERTEX
  8
0
 10
381.864402
 20
193.415571
 42
-0.272056
  0
VERTEX
  8
0
 10
382.566577
 20
192.543100
 42
-0.299402
  0
VERTEX
  8
0
 10
382.114173
 20
191.570563
 42
0.155685
  0
VERTEX
  8
0
 10
381.688229
 20
191.073331
 42
0.010035
  0
VERTEX
  8
0
 10
380.973053
 20
189.279484
 42
0.013883
  0
VERTEX
  8
0
 10
380.210172
 20
187.063368
 42
0.009855
  0
VERTEX
  8
0
 10
379.473437
 20
184.539936
 42
0.022985
  0
VERTEX
  8
0
 10
378.635487
 20
180.764183
 42
0.025531
  0
VERTEX
  8
0
 10
378.183353
 20
177.057419
 42
0.020365
  0
VERTEX
  8
0
 10
378.053934
 20
172.686422
 42
0.008244
  0
VERTEX
  8
0
 10
378.218574
 20
166.725531
 42
0.013662
  0
VERTEX
  8
0
 10
379.000179
 20
155.800830
 42
0.149251
  0
VERTEX
  8
0
 10
380.676275
 20
151.781234
 42
0.507659
  0
VERTEX
  8
0
 10
382.884193
 20
151.914065
 42
0.048142
  0
VERTEX
  8
0
 10
385.794055
 20
157.572492
 42
-0.010662
  0
VERTEX
  8
0
 10
386.797379
 20
159.944936
 42
-0.012121
  0
VERTEX
  8
0
 10
387.861197
 20
162.171826
 42
-0.011358
  0
VERTEX
  8
0
 10
388.849944
 20
164.013906
 42
-0.063917
  0
VERTEX
  8
0
 10
389.518356
 20
164.906064
 42
-0.043413
  0
VERTEX
  8
0
 10
390.283946
 20
165.568610
 42
-0.299934
  0
VERTEX
  8
0
 10
390.756134
 20
165.589308
 42
-0.181068
  0
VERTEX
  8
0
 10
391.129303
 20
165.121712
 42
-0.017351
  0
VERTEX
  8
0
 10
391.539892
 20
163.697082
 42
0.096381
  0
VERTEX
  8
0
 10
393.100460
 20
160.365581
 42
0.250429
  0
VERTEX
  8
0
 10
395.412060
 20
159.249545
 42
0.188964
  0
VERTEX
  8
0
 10
398.173482
 20
160.464539
 42
0.059343
  0
VERTEX
  8
0
 10
401.008137
 20
164.085237
 42
-0.054681
  0
VERTEX
  8
0
 10
403.522491
 20
167.359046
 42
-0.035463
  0
VERTEX
  8
0
 10
407.064828
 20
170.565769
 42
-0.035841
  0
VERTEX
  8
0
 10
410.919292
 20
173.164241
 42
-0.069011
  0
VERTEX
  8
0
 10
414.365893
 20
174.555697
 42
-0.053172
  0
VERTEX
  8
0
 10
415.587893
 20
174.727480
 42
-0.031801
  0
VERTEX
  8
0
 10
417.055760
 20
174.683188
 42
-0.031562
  0
VERTEX
  8
0
 10
418.528605
 20
174.450260
 42
-0.046939
  0
VERTEX
  8
0
 10
419.769411
 20
174.047645
 42
-0.094787
  0
VERTEX
  8
0
 10
422.830380
 20
171.968864
 42
-0.031756
  0
VERTEX
  8
0
 10
426.417822
 20
167.892748
 42
-0.031618
  0
VERTEX
  8
0
 10
429.724499
 20
163.007281
 42
-0.043162
  0
VERTEX
  8
0
 10
432.014252
 20
158.212487
 42
-0.053808
  0
VERTEX
  8
0
 10
433.342999
 20
153.046296
 42
-0.028885
  0
VERTEX
  8
0
 10
433.912176
 20
146.480938
 42
-0.028856
  0
VERTEX
  8
0
 10
433.725069
 20
140.024559
 42
-0.065450
  0
VERTEX
  8
0
 10
432.673601
 20
135.264032
 42
0.000000
  0
VERTEX
  8
0
 10
431.499358
 20
132.028064
 42
0.000000
  0
VERTEX
  8
0
 10
428.596361
 20
137.572715
 42
0.056943
  0
VERTEX
  8
0
 10
424.661738
 20
143.372523
 42
0.057972
  0
VERTEX
  8
0
 10
419.541508
 20
148.096187
 42
0.056373
  0
VERTEX
  8
0
 10
413.337386
 20
151.621243
 42
0.048911
  0
VERTEX
  8
0
 10
406.200779
 20
153.878387
 42
0.021716
  0
VERTEX
  8
0
 10
399.238599
 20
155.038773
 42
0.238760
  0
VERTEX
  8
0
 10
396.655952
 20
154.104750
 42
0.316895
  0
VERTEX
  8
0
 10
396.319509
 20
151.738984
 42
0.032666
  0
VERTEX
  8
0
 10
399.371819
 20
146.621588
 42
-0.005662
  0
VERTEX
  8
0
 10
400.762004
 20
144.553350
 42
-0.008289
  0
VERTEX
  8
0
 10
401.934222
 20
142.699713
 42
-0.004578
  0
VERTEX
  8
0
 10
402.877925
 20
141.118793
 42
-0.133028
  0
VERTEX
  8
0
 10
403.000000
 20
140.668080
 42
-0.395080
  0
VERTEX
  8
0
 10
402.771230
 20
140.423748
 42
-0.014547
  0
VERTEX
  8
0
 10
401.390404
 20
140.373086
 42
-0.019553
  0
VERTEX
  8
0
 10
399.621626
 20
140.428855
 42
-0.011594
  0
VERTEX
  8
0
 10
397.520523
 20
140.626534
 42
0.010519
  0
VERTEX
  8
0
 10
394.490839
 20
140.918146
 42
0.063170
  0
VERTEX
  8
0
 10
392.912762
 20
140.837192
 42
0.134520
  0
VERTEX
  8
0
 10
391.981649
 20
140.393299
 42
0.123647
  0
VERTEX
  8
0
 10
391.370760
 20
139.523803
 42
0.101382
  0
VERTEX
  8
0
 10
391.225871
 20
138.650082
 42
0.043720
  0
VERTEX
  8
0
 10
391.373869
 20
137.473439
 42
0.040440
  0
VERTEX
  8
0
 10
391.760766
 20
136.192571
 42
0.039867
  0
VERTEX
  8
0
 10
392.350237
 20
134.984241
 42
-0.068030
  0
VERTEX
  8
0
 10
393.654844
 20
131.878785
 42
-0.093726
  0
VERTEX
  8
0
 10
393.880917
 20
128.868439
 42
-0.088982
  0
VERTEX
  8
0
 10
392.987518
 20
125.868525
 42
-0.055666
  0
VERTEX
  8
0
 10
390.979537
 20
122.791343
 42
0.033924
  0
VERTEX
  8
0
 10
388.556465
 20
119.408373
 42
0.023426
  0
VERTEX
  8
0
 10
386.268804
 20
115.288551
 42
0.022284
  0
VERTEX
  8
0
 10
384.523088
 20
111.331517
 42
0.089834
  0
VERTEX
  8
0
 10
384.021962
 20
108.750000
 42
-0.292208
  0
VERTEX
  8
0
 10
383.259033
 20
107.588401
 42
-0.087502
  0
VERTEX
  8
0
 10
381.108036
 20
107.047138
 42
-0.033942
  0
VERTEX
  8
0
 10
376.958796
 20
107.030135
 42
-0.005143
  0
VERTEX
  8
0
 10
368.680838
 20
107.644203
 42
0.000000
  0
VERTEX
  8
0
 10
361.059921
 20
108.288407
 42
0.000000
  0
VERTEX
  8
0
 10
359.878336
 20
111.894203
 42
0.028851
  0
VERTEX
  8
0
 10
358.614035
 20
115.112280
 42
0.030978
  0
VERTEX
  8
0
 10
357.013274
 20
118.084917
 42
0.018408
  0
VERTEX
  8
0
 10
354.450739
 20
121.889722
 42
0.003640
  0
VERTEX
  8
0
 10
349.561800
 20
128.500000
 42
0.018657
  0
VERTEX
  8
0
 10
344.134674
 20
135.192071
 42
0.013948
  0
VERTEX
  8
0
 10
337.684658
 20
142.163019
 42
0.012625
  0
VERTEX
  8
0
 10
331.509380
 20
148.163603
 42
0.063687
  0
VERTEX
  8
0
 10
327.598914
 20
150.947063
 42
0.073603
  0
VERTEX
  8
0
 10
325.246669
 20
151.790952
 42
0.261021
  0
VERTEX
  8
0
 10
323.776176
 20
151.314828
 42
0.218447
  0
VERTEX
  8
0
 10
323.244431
 20
149.693297
 42
0.055599
  0
VERTEX
  8
0
 10
323.875764
 20
146.926540
 42
-0.012419
  0
VERTEX
  8
0
 10
324.995485
 20
143.438101
 42
-0.173571
  0
VERTEX
  8
0
 10
324.920254
 20
142.141610
 42
-0.401433
  0
VERTEX
  8
0
 10
324.130526
 20
141.802459
 42
-0.040817
  0
VERTEX
  8
0
 10
322.103878
 20
142.755166
 42
0.021315
  0
VERTEX
  8
0
 10
320.492264
 20
143.590915
 42
0.090834
  0
VERTEX
  8
0
 10
319.447098
 20
143.862922
 42
0.129054
  0
VERTEX
  8
0
 10
318.569742
 20
143.700317
 42
0.063279
  0
VERTEX
  8
0
 10
317.603878
 20
143.086211
 42
0.080358
  0
VERTEX
  8
0
 10
316.989242
 20
142.382168
 42
0.044213
  0
VERTEX
  8
0
 10
316.471139
 20
141.359590
 42
0.042635
  0
VERTEX
  8
0
 10
316.118425
 20
140.200409
 42
0.052588
  0
VERTEX
  8
0
 10
316.000000
 20
139.077555
 42
-0.073920
  0
VERTEX
  8
0
 10
315.658558
 20
136.780623
 42
-0.137337
  0
VERTEX
  8
0
 10
314.652804
 20
135.204954
 42
-0.125949
  0
VERTEX
  8
0
 10
312.903602
 20
134.296203
 42
-0.057204
  0
VERTEX
  8
0
 10
310.323053
 20
134.000000
 42
0.093440
  0
VERTEX
  8
0
 10
307.948724
 20
133.552376
 42
0.113080
  0
VERTEX
  8
0
 10
306.079241
 20
132.279198
 42
0.089523
  0
VERTEX
  8
0
 10
304.655595
 20
130.053905
 42
0.040671
  0
VERTEX
  8
0
 10
303.599915
 20
126.750000
 42
-0.036644
  0
VERTEX
  8
0
 10
303.272855
 20
125.697287
 42
-0.049104
  0
VERTEX
  8
0
 10
302.818105
 20
124.807813
 42
-0.058703
  0
VERTEX
  8
0
 10
302.312225
 20
124.192388
 42
-0.193749
  0
VERTEX
  8
0
 10
301.834375
 20
124.000000
 42
-0.067016
  0
VERTEX
  8
0
 10
301.055920
 20
124.104808
 42
-0.002523
  0
VERTEX
  8
0
 10
298.217057
 20
124.898771
 42
-0.004513
  0
VERTEX
  8
0
 10
294.864669
 20
125.887420
 42
-0.003157
  0
VERTEX
  8
0
 10
291.103427
 20
127.059645
 42
-0.010827
  0
VERTEX
  8
0
 10
285.262707
 20
129.060788
 42
-0.047376
  0
VERTEX
  8
0
 10
281.974044
 20
130.634888
 42
-0.050667
  0
VERTEX
  8
0
 10
279.145484
 20
132.751211
 42
-0.013548
  0
VERTEX
  8
0
 10
275.107889
 20
136.671748
 42
0.050934
  0
VERTEX
  8
0
 10
263.043795
 20
146.751055
 42
0.047246
  0
VERTEX
  8
0
 10
248.893169
 20
154.477933
 42
0.043359
  0
VERTEX
  8
0
 10
232.412425
 20
159.916031
 42
0.031589
  0
VERTEX
  8
0
 10
213.383084
 20
163.160960
 42
0.014009
  0
VERTEX
  8
0
 10
206.910909
 20
163.665030
 42
0.011739
  0
VERTEX
  8
0
 10
200.026782
 20
163.845672
 42
0.009285
  0
VERTEX
  8
0
 10
191.761066
 20
163.714964
 42
0.004140
  0
VERTEX
  8
0
 10
180.883084
 20
163.250597
 42
-0.016616
  0
VERTEX
  8
0
 10
157.452553
 20
162.835505
 42
-0.034764
  0
VERTEX
  8
0
 10
139.291960
 20
164.383161
 42
-0.038698
  0
VERTEX
  8
0
 10
122.795977
 20
168.278175
 42
-0.026338
  0
VERTEX
  8
0
 10
104.754300
 20
175.108122
 42
0.011752
  0
VERTEX
  8
0
 10
99.198584
 20
177.398670
 42
0.049104
  0
VERTEX
  8
0
 10
95.715536
 20
178.360468
 42
0.123710
  0
VERTEX
  8
0
 10
93.774201
 20
178.214838
 42
0.323018
  0
VERTEX
  8
0
 10
93.000000
 20
177.141490
 42
0.180603
  0
VERTEX
  8
0
 10
93.230678
 20
176.523687
 42
0.001607
  0
VERTEX
  8
0
 10
96.558772
 20
172.713180
 42
0.005265
  0
VERTEX
  8
0
 10
100.471119
 20
168.356087
 42
0.003343
  0
VERTEX
  8
0
 10
105.114967
 20
163.360105
 42
-0.006685
  0
VERTEX
  8
0
 10
113.519000
 20
154.196737
 42
-0.039314
  0
VERTEX
  8
0
 10
117.465715
 20
149.007692
 42
-0.084644
  0
VERTEX
  8
0
 10
119.038960
 20
145.315147
 42
-0.150420
  0
VERTEX
  8
0
 10
118.827025
 20
142.045040
 42
-0.050925
  0
VERTEX
  8
0
 10
117.592308
 20
139.584443
 42
-0.053178
  0
VERTEX
  8
0
 10
115.900857
 20
137.463008
 42
-0.038484
  0
VERTEX
  8
0
 10
113.356409
 20
135.255957
 42
-0.012898
  0
VERTEX
  8
0
 10
109.325309
 20
132.427830
 42
-0.024377
  0
VERTEX
  8
0
 10
100.753377
 20
127.321603
 42
-0.022839
  0
VERTEX
  8
0
 10
91.539901
 20
122.952162
 42
-0.021053
  0
VERTEX
  8
0
 10
81.269979
 20
119.144323
 42
-0.015079
  0
VERTEX
  8
0
 10
69.507668
 20
115.726257
 42
0.023038
  0
VERTEX
  8
0
 10
67.519918
 20
115.114166
 42
0.035054
  0
VERTEX
  8
0
 10
65.867144
 20
114.386236
 42
0.039460
  0
VERTEX
  8
0
 10
64.678260
 20
113.634516
 42
0.193720
  0
VERTEX
  8
0
 10
64.274256
 20
112.968704
 42
0.225184
  0
VERTEX
  8
0
 10
64.506909
 20
112.160501
 42
0.025735
  0
VERTEX
  8
0
 10
65.869933
 20
110.768066
 42
0.026130
  0
VERTEX
  8
0
 10
67.812087
 20
109.157396
 42
0.015953
  0
VERTEX
  8
0
 10
70.257037
 20
107.455065
 42
-0.031850
  0
VERTEX
  8
0
 10
76.064373
 20
103.131353
 42
-0.090862
  0
VERTEX
  8
0
 10
79.243175
 20
99.247524
 42
-0.147277
  0
VERTEX
  8
0
 10
80.018932
 20
95.647197
 42
-0.145924
  0
VERTEX
  8
0
 10
78.682595
 20
92.202133
 42
-0.068247
  0
VERTEX
  8
0
 10
77.837701
 20
91.375161
 42
-0.001684
  0
VERTEX
  8
0
 10
73.465959
 20
88.153873
 42
-0.003613
  0
VERTEX
  8
0
 10
68.288045
 20
84.422557
 42
-0.002449
  0
VERTEX
  8
0
 10
62.337829
 20
80.243358
 42
0.006487
  0
VERTEX
  8
0
 10
52.078711
 20
72.913320
 42
0.058369
  0
VERTEX
  8
0
 10
48.043712
 20
69.154600
 42
0.300880
  0
VERTEX
  8
0
 10
47.780095
 20
66.962773
 42
0.225455
  0
VERTEX
  8
0
 10
49.750000
 20
65.426107
 42
-0.006336
  0
VERTEX
  8
0
 10
53.381594
 20
64.569481
 42
-0.028927
  0
VERTEX
  8
0
 10
55.451612
 20
63.924255
 42
-0.046967
  0
VERTEX
  8
0
 10
56.907957
 20
63.213812
 42
-0.043244
  0
VERTEX
  8
0
 10
58.250000
 20
62.226732
 42
-0.130949
  0
VERTEX
  8
0
 10
59.467544
 20
60.407455
 42
-0.076605
  0
VERTEX
  8
0
 10
59.930841
 20
57.809224
 42
-0.065294
  0
VERTEX
  8
0
 10
59.604573
 20
54.767522
 42
-0.051862
  0
VERTEX
  8
0
 10
58.499067
 20
51.651129
 42
-0.033315
  0
VERTEX
  8
0
 10
57.485927
 20
49.844660
 42
-0.004862
  0
VERTEX
  8
0
 10
55.153090
 20
46.341269
 42
-0.005481
  0
VERTEX
  8
0
 10
52.305688
 20
42.251103
 42
-0.004675
  0
VERTEX
  8
0
 10
49.216199
 20
38.000000
 42
0.002596
  0
VERTEX
  8
0
 10
46.072917
 20
33.712477
 42
0.002828
  0
VERTEX
  8
0
 10
43.063320
 20
29.512509
 42
0.002652
  0
VERTEX
  8
0
 10
40.525912
 20
25.888244
 42
0.013923
  0
VERTEX
  8
0
 10
39.198052
 20
23.851094
 42
0.046826
  0
VERTEX
  8
0
 10
36.014919
 20
17.364930
 42
0.036284
  0
VERTEX
  8
0
 10
33.763174
 20
9.822100
 42
0.032645
  0
VERTEX
  8
0
 10
32.728029
 20
3.078145
 42
0.283299
  0
VERTEX
  8
0
 10
34.031542
 20
0.480506
 42
0.281645
  0
VERTEX
  8
0
 10
34.706582
 20
0.477463
 42
0.016281
  0
VERTEX
  8
0
 10
36.514410
 20
1.654462
 42
0.020859
  0
VERTEX
  8
0
 10
38.671821
 20
3.299266
 42
0.013451
  0
VERTEX
  8
0
 10
41.035309
 20
5.372205
 42
-0.057498
  0
VERTEX
  8
0
 10
50.623382
 20
12.392876
 42
-0.056763
  0
VERTEX
  8
0
 10
61.598961
 20
17.081951
 42
-0.060990
  0
VERTEX
  8
0
 10
72.494143
 20
18.935610
 42
-0.096770
  0
VERTEX
  8
0
 10
81.827684
 20
17.560796
 42
-0.035991
  0
VERTEX
  8
0
 10
83.960739
 20
16.630823
 42
-0.009019
  0
VERTEX
  8
0
 10
87.292573
 20
14.805772
 42
-0.009164
  0
VERTEX
  8
0
 10
91.036392
 20
12.574378
 42
-0.009110
  0
VERTEX
  8
0
 10
94.703411
 20
10.202998
 42
0.008085
  0
VERTEX
  8
0
 10
98.320489
 20
7.853379
 42
0.008780
  0
VERTEX
  8
0
 10
101.914524
 20
5.687468
 42
0.008353
  0
VERTEX
  8
0
 10
105.053198
 20
3.939668
 42
0.041830
  0
VERTEX
  8
0
 10
106.899223
 20
3.142201
 42
0.075821
  0
VERTEX
  8
0
 10
113.100496
 20
2.059743
 42
0.099365
  0
VERTEX
  8
0
 10
118.748826
 20
3.067851
 42
0.081964
  0
VERTEX
  8
0
 10
124.345253
 20
6.409311
 42
0.037135
  0
VERTEX
  8
0
 10
130.455334
 20
12.406345
 42
-0.030191
  0
VERTEX
  8
0
 10
135.446207
 20
17.442703
 42
-0.060129
  0
VERTEX
  8
0
 10
140.042293
 20
20.651284
 42
-0.068946
  0
VERTEX
  8
0
 10
144.827494
 20
22.407074
 42
-0.053550
  0
VERTEX
  8
0
 10
150.347843
 20
23.000000
 42
-0.039861
  0
VERTEX
  8
0
 10
155.464220
 20
22.591462
 42
-0.067029
  0
VERTEX
  8
0
 10
159.582561
 20
21.348048
 42
-0.051974
  0
VERTEX
  8
0
 10
163.891671
 20
18.817876
 42
-0.015572
  0
VERTEX
  8
0
 10
169.886102
 20
14.108377
 42
0.009828
  0
VERTEX
  8
0
 10
172.797241
 20
11.766678
 42
0.014842
  0
VERTEX
  8
0
 10
175.429744
 20
9.855029
 42
0.009535
  0
VERTEX
  8
0
 10
177.661909
 20
8.394741
 42
0.227923
  0
VERTEX
  8
0
 10
178.386102
 20
8.313243
 42
0.206154
  0
VERTEX
  8
0
 10
179.026031
 20
8.900774
 42
0.104754
  0
VERTEX
  8
0
 10
179.261019
 20
9.988835
 42
0.033498
  0
VERTEX
  8
0
 10
179.128083
 20
12.095614
 42
0.003131
  0
VERTEX
  8
0
 10
178.421458
 20
17.249767
 42
-0.123138
  0
VERTEX
  8
0
 10
179.519387
 20
27.920398
 42
-0.124434
  0
VERTEX
  8
0
 10
185.511377
 20
36.770286
 42
-0.129225
  0
VERTEX
  8
0
 10
194.784389
 20
41.492394
 42
-0.138223
  0
VERTEX
  8
0
 10
204.926540
 20
40.875764
 42
0.069086
  0
VERTEX
  8
0
 10
207.776802
 20
40.305472
 42
0.304403
  0
VERTEX
  8
0
 10
209.180114
 20
41.130450
 42
0.135920
  0
VERTEX
  8
0
 10
209.605086
 20
43.490362
 42
0.013910
  0
VERTEX
  8
0
 10
208.920226
 20
49.178193
 42
-0.123188
  0
VERTEX
  8
0
 10
211.304319
 20
73.554973
 42
-0.128006
  0
VERTEX
  8
0
 10
224.894115
 20
93.536423
 42
-0.126179
  0
VERTEX
  8
0
 10
246.680757
 20
104.545214
 42
-0.117829
  0
VERTEX
  8
0
 10
271.680021
 20
104.101952
 42
-0.018436
  0
VERTEX
  8
0
 10
286.204836
 20
99.780646
 42
-0.016311
  0
VERTEX
  8
0
 10
300.986561
 20
94.239362
 42
-0.013789
  0
VERTEX
  8
0
 10
317.518318
 20
86.879380
 42
-0.007420
  0
VERTEX
  8
0
 10
337.500000
 20
76.947768
 42
0.004995
  0
VERTEX
  8
0
 10
354.145631
 20
68.573387
 42
0.016195
  0
VERTEX
  8
0
 10
365.415585
 20
63.489812
 42
0.022991
  0
VERTEX
  8
0
 10
374.608210
 20
60.182232
 42
0.023598
  0
VERTEX
  8
0
 10
383.986659
 20
57.765287
 42
0.045770
  0
VERTEX
  8
0
 10
398.202352
 20
56.143977
 42
0.036715
  0
VERTEX
  8
0
 10
413.589320
 20
56.934240
 42
0.034357
  0
VERTEX
  8
0
 10
429.730477
 20
60.095429
 42
0.029267
  0
VERTEX
  8
0
 10
446.200948
 20
65.564605
 42
0.013320
  0
VERTEX
  8
0
 10
457.299732
 20
70.332640
 42
0.012765
  0
VERTEX
  8
0
 10
468.289772
 20
75.749300
 42
0.011888
  0
VERTEX
  8
0
 10
477.639737
 20
80.945329
 42
0.060499
  0
VERTEX
  8
0
 10
482.364101
 20
84.550660
 42
0.096809
  0
VERTEX
  8
0
 10
493.824523
 20
101.121266
 42
0.061405
  0
VERTEX
  8
0
 10
500.545243
 20
123.692039
 42
0.057494
  0
VERTEX
  8
0
 10
501.856355
 20
148.938640
 42
0.059891
  0
VERTEX
  8
0
 10
497.328168
 20
173.458758
 42
0.047006
  0
VERTEX
  8
0
 10
490.578302
 20
189.594470
 42
0.044103
  0
VERTEX
  8
0
 10
480.811263
 20
204.557884
 42
0.042434
  0
VERTEX
  8
0
 10
468.175486
 20
218.087312
 42
0.037192
  0
VERTEX
  8
0
 10
452.894153
 20
229.956349
 42
0.022425
  0
VERTEX
  8
0
 10
441.836816
 20
236.602185
 42
0.012351
  0
VERTEX
  8
0
 10
427.778160
 20
243.772447
 42
0.012341
  0
VERTEX
  8
0
 10
413.309865
 20
250.272734
 42
0.021414
  0
VERTEX
  8
0
 10
400.959140
 20
254.847726
 42
0.023456
  0
VERTEX
  8
0
 10
388.371717
 20
258.264102
 42
0.023969
  0
VERTEX
  8
0
 10
375.609821
 20
260.457333
 42
0.017041
  0
VERTEX
  8
0
 10
359.426836
 20
261.888180
 42
0.005276
  0
VERTEX
  8
0
 10
335.000000
 20
262.952771
 42
-0.005378
  0
VERTEX
  8
0
 10
313.198538
 20
263.907370
 42
-0.022022
  0
VERTEX
  8
0
 10
300.024109
 20
265.209927
 42
-0.033664
  0
VERTEX
  8
0
 10
290.046299
 20
267.335460
 42
-0.030151
  0
VERTEX
  8
0
 10
280.058451
 20
270.840189
 42
-0.072925
  0
VERTEX
  8
0
 10
263.994522
 20
280.542713
 42
-0.083867
  0
VERTEX
  8
0
 10
252.269359
 20
294.060262
 42
-0.088458
  0
VERTEX
  8
0
 10
246.057948
 20
310.040909
 42
-0.093042
  0
VERTEX
  8
0
 10
245.911230
 20
326.891254
 42
-0.090677
  0
VERTEX
  8
0
 10
252.452823
 20
344.392320
 42
-0.095958
  0
VERTEX
  8
0
 10
264.671173
 20
358.048327
 42
-0.082653
  0
VERTEX
  8
0
 10
282.740440
 20
367.562306
 42
-0.049563
  0
VERTEX
  8
0
 10
306.465718
 20
372.884407
 42
-0.005900
  0
VERTEX
  8
0
 10
312.191138
 20
373.515737
 42
-0.051847
  0
VERTEX
  8
0
 10
314.737305
 20
373.501540
 42
-0.087644
  0
VERTEX
  8
0
 10
316.683179
 20
372.933522
 42
-0.031447
  0
VERTEX
  8
0
 10
319.195964
 20
371.489015
 42
-0.041294
  0
VERTEX
  8
0
 10
320.793961
 20
370.230404
 42
-0.024546
  0
VERTEX
  8
0
 10
322.485508
 20
368.493009
 42
-0.024461
  0
VERTEX
  8
0
 10
324.012198
 20
366.581881
 42
-0.038364
  0
VERTEX
  8
0
 10
325.108058
 20
364.788190
 42
-0.032624
  0
VERTEX
  8
0
 10
326.222356
 20
362.199808
 42
-0.052623
  0
VERTEX
  8
0
 10
326.783253
 20
359.868911
 42
-0.038352
  0
VERTEX
  8
0
 10
326.939482
 20
356.996146
 42
-0.009993
  0
VERTEX
  8
0
 10
326.743720
 20
352.373398
 42
0.010722
  0
VERTEX
  8
0
 10
326.606469
 20
349.016494
 42
0.017871
  0
VERTEX
  8
0
 10
326.652625
 20
346.188075
 42
0.015685
  0
VERTEX
  8
0
 10
326.837741
 20
343.974209
 42
0.169241
  0
VERTEX
  8
0
 10
327.222862
 20
343.177138
 42
0.222022
  0
VERTEX
  8
0
 10
327.995353
 20
342.896521
 42
0.042993
  0
VERTEX
  8
0
 10
329.497150
 20
343.161197
 42
0.032252
  0
VERTEX
  8
0
 10
331.568238
 20
343.858727
 42
0.013104
  0
VERTEX
  8
0
 10
334.291964
 20
345.060555
 42
-0.051460
  0
VERTEX
  8
0
 10
344.048358
 20
348.499955
 42
-0.047140
  0
VERTEX
  8
0
 10
354.595607
 20
350.006578
 42
-0.049739
  0
VERTEX
  8
0
 10
364.551867
 20
349.491170
 42
-0.083034
  0
VERTEX
  8
0
 10
372.505069
 20
346.883734
 42
0.000277
  0
VERTEX
  8
0
 10
374.911828
 20
345.624808
 42
0.000123
  0
VERTEX
  8
0
 10
378.088989
 20
343.966134
 42
0.000122
  0
VERTEX
  8
0
 10
381.454684
 20
342.211126
 42
0.000164
  0
VERTEX
  8
0
 10
384.500000
 20
340.625387
 42
0.024410
  0
VERTEX
  8
0
 10
397.788944
 20
334.515615
 42
0.012805
  0
VERTEX
  8
0
 10
414.842302
 20
328.164253
 42
0.012686
  0
VERTEX
  8
0
 10
432.753963
 20
322.514497
 42
0.018504
  0
VERTEX
  8
0
 10
448.815376
 20
318.529946
 42
0.030268
  0
VERTEX
  8
0
 10
458.218944
 20
317.150535
 42
0.058093
  0
VERTEX
  8
0
 10
465.827525
 20
317.385881
 42
0.075948
  0
VERTEX
  8
0
 10
471.691186
 20
319.190621
 42
0.114013
  0
VERTEX
  8
0
 10
475.846302
 20
322.531735
 42
0.074691
  0
VERTEX
  8
0
 10
476.732997
 20
324.089713
 42
0.054142
  0
VERTEX
  8
0
 10
477.247241
 20
326.021799
 42
0.033826
  0
VERTEX
  8
0
 10
477.479812
 20
328.773312
 42
0.009122
  0
VERTEX
  8
0
 10
477.473039
 20
333.154887
 42
0.015174
  0
VERTEX
  8
0
 10
477.034770
 20
341.889415
 42
0.135111
  0
VERTEX
  8
0
 10
475.730737
 20
345.472115
 42
0.485115
  0
VERTEX
  8
0
 10
473.853513
 20
345.565656
 42
0.066653
  0
VERTEX
  8
0
 10
471.348384
 20
341.776325
 42
0.000000
  0
VERTEX
  8
0
 10
469.302743
 20
337.552650
 42
0.000000
  0
VERTEX
  8
0
 10
468.024547
 20
341.425623
 42
-0.024550
  0
VERTEX
  8
0
 10
467.333697
 20
343.924906
 42
-0.142465
  0
VERTEX
  8
0
 10
467.418155
 20
345.275980
 42
-0.108788
  0
VERTEX
  8
0
 10
468.219491
 20
346.547962
 42
-0.011580
  0
VERTEX
  8
0
 10
470.748249
 20
348.993820
 42
0.012218
  0
VERTEX
  8
0
 10
472.407986
 20
350.603250
 42
0.010316
  0
VERTEX
  8
0
 10
474.085696
 20
352.383619
 42
0.010447
  0
VERTEX
  8
0
 10
475.548784
 20
354.071434
 42
0.028324
  0
VERTEX
  8
0
 10
476.490084
 20
355.344522
 42
-0.047622
  0
VERTEX
  8
0
 10
477.568710
 20
356.691504
 42
-0.093332
  0
VERTEX
  8
0
 10
478.687441
 20
357.480567
 42
-0.079655
  0
VERTEX
  8
0
 10
480.135822
 20
357.880153
 42
-0.027561
  0
VERTEX
  8
0
 10
482.308413
 20
358.000000
 42
0.045185
  0
VERTEX
  8
0
 10
484.734059
 20
358.219652
 42
0.085860
  0
VERTEX
  8
0
 10
486.568654
 20
358.893316
 42
0.057830
  0
VERTEX
  8
0
 10
488.503742
 20
360.330304
 42
0.011771
  0
VERTEX
  8
0
 10
491.550436
 20
363.331155
 42
0.035345
  0
VERTEX
  8
0
 10
495.278518
 20
367.768295
 42
0.082421
  0
VERTEX
  8
0
 10
497.213269
 20
371.637822
 42
0.103967
  0
VERTEX
  8
0
 10
497.554288
 20
375.334731
 42
0.082628
  0
VERTEX
  8
0
 10
496.443622
 20
379.195905
 42
0.079363
  0
VERTEX
  8
0
 10
494.183773
 20
382.475391
 42
0.071043
  0
VERTEX
  8
0
 10
490.935116
 20
385.034333
 42
0.052736
  0
VERTEX
  8
0
 10
486.261515
 20
387.121254
 42
0.021458
  0
VERTEX
  8
0
 10
479.542927
 20
388.992858
 42
-0.013928
  0
VERTEX
  8
0
 10
475.553664
 20
390.039690
 42
-0.019375
  0
VERTEX
  8
0
 10
472.052323
 20
391.212548
 42
-0.021932
  0
VERTEX
  8
0
 10
469.184034
 20
392.444996
 42
-0.050522
  0
VERTEX
  8
0
 10
467.185526
 20
393.672063
 42
0.032919
  0
VERTEX
  8
0
 10
465.348258
 20
394.891041
 42
0.010259
  0
VERTEX
  8
0
 10
462.441317
 20
396.477055
 42
0.010206
  0
VERTEX
  8
0
 10
459.112687
 20
398.120116
 42
0.011090
  0
VERTEX
  8
0
 10
455.809953
 20
399.578956
 42
-0.005813
  0
VERTEX
  8
0
 10
452.651556
 20
400.934389
 42
-0.007298
  0
VERTEX
  8
0
 10
449.758122
 20
402.266999
 42
-0.005980
  0
VERTEX
  8
0
 10
447.367155
 20
403.446123
 42
-0.055709
  0
VERTEX
  8
0
 10
446.407256
 20
404.076970
 42
-0.094246
  0
VERTEX
  8
0
 10
445.758506
 20
404.862797
 42
-0.018744
  0
VERTEX
  8
0
 10
444.938283
 20
406.498872
 42
-0.019226
  0
VERTEX
  8
0
 10
444.116380
 20
408.505293
 42
-0.016859
  0
VERTEX
  8
0
 10
443.411001
 20
410.658151
 42
0.040969
  0
VERTEX
  8
0
 10
442.170747
 20
413.905775
 42
0.047394
  0
VERTEX
  8
0
 10
440.464723
 20
416.742767
 42
0.030342
  0
VERTEX
  8
0
 10
437.686516
 20
420.062722
 42
0.007058
  0
VERTEX
  8
0
 10
432.614126
 20
425.277327
 42
-0.019165
  0
VERTEX
  8
0
 10
426.248660
 20
432.146385
 42
-0.040873
  0
VERTEX
  8
0
 10
422.002840
 20
438.002320
 42
-0.044864
  0
VERTEX
  8
0
 10
419.007935
 20
444.108908
 42
-0.028226
  0
VERTEX
  8
0
 10
416.582983
 20
451.682656
 42
-0.026022
  0
VERTEX
  8
0
 10
414.894233
 20
459.954193
 42
-0.016206
  0
VERTEX
  8
0
 10
413.738952
 20
469.787208
 42
-0.015306
  0
VERTEX
  8
0
 10
413.163794
 20
480.440980
 42
-0.014819
  0
VERTEX
  8
0
 10
413.231864
 20
491.225813
 42
0.005841
  0
VERTEX
  8
0
 10
413.465449
 20
500.850247
 42
0.085030
  0
VERTEX
  8
0
 10
412.935122
 20
504.198835
 42
0.666839
  0
VERTEX
  8
0
 10
411.920317
 20
504.267776
 42
0.035173
  0
VERTEX
  8
0
 10
410.212254
 20
500.136762
 42
-0.073777
  0
VERTEX
  8
0
 10
408.610670
 20
496.976296
 42
-0.072623
  0
VERTEX
  8
0
 10
406.153261
 20
494.397584
 42
-0.050063
  0
VERTEX
  8
0
 10
402.300353
 20
491.958083
 42
-0.016086
  0
VERTEX
  8
0
 10
396.147707
 20
489.119707
 42
-0.070506
  0
VERTEX
  8
0
 10
384.914285
 20
486.139979
 42
-0.069992
  0
VERTEX
  8
0
 10
373.266179
 20
486.387552
 42
-0.077115
  0
VERTEX
  8
0
 10
363.185054
 20
489.671746
 42
-0.127846
  0
VERTEX
  8
0
 10
356.518863
 20
495.555973
 42
0.009208
  0
VERTEX
  8
0
 10
353.136268
 20
500.377972
 42
0.035380
  0
VERTEX
  8
0
 10
350.775126
 20
503.176257
 42
0.068048
  0
VERTEX
  8
0
 10
349.077839
 20
504.502542
 42
0.340519
  0
VERTEX
  8
0
 10
347.957181
 20
504.357181
 42
0.149884
  0
VERTEX
  8
0
 10
347.554469
 20
503.598239
 42
0.093204
  0
VERTEX
  8
0
 10
347.549977
 20
502.582321
 42
0.055521
  0
VERTEX
  8
0
 10
347.971321
 20
501.182524
 42
0.017111
  0
VERTEX
  8
0
 10
348.906377
 20
499.183516
 42
0.000000
  0
VERTEX
  8
0
 10
350.974798
 20
495.129076
 42
0.000000
  0
VERTEX
  8
0
 10
349.013875
 20
488.814538
 42
-0.032789
  0
VERTEX
  8
0
 10
346.678453
 20
482.733005
 42
-0.025480
  0
VERTEX
  8
0
 10
343.385084
 20
476.455496
 42
-0.024550
  0
VERTEX
  8
0
 10
339.316227
 20
470.288188
 42
-0.024381
  0
VERTEX
  8
0
 10
334.653582
 20
464.534536
 42
0.000000
  0
VERTEX
  8
0
 10
329.500000
 20
458.773375
 42
0.000000
  0
VERTEX
  8
0
 10
326.204112
 20
463.364063
 42
0.062683
  0
VERTEX
  8
0
 10
320.399419
 20
469.621597
 42
0.021141
  0
VERTEX
  8
0
 10
310.518514
 20
477.218352
 42
0.019868
  0
VERTEX
  8
0
 10
298.340023
 20
485.083589
 42
0.017263
  0
VERTEX
  8
0
 10
285.000000
 20
492.357170
 42
0.011069
  0
VERTEX
  8
0
 10
273.157173
 20
497.969131
 42
0.030595
  0
VERTEX
  8
0
 10
264.522679
 20
501.211478
 42
0.043453
  0
VERTEX
  8
0
 10
257.628962
 20
502.689445
 42
0.065233
  0
VERTEX
  8
0
 10
251.484826
 20
502.652974
 42
0.035129
  0
VERTEX
  8
0
 10
247.883105
 20
501.898666
 42
0.034760
  0
VERTEX
  8
0
 10
244.409268
 20
500.645680
 42
0.032547
  0
VERTEX
  8
0
 10
241.670810
 20
499.217462
 42
0.262008
  0
VERTEX
  8
0
 10
241.000000
 20
498.025211
 42
0.176216
  0
VERTEX
  8
0
 10
241.181974
 20
497.524907
 42
0.018648
  0
VERTEX
  8
0
 10
242.028125
 20
496.588851
 42
0.021229
  0
VERTEX
  8
0
 10
243.159445
 20
495.522044
 42
0.015502
  0
VERTEX
  8
0
 10
244.500000
 20
494.432202
 42
-0.032966
  0
VERTEX
  8
0
 10
246.933747
 20
492.308333
 42
-0.143024
  0
VERTEX
  8
0
 10
247.848154
 20
490.647396
 42
-0.300395
  0
VERTEX
  8
0
 10
247.404195
 20
489.483840
 42
-0.120979
  0
VERTEX
  8
0
 10
245.750000
 20
488.819551
 42
0.071760
  0
VERTEX
  8
0
 10
244.710775
 20
488.515814
 42
0.108196
  0
VERTEX
  8
0
 10
243.958663
 20
487.952108
 42
0.098294
  0
VERTEX
  8
0
 10
243.464635
 20
487.081423
 42
0.051254
  0
VERTEX
  8
0
 10
243.194022
 20
485.858234
 42
0.106475
  0
VERTEX
  8
0
 10
243.349950
 20
484.253121
 42
0.083823
  0
VERTEX
  8
0
 10
244.152734
 20
482.696880
 42
0.045882
  0
VERTEX
  8
0
 10
245.870281
 20
480.797630
 42
0.009893
  0
VERTEX
  8
0
 10
249.194022
 20
477.858234
 42
-0.010014
  0
VERTEX
  8
0
 10
255.805475
 20
472.008442
 42
-0.013048
  0
VERTEX
  8
0
 10
261.603867
 20
466.380597
 42
-0.007859
  0
VERTEX
  8
0
 10
266.314825
 20
461.409250
 42
-0.187863
  0
VERTEX
  8
0
 10
267.000000
 20
459.650003
 42
-0.249826
  0
VERTEX
  8
0
 10
266.621818
 20
458.940351
 42
-0.053363
  0
VERTEX
  8
0
 10
265.343453
 20
458.266815
 42
-0.035744
  0
VERTEX
  8
0
 10
263.278037
 20
457.612416
 42
-0.012740
  0
VERTEX
  8
0
 10
260.250000
 20
456.967349
 42
0.016897
  0
VERTEX
  8
0
 10
251.852268
 20
455.105256
 42
0.007552
  0
VERTEX
  8
0
 10
240.933090
 20
452.117314
 42
0.006973
  0
VERTEX
  8
0
 10
230.474089
 20
448.925998
 42
0.029587
  0
VERTEX
  8
0
 10
224.374146
 20
446.565287
 42
0.000000
  0
VERTEX
  8
0
 10
219.248292
 20
444.224319
 42
0.000000
  0
VERTEX
  8
0
 10
211.874146
 20
447.447104
 42
-0.006614
  0
VERTEX
  8
0
 10
204.239140
 20
450.904892
 42
-0.015523
  0
VERTEX
  8
0
 10
198.655641
 20
453.737768
 42
-0.016880
  0
VERTEX
  8
0
 10
193.544620
 20
456.762150
 42
-0.009318
  0
VERTEX
  8
0
 10
187.500000
 20
460.780660
 42
-0.017522
  0
VERTEX
  8
0
 10
178.097718
 20
467.786794
 42
-0.013710
  0
VERTEX
  8
0
 10
168.386261
 20
476.014070
 42
-0.013271
  0
VERTEX
  8
0
 10
158.781490
 20
485.084781
 42
-0.013371
  0
VERTEX
  8
0
 10
149.696051
 20
494.630340
 42
0.005617
  0
VERTEX
  8
0
 10
145.344835
 20
499.346221
 42
0.006658
  0
VERTEX
  8
0
 10
141.125441
 20
503.699764
 42
0.005863
  0
VERTEX
  8
0
 10
137.478498
 20
507.278816
 42
0.041676
  0
VERTEX
  8
0
 10
135.555526
 20
508.836943
 42
0.057082
  0
VERTEX
  8
0
 10
132.208386
 20
510.594964
 42
0.053841
  0
VERTEX
  8
0
 10
128.484078
 20
511.593731
 42
0.058980
  0
VERTEX
  8
0
 10
125.086388
 20
511.718170
 42
0.144703
  0
SEQEND
  0
POLYLINE
  8
0
 66
1
 70
1
  0
VERTEX
  8
0
 10
133.249180
 20
503.958340
 42
-0.032966
  0
VERTEX
  8
0
 10
135.396827
 20
502.322527
 42
-0.013166
  0
VERTEX
  8
0
 10
138.121721
 20
499.818564
 42
-0.012962
  0
VERTEX
  8
0
 10
140.927946
 20
496.955506
 42
-0.015939
  0
VERTEX
  8
0
 10
143.388118
 20
494.136753
 42
0.027326
  0
VERTEX
  8
0
 10
156.011102
 20
480.321640
 42
0.022661
  0
VERTEX
  8
0
 10
170.850230
 20
467.028286
 42
0.022995
  0
VERTEX
  8
0
 10
186.525325
 20
455.376689
 42
0.031742
  0
VERTEX
  8
0
 10
201.651917
 20
446.518496
 42
0.000000
  0
VERTEX
  8
0
 10
209.803834
 20
442.415432
 42
0.000000
  0
VERTEX
  8
0
 10
200.889842
 20
441.201415
 42
0.000000
  0
VERTEX
  8
0
 10
191.975850
 20
439.987398
 42
0.000000
  0
VERTEX
  8
0
 10
180.237925
 20
448.624829
 42
-0.020794
  0
VERTEX
  8
0
 10
169.243184
 20
457.442795
 42
-0.016953
  0
VERTEX
  8
0
 10
158.217165
 20
467.744561
 42
-0.016709
  0
VERTEX
  8
0
 10
147.732130
 20
478.953822
 42
-0.018366
  0
VERTEX
  8
0
 10
138.359132
 20
490.500000
 42
-0.002988
  0
VERTEX
  8
0
 10
129.646881
 20
502.221513
 42
-0.067686
  0
VERTEX
  8
0
 10
127.642522
 20
505.907635
 42
-0.680990
  0
VERTEX
  8
0
 10
128.499247
 20
506.686707
 42
-0.031831
  0
SEQEND
  0
POLYLINE
  8
0
 66
1
 70
1
  0
VERTEX
  8
0
 10
264.767188
 20
495.513732
 42
-0.027185
  0
VERTEX
  8
0
 10
273.050218
 20
492.392802
 42
-0.011808
  0
VERTEX
  8
0
 10
283.708466
 20
487.397131
 42
-0.011858
  0
VERTEX
  8
0
 10
294.387293
 20
481.760864
 42
-0.021015
  0
VERTEX
  8
0
 10
302.866277
 20
476.546275
 42
-0.013483
  0
VERTEX
  8
0
 10
306.159084
 20
474.193694
 42
-0.007743
  0
VERTEX
  8
0
 10
310.005121
 20
471.191377
 42
-0.007731
  0
VERTEX
  8
0
 10
313.779260
 20
468.052496
 42
-0.012773
  0
VERTEX
  8
0
 10
316.855331
 20
465.273131
 42
0.000000
  0
VERTEX
  8
0
 10
323.500000
 20
458.953712
 42
0.000000
  0
VERTEX
  8
0
 10
317.500000
 20
459.572874
 42
-0.015985
  0
VERTEX
  8
0
 10
314.485969
 20
459.981634
 42
-0.046884
  0
VERTEX
  8
0
 10
312.463497
 20
460.520658
 42
-0.068479
  0
VERTEX
  8
0
 10
311.048455
 20
461.277072
 42
-0.083909
  0
VERTEX
  8
0
 10
310.000000
 20
462.346019
 42
0.059153
  0
VERTEX
  8
0
 10
302.008545
 20
471.339643
 42
0.041658
  0
VERTEX
  8
0
 10
291.169073
 20
479.459010
 42
0.033914
  0
VERTEX
  8
0
 10
276.927550
 20
487.088708
 42
0.018320
  0
VERTEX
  8
0
 10
258.500000
 20
494.607229
 42
-0.002683
  0
VERTEX
  8
0
 10
253.248692
 20
496.560587
 42
-0.050314
  0
VERTEX
  8
0
 10
251.673196
 20
497.345141
 42
-0.659984
  0
VERTEX
  8
0
 10
251.739510
 20
497.760030
 42
-0.058085
  0
VERTEX
  8
0
 10
253.198378
 20
497.950073
 42
-0.043181
  0
VERTEX
  8
0
 10
255.135781
 20
497.808761
 42
-0.012112
  0
VERTEX
  8
0
 10
258.122297
 20
497.254993
 42
-0.012120
  0
VERTEX
  8
0
 10
261.482668
 20
496.461799
 42
-0.012486
  0
SEQEND
  0
POLYLINE
  8
0
 66
1
 70
1
  0
VERTEX
  8
0
 10
260.084844
 20
489.924222
 42
-0.029380
  0
VERTEX
  8
0
 10
272.406188
 20
485.121321
 42
-0.025797
  0
VERTEX
  8
0
 10
284.644636
 20
478.718517
 42
-0.026706
  0
VERTEX
  8
0
 10
295.122111
 20
471.748770
 42
-0.065229
  0
VERTEX
  8
0
 10
301.758047
 20
465.305491
 42
0.000000
  0
VERTEX
  8
0
 10
304.927013
 20
461.304345
 42
0.000000
  0
VERTEX
  8
0
 10
292.213507
 20
460.645564
 42
0.002638
  0
VERTEX
  8
0
 10
287.089387
 20
460.352927
 42
0.003042
  0
VERTEX
  8
0
 10
282.206468
 20
460.018370
 42
0.002728
  0
VERTEX
  8
0
 10
278.073045
 20
459.687203
 42
0.017705
  0
VERTEX
  8
0
 10
276.000000
 20
459.435532
 42
-0.038854
  0
VERTEX
  8
0
 10
273.848995
 20
459.266224
 42
-0.156659
  0
VERTEX
  8
0
 10
272.610337
 20
459.662877
 42
-0.101743
  0
VERTEX
  8
0
 10
271.547551
 20
460.809876
 42
-0.011678
  0
VERTEX
  8
0
 10
269.785852
 20
463.878448
 42
0.041643
  0
VERTEX
  8
0
 10
267.934670
 20
466.697498
 42
0.032035
  0
VERTEX
  8
0
 10
265.483196
 20
469.446022
 42
0.023568
  0
VERTEX
  8
0
 10
262.027326
 20
472.546757
 42
0.009000
  0
VERTEX
  8
0
 10
256.942836
 20
476.543291
 42
-0.008520
  0
VERTEX
  8
0
 10
253.119189
 20
479.542844
 42
-0.014443
  0
VERTEX
  8
0
 10
250.036958
 20
482.198156
 42
-0.008238
  0
VERTEX
  8
0
 10
247.654520
 20
484.446671
 42
-0.424040
  0
VERTEX
  8
0
 10
247.656984
 20
485.022307
 42
-0.083553
  0
VERTEX
  8
0
 10
248.147670
 20
485.356338
 42
-0.025316
  0
VERTEX
  8
0
 10
248.986739
 20
485.691807
 42
-0.024581
  0
VERTEX
  8
0
 10
249.981089
 20
485.978351
 42
-0.024490
  0
VERTEX
  8
0
 10
251.000000
 20
486.166339
 42
0.047875
  0
VERTEX
  8
0
 10
252.275322
 20
486.463812
 42
0.151859
  0
VERTEX
  8
0
 10
252.977087
 20
486.971457
 42
0.140210
  0
VERTEX
  8
0
 10
253.299140
 20
487.815446
 42
0.038595
  0
VERTEX
  8
0
 10
253.311736
 20
489.251015
 42
-0.009280
  0
VERTEX
  8
0
 10
253.259180
 20
490.305088
 42
-0.015530
  0
VERTEX
  8
0
 10
253.259000
 20
491.192486
 42
-0.009344
  0
VERTEX
  8
0
 10
253.294302
 20
491.904472
 42
-0.394368
  0
VERTEX
  8
0
 10
253.396580
 20
492.000000
 42
-0.074935
  0
VERTEX
  8
0
 10
253.604348
 20
491.968686
 42
-0.000438
  0
VERTEX
  8
0
 10
255.473915
 20
491.390240
 42
-0.001836
  0
VERTEX
  8
0
 10
257.606092
 20
490.719902
 42
-0.001166
  0
SEQEND
  0
POLYLINE
  8
0
 66
1
 70
1
  0
VERTEX
  8
0
 10
406.001264
 20
484.999214
 42
0.031139
  0
VERTEX
  8
0
 10
404.555658
 20
473.105584
 42
0.027960
  0
VERTEX
  8
0
 10
404.521024
 20
460.685176
 42
0.027757
  0
VERTEX
  8
0
 10
405.877877
 20
448.242310
 42
0.029495
  0
VERTEX
  8
0
 10
408.591472
 20
436.281106
 42
-0.001562
  0
VERTEX
  8
0
 10
409.514557
 20
433.058110
 42
-0.002392
  0
VERTEX
  8
0
 10
410.292495
 20
430.258460
 42
-0.000812
  0
VERTEX
  8
0
 10
410.948888
 20
427.836153
 42
-0.065845
  0
VERTEX
  8
0
 10
411.000000
 20
427.449706
 42
-0.577314
  0
VERTEX
  8
0
 10
410.467064
 20
427.141976
 42
-0.025037
  0
VERTEX
  8
0
 10
408.226808
 20
428.589167
 42
-0.020036
  0
VERTEX
  8
0
 10
405.031229
 20
431.088179
 42
-0.008126
  0
VERTEX
  8
0
 10
400.875137
 20
434.733353
 42
0.008769
  0
VERTEX
  8
0
 10
397.964764
 20
437.279332
 42
0.005715
  0
VERTEX
  8
0
 10
394.520859
 20
440.120244
 42
0.005747
  0
VERTEX
  8
0
 10
391.097097
 20
442.815073
 42
0.010906
  0
VERTEX
  8
0
 10
388.269759
 20
444.891797
 42
-0.018811
  0
VERTEX
  8
0
 10
385.638361
 20
446.889390
 42
-0.013365
  0
VERTEX
  8
0
 10
382.837809
 20
449.314474
 42
-0.013519
  0
VERTEX
  8
0
 10
380.285870
 20
451.776340
 42
-0.027747
  0
VERTEX
  8
0
 10
378.452979
 20
453.862577
 42
-0.041693
  0
VERTEX
  8
0
 10
374.832838
 20
459.363747
 42
-0.006109
  0
VERTEX
  8
0
 10
368.584856
 20
471.177799
 42
-0.001664
  0
VERTEX
  8
0
 10
361.976966
 20
484.156719
 42
-0.323912
  0
VERTEX
  8
0
 10
362.197111
 20
485.530445
 42
-0.236636
  0
VERTEX
  8
0
 10
362.579174
 20
485.657342
 42
-0.015551
  0
VERTEX
  8
0
 10
363.758146
 20
485.448710
 42
-0.019887
  0
VERTEX
  8
0
 10
365.202312
 20
485.086076
 42
-0.013351
  0
VERTEX
  8
0
 10
366.821908
 20
484.562834
 42
0.060037
  0
VERTEX
  8
0
 10
375.113935
 20
482.715060
 42
0.044859
  0
VERTEX
  8
0
 10
384.486778
 20
482.624453
 42
0.044571
  0
VERTEX
  8
0
 10
393.799631
 20
484.214194
 42
0.056720
  0
VERTEX
  8
0
 10
401.916177
 20
487.376085
 42
-0.003746
  0
VERTEX
  8
0
 10
403.685624
 20
488.291219
 42
-0.006097
  0
VERTEX
  8
0
 10
405.202691
 20
489.038350
 42
-0.001594
  0
VERTEX
  8
0
 10
406.524841
 20
489.664406
 42
-0.297374
  0
VERTEX
  8
0
 10
406.667453
 20
489.644448
 42
-0.252362
  0
VERTEX
  8
0
 10
406.720228
 20
489.503923
 42
-0.001826
  0
VERTEX
  8
0
 10
406.540834
 20
488.219677
 42
-0.006280
  0
VERTEX
  8
0
 10
406.308775
 20
486.734546
 42
-0.003912
  0
SEQEND
  0
POLYLINE
  8
0
 66
1
 70
1
  0
VERTEX
  8
0
 10
354.901671
 20
479.250000
 42
-0.005191
  0
VERTEX
  8
0
 10
356.341818
 20
468.617264
 42
-0.009077
  0
VERTEX
  8
0
 10
357.282906
 20
459.779854
 42
-0.010469
  0
VERTEX
  8
0
 10
357.812244
 20
451.891004
 42
-0.011332
  0
VERTEX
  8
0
 10
357.992411
 20
444.192820
 42
-0.021291
  0
VERTEX
  8
0
 10
357.522888
 20
432.977229
 42
-0.081575
  0
VERTEX
  8
0
 10
355.818265
 20
426.222638
 42
-0.172794
  0
VERTEX
  8
0
 10
352.822606
 20
423.021180
 42
-0.188124
  0
VERTEX
  8
0
 10
348.598206
 20
422.578179
 42
-0.058808
  0
VERTEX
  8
0
 10
344.301094
 20
424.318946
 42
-0.002186
  0
VERTEX
  8
0
 10
329.004218
 20
432.810219
 42
-0.000671
  0
VERTEX
  8
0
 10
312.693015
 20
441.986846
 42
-0.261014
  0
VERTEX
  8
0
 10
312.021144
 20
443.091712
 42
-0.282967
  0
VERTEX
  8
0
 10
312.182908
 20
443.377014
 42
-0.016742
  0
VERTEX
  8
0
 10
313.107774
 20
443.846816
 42
-0.021205
  0
VERTEX
  8
0
 10
314.314346
 20
444.348603
 42
-0.013665
  0
VERTEX
  8
0
 10
315.750000
 20
444.831364
 42
0.096876
  0
VERTEX
  8
0
 10
324.858990
 20
449.692427
 42
0.034427
  0
VERTEX
  8
0
 10
335.685973
 20
459.823053
 42
0.034773
  0
VERTEX
  8
0
 10
345.264619
 20
471.661643
 42
0.072644
  0
VERTEX
  8
0
 10
350.576887
 20
482.231484
 42
-0.014227
  0
VERTEX
  8
0
 10
351.242129
 20
484.058829
 42
-0.021694
  0
VERTEX
  8
0
 10
351.931827
 20
485.599248
 42
-0.017581
  0
VERTEX
  8
0
 10
352.574658
 20
486.777321
 42
-0.264986
  0
VERTEX
  8
0
 10
352.965326
 20
487.000000
 42
-0.333918
  0
VERTEX
  8
0
 10
353.325383
 20
486.729365
 42
-0.009213
  0
VERTEX
  8
0
 10
353.866021
 20
484.723437
 42
-0.015431
  0
VERTEX
  8
0
 10
354.409806
 20
482.221053
 42
-0.009529
  0
SEQEND
  0
POLYLINE
  8
0
 66
1
 70
1
  0
VERTEX
  8
0
 10
142.786104
 20
478.193294
 42
0.022546
  0
VERTEX
  8
0
 10
150.026034
 20
469.808617
 42
0.010217
  0
VERTEX
  8
0
 10
160.207786
 20
459.470555
 42
0.010016
  0
VERTEX
  8
0
 10
170.593363
 20
449.745777
 42
0.028833
  0
VERTEX
  8
0
 10
178.296037
 20
443.582016
 42
-0.005419
  0
VERTEX
  8
0
 10
180.877359
 20
441.707612
 42
-0.009153
  0
VERTEX
  8
0
 10
182.994294
 20
440.074134
 42
-0.003382
  0
VERTEX
  8
0
 10
184.734836
 20
438.660085
 42
-0.442728
  0
VERTEX
  8
0
 10
184.746731
 20
438.413398
 42
-0.148720
  0
VERTEX
  8
0
 10
184.429871
 20
438.244338
 42
-0.001177
  0
VERTEX
  8
0
 10
181.579816
 20
437.688845
 42
-0.004150
  0
VERTEX
  8
0
 10
178.289849
 20
437.083920
 42
-0.002640
  0
VERTEX
  8
0
 10
174.450694
 20
436.431784
 42
-0.027139
  0
VERTEX
  8
0
 10
165.298437
 20
435.432862
 42
-0.022821
  0
VERTEX
  8
0
 10
155.542888
 20
435.346850
 42
-0.023149
  0
VERTEX
  8
0
 10
146.001248
 20
436.141649
 42
-0.031231
  0
VERTEX
  8
0
 10
137.500000
 20
437.792806
 42
0.000000
  0
VERTEX
  8
0
 10
130.500000
 20
439.612135
 42
0.000000
  0
VERTEX
  8
0
 10
129.102332
 20
449.865310
 42
-0.004974
  0
VERTEX
  8
0
 10
128.283102
 20
456.357006
 42
-0.041793
  0
VERTEX
  8
0
 10
128.188559
 20
459.305987
 42
-0.072563
  0
VERTEX
  8
0
 10
128.637578
 20
461.563221
 42
-0.030498
  0
VERTEX
  8
0
 10
129.852332
 20
464.418773
 42
0.022681
  0
VERTEX
  8
0
 10
131.471011
 20
468.064652
 42
0.111950
  0
VERTEX
  8
0
 10
131.803687
 20
470.273197
 42
0.108204
  0
VERTEX
  8
0
 10
131.157435
 20
472.446489
 42
0.020523
  0
VERTEX
  8
0
 10
129.000000
 20
476.000000
 42
-0.024134
  0
VERTEX
  8
0
 10
126.852576
 20
479.595271
 42
-0.100728
  0
VERTEX
  8
0
 10
126.136519
 20
482.000196
 42
-0.211823
  0
VERTEX
  8
0
 10
126.661304
 20
483.537983
 42
-0.154774
  0
VERTEX
  8
0
 10
128.250000
 20
484.442013
 42
-0.000510
  0
VERTEX
  8
0
 10
131.805868
 20
485.196991
 42
-0.003413
  0
VERTEX
  8
0
 10
133.577504
 20
485.558640
 42
-0.006872
  0
VERTEX
  8
0
 10
134.698011
 20
485.763461
 42
-0.014729
  0
VERTEX
  8
0
 10
135.568494
 20
485.883999
 42
-0.227519
  0
VERTEX
  8
0
 10
136.208514
 20
485.658119
 42
-0.007605
  0
VERTEX
  8
0
 10
138.129420
 20
483.672705
 42
-0.013059
  0
VERTEX
  8
0
 10
140.352200
 20
481.176692
 42
-0.008567
  0
SEQEND
  0
POLYLINE
  8
0
 66
1
 70
1
  0
VERTEX
  8
0
 10
371.075935
 20
455.768020
 42
0.025120
  0
VERTEX
  8
0
 10
373.979898
 20
451.953177
 42
0.019707
  0
VERTEX
  8
0
 10
377.487251
 20
448.114185
 42
0.019782
  0
VERTEX
  8
0
 10
381.266508
 20
444.582530
 42
0.026148
  0
VERTEX
  8
0
 10
384.989167
 20
441.695143
 42
-0.016464
  0
VERTEX
  8
0
 10
387.193712
 20
440.052595
 42
-0.005886
  0
VERTEX
  8
0
 10
390.231002
 20
437.571048
 42
-0.005832
  0
VERTEX
  8
0
 10
393.500968
 20
434.769087
 42
-0.006863
  0
VERTEX
  8
0
 10
396.529774
 20
432.037408
 42
0.014944
  0
VERTEX
  8
0
 10
399.665483
 20
429.299896
 42
0.011310
  0
VERTEX
  8
0
 10
403.260425
 20
426.479777
 42
0.011463
  0
VERTEX
  8
0
 10
406.759213
 20
423.983783
 42
0.025928
  0
VERTEX
  8
0
 10
409.540607
 20
422.298005
 42
-0.021276
  0
VERTEX
  8
0
 10
414.205964
 20
419.529354
 42
-0.034750
  0
VERTEX
  8
0
 10
417.873119
 20
416.755391
 42
-0.041937
  0
VERTEX
  8
0
 10
420.517429
 20
414.027787
 42
-0.080863
  0
VERTEX
  8
0
 10
422.037241
 20
411.402049
 42
0.102859
  0
VERTEX
  8
0
 10
422.963145
 20
409.952148
 42
0.116686
  0
VERTEX
  8
0
 10
424.353690
 20
409.070318
 42
0.210175
  0
VERTEX
  8
0
 10
425.481633
 20
409.162426
 42
0.275412
  0
VERTEX
  8
0
 10
426.000000
 20
410.032119
 42
0.096245
  0
VERTEX
  8
0
 10
425.575205
 20
412.218517
 42
0.031751
  0
VERTEX
  8
0
 10
424.153174
 20
415.182908
 42
0.031769
  0
VERTEX
  8
0
 10
422.221108
 20
418.169005
 42
0.045028
  0
VERTEX
  8
0
 10
420.117132
 20
420.530518
 42
-0.080909
  0
VERTEX
  8
0
 10
417.595362
 20
423.804598
 42
-0.037378
  0
VERTEX
  8
0
 10
415.396746
 20
428.726166
 42
-0.028572
  0
VERTEX
  8
0
 10
413.415804
 20
435.406260
 42
-0.013328
  0
VERTEX
  8
0
 10
411.581113
 20
444.252401
 42
-0.013324
  0
VERTEX
  8
0
 10
410.282038
 20
452.778578
 42
-0.013275
  0
VERTEX
  8
0
 10
409.437093
 20
461.372363
 42
-0.005515
  0
VERTEX
  8
0
 10
408.964295
 20
469.186968
 42
-0.428757
  0
VERTEX
  8
0
 10
409.738124
 20
470.000000
 42
-0.328323
  0
VERTEX
  8
0
 10
410.150676
 20
469.696369
 42
-0.017208
  0
VERTEX
  8
0
 10
410.610787
 20
468.017187
 42
-0.021655
  0
VERTEX
  8
0
 10
411.029372
 20
465.837495
 42
-0.013437
  0
VERTEX
  8
0
 10
411.340197
 20
463.250000
 42
0.024039
  0
VERTEX
  8
0
 10
412.336299
 20
456.219668
 42
0.016645
  0
VERTEX
  8
0
 10
414.105660
 20
448.384781
 42
0.016819
  0
VERTEX
  8
0
 10
416.330476
 20
440.902734
 42
0.030721
  0
VERTEX
  8
0
 10
418.716114
 20
435.000000
 42
0.036690
  0
VERTEX
  8
0
 10
420.371941
 20
432.100349
 42
0.021366
  0
VERTEX
  8
0
 10
422.749266
 20
428.873312
 42
0.018442
  0
VERTEX
  8
0
 10
425.814260
 20
425.339949
 42
0.012164
  0
VERTEX
  8
0
 10
429.580754
 20
421.500000
 42
-0.010361
  0
VERTEX
  8
0
 10
432.788007
 20
418.253691
 42
-0.013091
  0
VERTEX
  8
0
 10
435.610159
 20
415.115625
 42
-0.011188
  0
VERTEX
  8
0
 10
437.828058
 20
412.394659
 42
-0.095676
  0
VERTEX
  8
0
 10
438.537804
 20
411.000000
 42
0.019904
  0
VERTEX
  8
0
 10
438.936484
 20
409.796048
 42
0.008261
  0
VERTEX
  8
0
 10
439.566039
 20
408.201827
 42
0.008158
  0
VERTEX
  8
0
 10
440.297585
 20
406.513774
 42
0.010430
  0
VERTEX
  8
0
 10
441.028776
 20
404.984943
 42
-0.016134
  0
VERTEX
  8
0
 10
442.085519
 20
402.709090
 42
-0.126100
  0
VERTEX
  8
0
 10
442.260458
 20
401.563710
 42
-0.134352
  0
VERTEX
  8
0
 10
441.855499
 20
400.508437
 42
-0.019213
  0
VERTEX
  8
0
 10
440.400465
 20
398.679179
 42
0.064120
  0
VERTEX
  8
0
 10
438.908336
 20
396.413099
 42
0.071672
  0
VERTEX
  8
0
 10
438.108448
 20
393.925746
 42
0.088737
  0
VERTEX
  8
0
 10
438.127697
 20
391.780519
 42
0.210854
  0
VERTEX
  8
0
 10
439.011745
 20
390.492741
 42
0.289163
  0
VERTEX
  8
0
 10
439.448395
 20
390.496844
 42
0.104320
  0
VERTEX
  8
0
 10
439.909502
 20
390.953230
 42
0.063296
  0
VERTEX
  8
0
 10
440.332178
 20
391.814493
 42
0.033115
  0
VERTEX
  8
0
 10
440.643920
 20
392.969599
 42
-0.081001
  0
VERTEX
  8
0
 10
441.444551
 20
395.102840
 42
-0.062320
  0
VERTEX
  8
0
 10
442.942429
 20
397.093071
 42
-0.066108
  0
VERTEX
  8
0
 10
444.753620
 20
398.525405
 42
-0.138883
  0
VERTEX
  8
0
 10
446.472506
 20
398.984687
 42
-0.062241
  0
VERTEX
  8
0
 10
446.968274
 20
398.915216
 42
-0.024344
  0
VERTEX
  8
0
 10
447.627118
 20
398.702554
 42
-0.023645
  0
VERTEX
  8
0
 10
448.325751
 20
398.400415
 42
-0.027139
  0
VERTEX
  8
0
 10
448.960237
 20
398.045737
 42
-0.061270
  0
VERTEX
  8
0
 10
449.663412
 20
397.469647
 42
-0.221982
  0
VERTEX
  8
0
 10
449.843448
 20
396.935595
 42
-0.137096
  0
VERTEX
  8
0
 10
449.576794
 20
396.276083
 42
-0.019714
  0
VERTEX
  8
0
 10
448.635281
 20
395.149484
 42
0.060770
  0
VERTEX
  8
0
 10
447.929140
 20
394.148078
 42
0.050221
  0
VERTEX
  8
0
 10
447.429414
 20
392.940698
 42
0.049315
  0
VERTEX
  8
0
 10
447.173345
 20
391.634033
 42
0.053481
  0
VERTEX
  8
0
 10
447.188753
 20
390.338434
 42
0.000000
  0
VERTEX
  8
0
 10
447.527418
 20
387.500000
 42
0.000000
  0
VERTEX
  8
0
 10
449.281898
 20
390.735513
 42
-0.075853
  0
VERTEX
  8
0
 10
451.005448
 20
393.010773
 42
-0.102936
  0
VERTEX
  8
0
 10
453.174933
 20
394.388934
 42
-0.111620
  0
VERTEX
  8
0
 10
455.576145
 20
394.723562
 42
-0.102240
  0
VERTEX
  8
0
 10
457.972767
 20
394.014575
 42
0.000000
  0
VERTEX
  8
0
 10
460.131815
 20
392.859087
 42
0.000000
  0
VERTEX
  8
0
 10
457.565907
 20
390.293180
 42
0.074016
  0
VERTEX
  8
0
 10
456.025907
 20
388.214553
 42
0.067912
  0
VERTEX
  8
0
 10
455.101940
 20
385.716383
 42
0.098824
  0
VERTEX
  8
0
 10
455.059248
 20
383.742960
 42
0.363731
  0
VERTEX
  8
0
 10
455.945434
 20
383.000000
 42
0.181615
  0
VERTEX
  8
0
 10
456.393884
 20
383.168446
 42
0.037434
  0
VERTEX
  8
0
 10
456.996363
 20
383.780717
 42
0.034877
  0
VERTEX
  8
0
 10
457.626665
 20
384.640167
 42
0.026694
  0
VERTEX
  8
0
 10
458.195434
 20
385.657759
 42
-0.051024
  0
VERTEX
  8
0
 10
459.530389
 20
387.795291
 42
-0.084912
  0
VERTEX
  8
0
 10
461.092656
 20
389.225100
 42
-0.106996
  0
VERTEX
  8
0
 10
462.763428
 20
389.851236
 42
-0.128649
  0
VERTEX
  8
0
 10
464.426095
 20
389.666734
 42
-0.044109
  0
VERTEX
  8
0
 10
465.343098
 20
389.218592
 42
-0.250271
  0
VERTEX
  8
0
 10
465.612143
 20
388.767305
 42
-0.151088
  0
VERTEX
  8
0
 10
465.448050
 20
388.132020
 42
-0.014584
  0
VERTEX
  8
0
 10
464.562018
 20
386.785080
 42
0.070305
  0
VERTEX
  8
0
 10
463.557020
 20
384.809705
 42
0.057534
  0
VERTEX
  8
0
 10
463.050252
 20
382.492565
 42
0.071719
  0
VERTEX
  8
0
 10
463.130460
 20
380.620548
 42
0.360724
  0
VERTEX
  8
0
 10
463.878680
 20
380.000000
 42
0.205856
  0
VERTEX
  8
0
 10
464.293354
 20
380.178282
 42
0.034629
  0
VERTEX
  8
0
 10
464.855530
 20
380.860143
 42
0.032976
  0
VERTEX
  8
0
 10
465.441555
 20
381.806755
 42
0.023930
  0
VERTEX
  8
0
 10
465.970237
 20
382.928145
 42
-0.029142
  0
VERTEX
  8
0
 10
466.530820
 20
384.085782
 42
-0.031161
  0
VERTEX
  8
0
 10
467.211161
 20
385.143628
 42
-0.032807
  0
VERTEX
  8
0
 10
467.906234
 20
385.969808
 42
-0.110287
  0
VERTEX
  8
0
 10
468.491470
 20
386.358353
 42
-0.136993
  0
VERTEX
  8
0
 10
469.400588
 20
386.444169
 42
-0.007261
  0
VERTEX
  8
0
 10
472.285804
 20
385.881209
 42
-0.010973
  0
VERTEX
  8
0
 10
475.732547
 20
385.077218
 42
-0.007734
  0
VERTEX
  8
0
 10
479.571086
 20
384.029008
 42
-0.027010
  0
VERTEX
  8
0
 10
487.633297
 20
381.212885
 42
-0.118585
  0
VERTEX
  8
0
 10
491.689595
 20
378.279395
 42
-0.199049
  0
VERTEX
  8
0
 10
492.856007
 20
374.707589
 42
-0.100317
  0
VERTEX
  8
0
 10
491.535917
 20
370.069456
 42
-0.060363
  0
VERTEX
  8
0
 10
489.678175
 20
367.341316
 42
-0.038784
  0
VERTEX
  8
0
 10
486.938990
 20
364.659277
 42
-0.038320
  0
VERTEX
  8
0
 10
484.061981
 20
362.602199
 42
-0.136876
  0
VERTEX
  8
0
 10
481.903404
 20
362.000000
 42
-0.063544
  0
VERTEX
  8
0
 10
480.801087
 20
362.140659
 42
-0.010965
  0
VERTEX
  8
0
 10
478.771447
 20
362.714994
 42
-0.011778
  0
VERTEX
  8
0
 10
476.405940
 20
363.502173
 42
-0.010289
  0
VERTEX
  8
0
 10
473.970094
 20
364.434022
 42
0.016029
  0
VERTEX
  8
0
 10
471.123471
 20
365.485727
 42
0.008036
  0
VERTEX
  8
0
 10
467.465925
 20
366.640330
 42
0.007970
  0
VERTEX
  8
0
 10
463.640370
 20
367.714614
 42
0.011676
  0
VERTEX
  8
0
 10
460.239964
 20
368.526870
 42
-0.011394
  0
VERTEX
  8
0
 10
456.733726
 20
369.362317
 42
-0.006657
  0
VERTEX
  8
0
 10
452.570489
 20
370.514590
 42
-0.006654
  0
VERTEX
  8
0
 10
448.431885
 20
371.779577
 42
-0.011211
  0
VERTEX
  8
0
 10
445.000000
 20
372.964163
 42
0.017966
  0
VERTEX
  8
0
 10
441.648847
 20
374.070458
 42
0.012268
  0
VERTEX
  8
0
 10
437.771309
 20
375.095317
 42
0.012378
  0
VERTEX
  8
0
 10
433.979243
 20
375.900039
 42
0.024296
  0
VERTEX
  8
0
 10
430.923606
 20
376.317478
 42
-0.019892
  0
VERTEX
  8
0
 10
428.023148
 20
376.687737
 42
-0.013293
  0
VERTEX
  8
0
 10
424.737932
 20
377.330908
 42
-0.013396
  0
VERTEX
  8
0
 10
421.581675
 20
378.125770
 42
-0.025497
  0
VERTEX
  8
0
 10
419.100927
 20
378.960218
 42
0.022660
  0
VERTEX
  8
0
 10
415.820388
 20
380.084444
 42
0.054689
  0
VERTEX
  8
0
 10
413.298371
 20
380.531847
 42
0.040454
  0
VERTEX
  8
0
 10
410.320283
 20
380.488485
 42
0.008032
  0
VERTEX
  8
0
 10
405.020489
 20
379.895176
 42
-0.026651
  0
VERTEX
  8
0
 10
398.078973
 20
379.378749
 42
-0.030332
  0
VERTEX
  8
0
 10
391.418345
 20
379.643148
 42
-0.029701
  0
VERTEX
  8
0
 10
384.719223
 20
380.722224
 42
-0.023706
  0
VERTEX
  8
0
 10
377.660195
 20
382.649244
 42
0.028423
  0
VERTEX
  8
0
 10
372.660869
 20
383.963480
 42
0.561262
  0
VERTEX
  8
0
 10
371.776725
 20
383.010861
 42
0.168871
  0
VERTEX
  8
0
 10
373.281681
 20
380.854608
 42
0.012300
  0
VERTEX
  8
0
 10
379.340164
 20
376.689626
 42
-0.019427
  0
VERTEX
  8
0
 10
383.290964
 20
373.889865
 42
-0.008984
  0
VERTEX
  8
0
 10
388.213438
 20
369.963274
 42
-0.008883
  0
VERTEX
  8
0
 10
393.245605
 20
365.646188
 42
-0.012206
  0
VERTEX
  8
0
 10
397.602417
 20
361.577315
 42
0.007686
  0
VERTEX
  8
0
 10
402.818294
 20
356.617137
 42
0.024284
  0
VERTEX
  8
0
 10
406.517383
 20
353.524470
 42
0.034890
  0
VERTEX
  8
0
 10
409.660918
 20
351.473738
 42
0.039714
  0
VERTEX
  8
0
 10
412.929321
 20
349.979137
 42
-0.008998
  0
VERTEX
  8
0
 10
417.942034
 20
348.049254
 42
-0.030615
  0
VERTEX
  8
0
 10
421.097174
 20
346.537920
 42
-0.033396
  0
VERTEX
  8
0
 10
423.901268
 20
344.721971
 42
-0.012287
  0
VERTEX
  8
0
 10
427.611042
 20
341.806776
 42
0.016583
  0
VERTEX
  8
0
 10
431.908318
 20
338.489228
 42
0.057416
  0
VERTEX
  8
0
 10
434.971057
 20
336.777780
 42
0.033805
  0
VERTEX
  8
0
 10
439.049930
 20
335.393039
 42
0.003042
  0
VERTEX
  8
0
 10
449.500000
 20
332.684440
 42
-0.005218
  0
VERTEX
  8
0
 10
455.220652
 20
331.175088
 42
-0.005430
  0
VERTEX
  8
0
 10
460.832605
 20
329.565840
 42
-0.005240
  0
VERTEX
  8
0
 10
465.654302
 20
328.071141
 42
-0.023543
  0
VERTEX
  8
0
 10
468.419507
 20
327.036121
 42
0.000000
  0
VERTEX
  8
0
 10
473.339015
 20
324.925756
 42
0.000000
  0
VERTEX
  8
0
 10
470.919507
 20
323.212878
 42
-0.136733
  0
VERTEX
  8
0
 10
466.813618
 20
321.740773
 42
-0.037976
  0
VERTEX
  8
0
 10
459.908876
 20
321.764502
 42
-0.027635
  0
VERTEX
  8
0
 10
450.275841
 20
323.069070
 42
-0.010478
  0
VERTEX
  8
0
 10
437.000000
 20
325.910097
 42
-0.006665
  0
VERTEX
  8
0
 10
428.006645
 20
328.159661
 42
-0.013558
  0
VERTEX
  8
0
 10
421.016579
 20
330.211775
 42
-0.016061
  0
VERTEX
  8
0
 10
414.979300
 20
332.379957
 42
-0.015347
  0
VERTEX
  8
0
 10
409.000000
 20
334.961695
 42
0.006044
  0
VERTEX
  8
0
 10
404.503573
 20
337.003224
 42
0.005027
  0
VERTEX
  8
0
 10
399.675000
 20
339.067876
 42
0.005077
  0
VERTEX
  8
0
 10
395.214673
 20
340.869359
 42
0.013689
  0
VERTEX
  8
0
 10
392.000000
 20
342.029438
 42
-0.029056
  0
VERTEX
  8
0
 10
386.070055
 20
344.377638
 42
-0.022529
  0
VERTEX
  8
0
 10
379.910332
 20
347.585945
 42
-0.022602
  0
VERTEX
  8
0
 10
374.091330
 20
351.319329
 42
-0.030077
  0
VERTEX
  8
0
 10
369.189613
 20
355.248983
 42
0.056448
  0
VERTEX
  8
0
 10
363.276127
 20
359.498679
 42
0.076249
  0
VERTEX
  8
0
 10
357.117636
 20
361.803760
 42
0.083115
  0
VERTEX
  8
0
 10
350.976106
 20
362.050164
 42
0.083619
  0
VERTEX
  8
0
 10
345.102995
 20
360.280921
 42
0.000000
  0
VERTEX
  8
0
 10
341.291565
 20
358.395175
 42
0.000000
  0
VERTEX
  8
0
 10
343.746033
 20
363.756439
 42
0.118666
  0
VERTEX
  8
0
 10
345.390934
 20
372.168378
 42
0.176698
  0
VERTEX
  8
0
 10
342.548113
 20
379.027562
 42
0.138320
  0
VERTEX
  8
0
 10
335.192195
 20
383.570070
 42
0.064338
  0
VERTEX
  8
0
 10
324.006375
 20
385.258533
 42
0.000000
  0
VERTEX
  8
0
 10
316.288096
 20
385.423089
 42
0.000000
  0
VERTEX
  8
0
 10
321.669576
 20
387.610286
 42
0.041113
  0
VERTEX
  8
0
 10
327.564180
 20
390.591340
 42
0.106607
  0
VERTEX
  8
0
 10
330.987239
 20
393.863147
 42
0.115065
  0
VERTEX
  8
0
 10
332.609680
 20
398.090588
 42
0.052432
  0
VERTEX
  8
0
 10
332.803474
 20
404.040185
 42
0.067074
  0
VERTEX
  8
0
 10
331.624912
 20
409.675866
 42
0.050368
  0
VERTEX
  8
0
 10
328.918775
 20
415.412881
 42
0.037217
  0
VERTEX
  8
0
 10
324.305087
 20
421.933188
 42
0.015127
  0
VERTEX
  8
0
 10
317.126457
 20
430.110539
 42
-0.003988
  0
VERTEX
  8
0
 10
313.942553
 20
433.578456
 42
-0.006634
  0
VERTEX
  8
0
 10
311.322371
 20
436.556966
 42
-0.001762
  0
VERTEX
  8
0
 10
309.112362
 20
439.155939
 42
-0.392934
  0
VERTEX
  8
0
 10
309.126457
 20
439.451635
 42
-0.332068
  0
VERTEX
  8
0
 10
309.456421
 20
439.495828
 42
-0.000594
  0
VERTEX
  8
0
 10
314.615802
 20
436.614814
 42
-0.003776
  0
VERTEX
  8
0
 10
320.441416
 20
433.294660
 42
-0.002287
  0
VERTEX
  8
0
 10
327.289038
 20
429.281274
 42
0.011076
  0
VERTEX
  8
0
 10
342.923425
 20
420.483459
 42
0.092894
  0
VERTEX
  8
0
 10
350.617884
 20
418.059799
 42
0.212859
  0
VERTEX
  8
0
 10
355.738069
 20
419.641218
 42
0.095252
  0
VERTEX
  8
0
 10
360.162928
 20
425.320946
 42
0.085079
  0
VERTEX
  8
0
 10
362.524625
 20
432.897625
 42
0.034194
  0
VERTEX
  8
0
 10
363.221328
 20
443.760179
 42
0.029522
  0
VERTEX
  8
0
 10
362.387744
 20
456.903462
 42
0.020143
  0
VERTEX
  8
0
 10
359.963083
 20
471.679421
 42
-0.001321
  0
VERTEX
  8
0
 10
359.211414
 20
475.382119
 42
-0.002005
  0
VERTEX
  8
0
 10
358.579334
 20
478.605543
 42
-0.000734
  0
VERTEX
  8
0
 10
358.050244
 20
481.384268
 42
-0.050276
  0
VERTEX
  8
0
 10
358.009117
 20
481.860079
 42
-0.787420
  0
VERTEX
  8
0
 10
358.120529
 20
481.885286
 42
-0.001201
  0
VERTEX
  8
0
 10
359.604731
 20
478.865754
 42
-0.003588
  0
VERTEX
  8
0
 10
361.352112
 20
475.223076
 42
-0.002007
  0
VERTEX
  8
0
 10
363.428192
 20
470.768020
 42
0.004653
  0
VERTEX
  8
0
 10
365.663525
 20
466.036774
 42
0.005204
  0
VERTEX
  8
0
 10
367.906323
 20
461.522329
 42
0.004810
  0
VERTEX
  8
0
 10
369.892710
 20
457.717204
 42
0.027428
  0
SEQEND
  0
POLYLINE
  8
0
 66
1
 70
1
  0
VERTEX
  8
0
 10
71.312725
 20
459.455711
 42
-0.006395
  0
VERTEX
  8
0
 10
81.480081
 20
456.374969
 42
-0.014298
  0
VERTEX
  8
0
 10
89.103977
 20
453.715862
 42
-0.016016
  0
VERTEX
  8
0
 10
96.013258
 20
450.825432
 42
-0.010401
  0
VERTEX
  8
0
 10
103.812725
 20
447.067022
 42
0.004218
  0
VERTEX
  8
0
 10
116.432393
 20
440.792399
 42
0.016424
  0
VERTEX
  8
0
 10
124.393804
 20
437.235790
 42
0.022193
  0
VERTEX
  8
0
 10
131.309307
 20
434.766875
 42
0.013297
  0
VERTEX
  8
0
 10
139.714618
 20
432.423107
 42
0.009760
  0
VERTEX
  8
0
 10
146.131760
 20
430.948807
 42
0.028418
  0
VERTEX
  8
0
 10
150.627259
 20
430.271748
 42
0.026877
  0
VERTEX
  8
0
 10
155.304652
 20
430.089604
 42
0.007998
  0
VERTEX
  8
0
 10
162.453840
 20
430.309970
 42
0.012974
  0
VERTEX
  8
0
 10
168.346942
 20
430.739489
 42
0.008279
  0
VERTEX
  8
0
 10
175.172681
 20
431.529732
 42
0.008049
  0
VERTEX
  8
0
 10
182.268356
 20
432.587012
 42
0.009263
  0
VERTEX
  8
0
 10
189.000000
 20
433.829631
 42
-0.007882
  0
VERTEX
  8
0
 10
202.489841
 20
436.358343
 42
-0.024293
  0
VERTEX
  8
0
 10
211.701329
 20
437.478072
 42
-0.034076
  0
VERTEX
  8
0
 10
219.069852
 20
437.509486
 42
-0.035500
  0
VERTEX
  8
0
 10
226.272162
 20
436.532445
 42
-0.010696
  0
VERTEX
  8
0
 10
229.586284
 20
435.766265
 42
-0.008587
  0
VERTEX
  8
0
 10
233.118193
 20
434.804888
 42
-0.008697
  0
VERTEX
  8
0
 10
236.353349
 20
433.802984
 42
-0.021814
  0
VERTEX
  8
0
 10
238.663697
 20
432.929831
 42
0.015949
  0
VERTEX
  8
0
 10
242.345794
 20
431.488689
 42
0.227858
  0
VERTEX
  8
0
 10
243.709379
 20
431.635012
 42
0.477540
  0
VERTEX
  8
0
 10
243.820877
 20
432.523827
 42
0.027021
  0
VERTEX
  8
0
 10
241.500000
 20
434.688220
 42
0.000000
  0
VERTEX
  8
0
 10
238.500000
 20
437.197167
 42
0.000000
  0
VERTEX
  8
0
 10
241.500000
 20
436.529409
 42
-0.056494
  0
VERTEX
  8
0
 10
242.880280
 20
436.053723
 42
-0.025234
  0
VERTEX
  8
0
 10
244.573438
 20
435.139251
 42
-0.024591
  0
VERTEX
  8
0
 10
246.285653
 20
433.980786
 42
-0.030534
  0
VERTEX
  8
0
 10
247.750000
 20
432.734659
 42
0.006165
  0
VERTEX
  8
0
 10
249.719337
 20
430.886071
 42
0.106550
  0
VERTEX
  8
0
 10
250.476584
 20
430.443247
 42
0.432695
  0
VERTEX
  8
0
 10
250.870901
 20
430.658605
 42
0.063628
  0
VERTEX
  8
0
 10
251.000000
 20
431.668975
 42
0.120506
  0
VERTEX
  8
0
 10
250.357453
 20
434.296294
 42
0.085602
  0
VERTEX
  8
0
 10
248.513266
 20
436.719693
 42
0.073245
  0
VERTEX
  8
0
 10
245.654131
 20
438.689538
 42
0.055458
  0
VERTEX
  8
0
 10
242.065298
 20
439.984335
 42
0.019873
  0
VERTEX
  8
0
 10
240.017889
 20
440.390220
 42
0.020288
  0
VERTEX
  8
0
 10
237.958779
 20
440.628887
 42
0.020545
  0
VERTEX
  8
0
 10
236.159543
 20
440.689611
 42
0.075137
  0
VERTEX
  8
0
 10
235.035584
 20
440.511294
 42
-0.085419
  0
VERTEX
  8
0
 10
232.808707
 20
440.204500
 42
-0.041353
  0
VERTEX
  8
0
 10
229.943449
 20
440.538884
 42
-0.054042
  0
VERTEX
  8
0
 10
227.784037
 20
441.223030
 42
-0.537548
  0
VERTEX
  8
0
 10
227.651163
 20
441.999254
 42
-0.106306
  0
VERTEX
  8
0
 10
229.662651
 20
443.210613
 42
-0.003695
  0
VERTEX
  8
0
 10
238.371812
 20
446.124256
 42
-0.007694
  0
VERTEX
  8
0
 10
247.394591
 20
448.915985
 42
-0.013232
  0
VERTEX
  8
0
 10
255.001218
 20
450.924988
 42
-0.023384
  0
VERTEX
  8
0
 10
269.849609
 20
453.703626
 42
-0.017886
  0
VERTEX
  8
0
 10
286.286660
 20
455.393796
 42
-0.017865
  0
VERTEX
  8
0
 10
302.829906
 20
455.906329
 42
-0.023089
  0
VERTEX
  8
0
 10
318.000000
 20
455.133116
 42
0.000000
  0
VERTEX
  8
0
 10
324.500000
 20
454.500000
 42
0.000000
  0
VERTEX
  8
0
 10
319.835037
 20
451.757681
 42
-0.024226
  0
VERTEX
  8
0
 10
317.680862
 20
450.627974
 42
-0.014950
  0
VERTEX
  8
0
 10
315.050416
 20
449.501373
 42
-0.014984
  0
VERTEX
  8
0
 10
312.377698
 20
448.541496
 42
-0.025897
  0
VERTEX
  8
0
 10
310.097764
 20
447.927546
 42
-0.021883
  0
VERTEX
  8
0
 10
306.876368
 20
447.382853
 42
-0.088285
  0
VERTEX
  8
0
 10
304.892919
 20
447.486824
 42
-0.069211
  0
VERTEX
  8
0
 10
302.835641
 20
448.276933
 42
-0.010252
  0
VERTEX
  8
0
 10
298.977913
 20
450.513417
 42
0.009265
  0
VERTEX
  8
0
 10
295.687859
 20
452.429482
 42
0.049890
  0
VERTEX
  8
0
 10
293.789945
 20
453.252432
 42
0.104823
  0
VERTEX
  8
0
 10
292.486743
 20
453.383923
 42
0.147148
  0
VERTEX
  8
0
 10
291.416668
 20
452.930840
 42
0.137389
  0
VERTEX
  8
0
 10
290.827482
 20
452.078810
 42
0.195772
  0
VERTEX
  8
0
 10
290.877218
 20
451.170775
 42
0.074338
  0
VERTEX
  8
0
 10
291.719886
 20
449.911619
 42
0.009461
  0
VERTEX
  8
0
 10
293.966292
 20
447.534346
 42
0.000000
  0
VERTEX
  8
0
 10
298.029621
 20
443.394116
 42
0.000000
  0
VERTEX
  8
0
 10
298.849584
 20
431.947058
 42
-0.005664
  0
VERTEX
  8
0
 10
299.131942
 20
427.260846
 42
-0.005951
  0
VERTEX
  8
0
 10
299.302532
 20
422.646042
 42
-0.005722
  0
VERTEX
  8
0
 10
299.356724
 20
418.662228
 42
-0.026378
  0
VERTEX
  8
0
 10
299.240096
 20
416.358616
 42
0.000000
  0
VERTEX
  8
0
 10
298.810645
 20
412.217231
 42
0.000000
  0
VERTEX
  8
0
 10
291.155323
 20
411.508954
 42
0.036324
  0
VERTEX
  8
0
 10
276.859302
 20
409.130321
 42
0.026629
  0
VERTEX
  8
0
 10
261.450216
 20
404.519713
 42
0.026642
  0
VERTEX
  8
0
 10
246.629207
 20
398.301443
 42
0.036523
  0
VERTEX
  8
0
 10
234.107995
 20
391.073338
 42
0.045751
  0
VERTEX
  8
0
 10
220.769920
 20
380.109936
 42
0.050949
  0
VERTEX
  8
0
 10
210.175804
 20
367.262247
 42
0.051005
  0
VERTEX
  8
0
 10
202.407548
 20
352.550702
 42
0.046029
  0
VERTEX
  8
0
 10
197.451738
 20
336.058577
 42
0.018367
  0
VERTEX
  8
0
 10
196.649431
 20
331.185861
 42
0.019021
  0
VERTEX
  8
0
 10
196.218407
 20
326.323890
 42
0.014954
  0
VERTEX
  8
0
 10
196.099827
 20
320.534194
 42
0.006001
  0
VERTEX
  8
0
 10
196.269551
 20
312.614825
 42
0.015473
  0
VERTEX
  8
0
 10
197.028712
 20
300.837824
 42
0.033249
  0
VERTEX
  8
0
 10
198.493426
 20
291.863653
 42
0.035677
  0
VERTEX
  8
0
 10
201.056949
 20
283.564255
 42
0.020703
  0
VERTEX
  8
0
 10
205.240146
 20
274.000000
 42
0.018848
  0
VERTEX
  8
0
 10
207.820866
 20
269.177928
 42
0.030443
  0
VERTEX
  8
0
 10
210.409880
 20
265.310827
 42
0.025381
  0
VERTEX
  8
0
 10
213.772162
 20
261.331742
 42
0.009084
  0
VERTEX
  8
0
 10
218.947318
 20
256.000000
 42
0.009780
  0
VERTEX
  8
0
 10
224.399185
 20
250.791491
 42
0.025185
  0
VERTEX
  8
0
 10
228.590214
 20
247.313727
 42
0.027728
  0
VERTEX
  8
0
 10
232.867903
 20
244.469020
 42
0.014281
  0
VERTEX
  8
0
 10
238.504784
 20
241.368659
 42
0.019956
  0
VERTEX
  8
0
 10
248.647643
 20
236.662954
 42
0.022838
  0
VERTEX
  8
0
 10
258.692472
 20
233.009807
 42
0.021897
  0
VERTEX
  8
0
 10
269.387244
 20
230.172116
 42
0.015887
  0
VERTEX
  8
0
 10
281.500000
 20
227.920382
 42
0.027300
  0
VERTEX
  8
0
 10
286.213222
 20
227.459658
 42
0.001692
  0
VERTEX
  8
0
 10
300.250000
 20
226.905329
 42
0.002504
  0
VERTEX
  8
0
 10
316.987155
 20
226.384999
 42
0.001853
  0
VERTEX
  8
0
 10
335.500000
 20
225.970906
 42
-0.001628
  0
VERTEX
  8
0
 10
357.445999
 20
225.489918
 42
-0.004176
  0
VERTEX
  8
0
 10
373.318649
 20
224.957639
 42
-0.004944
  0
VERTEX
  8
0
 10
384.803194
 20
224.362645
 42
-0.026788
  0
VERTEX
  8
0
 10
391.000000
 20
223.645515
 42
-0.034498
  0
VERTEX
  8
0
 10
400.262884
 20
221.400845
 42
-0.011216
  0
VERTEX
  8
0
 10
413.596533
 20
216.846433
 42
-0.011555
  0
VERTEX
  8
0
 10
427.308558
 20
211.453958
 42
-0.020602
  0
VERTEX
  8
0
 10
438.280066
 20
206.302257
 42
-0.038896
  0
VERTEX
  8
0
 10
447.689651
 20
200.429823
 42
-0.036343
  0
VERTEX
  8
0
 10
456.306823
 20
193.047786
 42
-0.037247
  0
VERTEX
  8
0
 10
463.548491
 20
184.712929
 42
-0.047171
  0
VERTEX
  8
0
 10
468.849741
 20
176.000000
 42
-0.011177
  0
VERTEX
  8
0
 10
470.541204
 20
172.311581
 42
-0.008863
  0
VERTEX
  8
0
 10
472.207828
 20
168.255846
 42
-0.008978
  0
VERTEX
  8
0
 10
473.619780
 20
164.437789
 42
-0.022047
  0
VERTEX
  8
0
 10
474.481416
 20
161.573092
 42
-0.038078
  0
VERTEX
  8
0
 10
476.322726
 20
150.971316
 42
-0.032702
  0
VERTEX
  8
0
 10
476.667640
 20
139.653135
 42
-0.033002
  0
VERTEX
  8
0
 10
475.539291
 20
128.507651
 42
-0.041146
  0
VERTEX
  8
0
 10
472.974299
 20
118.425299
 42
-0.093913
  0
VERTEX
  8
0
 10
462.581377
 20
100.216384
 42
-0.077798
  0
VERTEX
  8
0
 10
445.617875
 20
85.647726
 42
-0.072754
  0
VERTEX
  8
0
 10
423.872873
 20
76.220961
 42
-0.066048
  0
VERTEX
  8
0
 10
399.595691
 20
73.000000
 42
-0.027630
  0
VERTEX
  8
0
 10
387.767514
 20
73.654135
 42
-0.038312
  0
VERTEX
  8
0
 10
377.337953
 20
75.628381
 42
-0.031393
  0
VERTEX
  8
0
 10
365.890573
 20
79.503801
 42
-0.012050
  0
VERTEX
  8
0
 10
350.500000
 20
86.253410
 42
0.006974
  0
VERTEX
  8
0
 10
337.454031
 20
92.133410
 42
0.008917
  0
VERTEX
  8
0
 10
325.270974
 20
97.165064
 42
0.009131
  0
VERTEX
  8
0
 10
313.159901
 20
101.662579
 42
0.007976
  0
VERTEX
  8
0
 10
300.336326
 20
105.931545
 42
0.008229
  0
VERTEX
  8
0
 10
287.855319
 20
109.641806
 42
0.021335
  0
VERTEX
  8
0
 10
278.719638
 20
111.779246
 42
0.022231
  0
VERTEX
  8
0
 10
269.652741
 20
113.082077
 42
0.009632
  0
VERTEX
  8
0
 10
257.500000
 20
114.044098
 42
-0.000979
  0
VERTEX
  8
0
 10
250.461732
 20
114.478835
 42
-0.000684
  0
VERTEX
  8
0
 10
242.528125
 20
114.995359
 42
-0.000690
  0
VERTEX
  8
0
 10
234.925211
 20
115.511334
 42
-0.001436
  0
VERTEX
  8
0
 10
229.000000
 20
115.938766
 42
0.031935
  0
VERTEX
  8
0
 10
207.493521
 20
116.176143
 42
0.031274
  0
VERTEX
  8
0
 10
185.978703
 20
113.683591
 42
0.031341
  0
VERTEX
  8
0
 10
164.987996
 20
108.535077
 42
0.032403
  0
VERTEX
  8
0
 10
145.045541
 20
100.846606
 42
-0.000828
  0
VERTEX
  8
0
 10
138.329527
 20
97.757544
 42
-0.474108
  0
VERTEX
  8
0
 10
137.984744
 20
97.926649
 42
-0.296570
  0
VERTEX
  8
0
 10
138.158368
 20
98.406383
 42
-0.000674
  0
VERTEX
  8
0
 10
144.500000
 20
103.183269
 42
-0.028366
  0
VERTEX
  8
0
 10
160.133108
 20
113.594418
 42
-0.026438
  0
VERTEX
  8
0
 10
177.208143
 20
122.439184
 42
-0.027353
  0
VERTEX
  8
0
 10
194.392513
 20
129.111942
 42
-0.038717
  0
VERTEX
  8
0
 10
210.332181
 20
132.983843
 42
-0.030042
  0
VERTEX
  8
0
 10
218.290795
 20
133.789070
 42
-0.013485
  0
VERTEX
  8
0
 10
228.804466
 20
133.934173
 42
-0.013441
  0
VERTEX
  8
0
 10
239.744775
 20
133.495800
 42
-0.020542
  0
VERTEX
  8
0
 10
249.184950
 20
132.472221
 42
-0.014266
  0
VERTEX
  8
0
 10
259.632876
 20
130.596773
 42
-0.012107
  0
VERTEX
  8
0
 10
270.549151
 20
128.036701
 42
-0.009313
  0
VERTEX
  8
0
 10
283.713857
 20
124.347931
 42
-0.003812
  0
VERTEX
  8
0
 10
301.454757
 20
118.870817
 42
0.004363
  0
VERTEX
  8
0
 10
321.415472
 20
112.732485
 42
0.009122
  0
VERTEX
  8
0
 10
337.074903
 20
108.375459
 42
0.011297
  0
VERTEX
  8
0
 10
350.401791
 20
105.247520
 42
0.013794
  0
VERTEX
  8
0
 10
363.000000
 20
102.950395
 42
0.006643
  0
VERTEX
  8
0
 10
370.955656
 20
101.833452
 42
0.022121
  0
VERTEX
  8
0
 10
376.214329
 20
101.401462
 42
0.024136
  0
VERTEX
  8
0
 10
381.249811
 20
101.454500
 42
0.009112
  0
VERTEX
  8
0
 10
388.272339
 20
101.996436
 42
0.018318
  0
VERTEX
  8
0
 10
399.890395
 20
103.537499
 42
0.040541
  0
VERTEX
  8
0
 10
408.547724
 20
105.743856
 42
0.046160
  0
VERTEX
  8
0
 10
416.018839
 20
109.105665
 42
0.031591
  0
VERTEX
  8
0
 10
423.814105
 20
114.193367
 42
0.064652
  0
VERTEX
  8
0
 10
430.567010
 20
120.748404
 42
0.063623
  0
VERTEX
  8
0
 10
435.464901
 20
128.844465
 42
0.062376
  0
VERTEX
  8
0
 10
438.239939
 20
138.062924
 42
0.058016
  0
VERTEX
  8
0
 10
438.751804
 20
147.915024
 42
0.074981
  0
VERTEX
  8
0
 10
435.969388
 20
160.737913
 42
0.081730
  0
VERTEX
  8
0
 10
429.566920
 20
171.754558
 42
0.068442
  0
VERTEX
  8
0
 10
418.927036
 20
181.559363
 42
0.035571
  0
VERTEX
  8
0
 10
403.381133
 20
190.810377
 42
0.047066
  0
VERTEX
  8
0
 10
389.622213
 20
196.172575
 42
0.038268
  0
VERTEX
  8
0
 10
374.111338
 20
199.333840
 42
0.028381
  0
VERTEX
  8
0
 10
354.386287
 20
200.673452
 42
0.011005
  0
VERTEX
  8
0
 10
327.000000
 20
200.373659
 42
-0.003595
  0
VERTEX
  8
0
 10
297.259462
 20
199.607187
 42
-0.007577
  0
VERTEX
  8
0
 10
274.169788
 20
199.528182
 42
-0.009235
  0
VERTEX
  8
0
 10
256.584324
 20
200.059476
 42
-0.031316
  0
VERTEX
  8
0
 10
245.181899
 20
201.333661
 42
-0.028928
  0
VERTEX
  8
0
 10
225.771418
 20
205.914074
 42
-0.041719
  0
VERTEX
  8
0
 10
209.350985
 20
212.339062
 42
-0.044892
  0
VERTEX
  8
0
 10
195.153886
 20
220.967009
 42
-0.042394
  0
VERTEX
  8
0
 10
182.427836
 20
232.140857
 42
-0.020529
  0
VERTEX
  8
0
 10
175.097917
 20
240.423300
 42
-0.030591
  0
VERTEX
  8
0
 10
169.459941
 20
248.283219
 42
-0.028794
  0
VERTEX
  8
0
 10
164.590882
 20
257.122043
 42
-0.015664
  0
VERTEX
  8
0
 10
159.596077
 20
268.470530
 42
0.000000
  0
VERTEX
  8
0
 10
155.983188
 20
277.430345
 42
0.000000
  0
VERTEX
  8
0
 10
157.536618
 20
282.965172
 42
-0.028640
  0
VERTEX
  8
0
 10
161.699350
 20
295.083076
 42
-0.014821
  0
VERTEX
  8
0
 10
168.199059
 20
309.724404
 42
-0.014776
  0
VERTEX
  8
0
 10
175.455222
 20
323.765453
 42
-0.032881
  0
VERTEX
  8
0
 10
181.968872
 20
333.877028
 42
0.015115
  0
VERTEX
  8
0
 10
190.042116
 20
345.482818
 42
0.038210
  0
VERTEX
  8
0
 10
194.979438
 20
354.495408
 42
0.037443
  0
VERTEX
  8
0
 10
198.543355
 20
364.260689
 42
0.014022
  0
VERTEX
  8
0
 10
202.110869
 20
378.406482
 42
-0.004824
  0
VERTEX
  8
0
 10
203.460432
 20
384.205561
 42
-0.004828
  0
VERTEX
  8
0
 10
204.921207
 20
389.975654
 42
-0.004727
  0
VERTEX
  8
0
 10
206.292120
 20
394.986303
 42
-0.019082
  0
VERTEX
  8
0
 10
207.273055
 20
398.000000
 42
-0.044021
  0
VERTEX
  8
0
 10
211.243820
 20
406.416505
 42
-0.045083
  0
VERTEX
  8
0
 10
216.599747
 20
413.936069
 42
-0.048950
  0
VERTEX
  8
0
 10
222.260782
 20
419.359434
 42
-0.168091
  0
VERTEX
  8
0
 10
227.002881
 20
421.000000
 42
0.072754
  0
VERTEX
  8
0
 10
229.527977
 20
421.369378
 42
0.441172
  0
VERTEX
  8
0
 10
230.037758
 20
422.426553
 42
0.217328
  0
VERTEX
  8
0
 10
228.738902
 20
423.663860
 42
0.046103
  0
VERTEX
  8
0
 10
225.626800
 20
424.428714
 42
0.056038
  0
VERTEX
  8
0
 10
220.256482
 20
424.626921
 42
0.030991
  0
VERTEX
  8
0
 10
213.746743
 20
423.729268
 42
0.021425
  0
VERTEX
  8
0
 10
205.160626
 20
421.611400
 42
0.007346
  0
VERTEX
  8
0
 10
192.917063
 20
417.832470
 42
-0.004155
  0
VERTEX
  8
0
 10
182.665445
 20
414.596543
 42
-0.026017
  0
VERTEX
  8
0
 10
177.335511
 20
413.261556
 42
-0.036603
  0
VERTEX
  8
0
 10
172.675287
 20
412.698565
 42
-0.013212
  0
VERTEX
  8
0
 10
166.000000
 20
412.560846
 42
-0.028155
  0
VERTEX
  8
0
 10
157.268063
 20
413.103708
 42
-0.053616
  0
VERTEX
  8
0
 10
150.418273
 20
414.675168
 42
-0.042295
  0
VERTEX
  8
0
 10
143.070805
 20
417.931561
 42
-0.011801
  0
VERTEX
  8
0
 10
132.177323
 20
424.245998
 42
0.010024
  0
VERTEX
  8
0
 10
122.748025
 20
429.756572
 42
0.031668
  0
VERTEX
  8
0
 10
116.147340
 20
432.908641
 42
0.033011
  0
VERTEX
  8
0
 10
109.347899
 20
435.133288
 42
0.011639
  0
VERTEX
  8
0
 10
99.348090
 20
437.442302
 42
-0.010805
  0
VERTEX
  8
0
 10
89.892896
 20
439.608968
 42
-0.025716
  0
VERTEX
  8
0
 10
83.002780
 20
441.727442
 42
-0.029592
  0
VERTEX
  8
0
 10
76.968114
 20
444.342262
 42
-0.019474
  0
VERTEX
  8
0
 10
70.350301
 20
448.017876
 42
-0.012702
  0
VERTEX
  8
0
 10
63.643589
 20
452.329292
 42
-0.003281
  0
VERTEX
  8
0
 10
53.056686
 20
459.623541
 42
-0.000430
  0
VERTEX
  8
0
 10
41.377937
 20
467.798562
 42
-0.244509
  0
VERTEX
  8
0
 10
41.000000
 20
468.525207
 42
-0.493317
  0
VERTEX
  8
0
 10
41.132782
 20
468.627036
 42
-0.003546
  0
VERTEX
  8
0
 10
42.689062
 20
468.197253
 42
-0.009167
  0
VERTEX
  8
0
 10
44.544787
 20
467.633625
 42
-0.005344
  0
VERTEX
  8
0
 10
46.750000
 20
466.893309
 42
0.008605
  0
VERTEX
  8
0
 10
50.076872
 20
465.800534
 42
0.001533
  0
VERTEX
  8
0
 10
56.337175
 20
463.883940
 42
0.001657
  0
VERTEX
  8
0
 10
63.688592
 20
461.684498
 42
0.001494
  0
SEQEND
  0
POLYLINE
  8
0
 66
1
 70
1
  0
VERTEX
  8
0
 10
73.061192
 20
441.122233
 42
0.024475
  0
VERTEX
  8
0
 10
78.946373
 20
438.209367
 42
0.023896
  0
VERTEX
  8
0
 10
85.134613
 20
435.859748
 42
0.021911
  0
VERTEX
  8
0
 10
91.999692
 20
433.950316
 42
0.014986
  0
VERTEX
  8
0
 10
99.936417
 20
432.362144
 42
-0.016740
  0
VERTEX
  8
0
 10
108.062563
 20
430.706410
 42
-0.034982
  0
VERTEX
  8
0
 10
114.218601
 20
428.772308
 42
-0.034254
  0
VERTEX
  8
0
 10
120.124992
 20
425.971246
 42
-0.015406
  0
VERTEX
  8
0
 10
127.481242
 20
421.540465
 42
0.014018
  0
VERTEX
  8
0
 10
137.584646
 20
415.416752
 42
0.029872
  0
VERTEX
  8
0
 10
145.777664
 20
411.386718
 42
0.036221
  0
VERTEX
  8
0
 10
153.285001
 20
408.857145
 42
0.034997
  0
VERTEX
  8
0
 10
161.165452
 20
407.401771
 42
0.000000
  0
VERTEX
  8
0
 10
167.294486
 20
406.708350
 42
0.000000
  0
VERTEX
  8
0
 10
154.897243
 20
402.837136
 42
-0.005151
  0
VERTEX
  8
0
 10
138.753210
 20
397.977903
 42
-0.005085
  0
VERTEX
  8
0
 10
122.442250
 20
393.430416
 42
-0.004322
  0
VERTEX
  8
0
 10
103.840606
 20
388.619511
 42
-0.002232
  0
VERTEX
  8
0
 10
80.500000
 20
382.908310
 42
0.001500
  0
VERTEX
  8
0
 10
67.427712
 20
379.729935
 42
0.001938
  0
VERTEX
  8
0
 10
55.447650
 20
376.729717
 42
0.001466
  0
VERTEX
  8
0
 10
45.424623
 20
374.146960
 42
0.017163
  0
VERTEX
  8
0
 10
41.555828
 20
372.994772
 42
-0.004356
  0
VERTEX
  8
0
 10
36.257375
 20
371.267902
 42
-0.132352
  0
VERTEX
  8
0
 10
34.874877
 20
371.208173
 42
-0.491583
  0
VERTEX
  8
0
 10
34.558687
 20
371.885033
 42
-0.026332
  0
VERTEX
  8
0
 10
35.942504
 20
374.250000
 42
0.059360
  0
VERTEX
  8
0
 10
45.726178
 20
393.825328
 42
0.052363
  0
VERTEX
  8
0
 10
51.158745
 20
415.998528
 42
0.054492
  0
VERTEX
  8
0
 10
51.742432
 20
437.799497
 42
0.081673
  0
VERTEX
  8
0
 10
47.131695
 20
456.233568
 42
0.000000
  0
VERTEX
  8
0
 10
45.085162
 20
460.967135
 42
0.000000
  0
VERTEX
  8
0
 10
56.292581
 20
452.594702
 42
0.005330
  0
VERTEX
  8
0
 10
60.991313
 20
449.161969
 42
0.005067
  0
VERTEX
  8
0
 10
65.841421
 20
445.771035
 42
0.005034
  0
VERTEX
  8
0
 10
70.189323
 20
442.860190
 42
0.017838
  0
SEQEND
  0
POLYLINE
  8
0
 66
1
 70
1
  0
VERTEX
  8
0
 10
313.715041
 20
428.122294
 42
-0.013984
  0
VERTEX
  8
0
 10
320.248879
 20
420.474559
 42
-0.032731
  0
VERTEX
  8
0
 10
324.578100
 20
414.327743
 42
-0.043386
  0
VERTEX
  8
0
 10
327.260757
 20
408.932841
 42
-0.059700
  0
VERTEX
  8
0
 10
328.627818
 20
403.698707
 42
-0.025911
  0
VERTEX
  8
0
 10
328.832578
 20
401.278586
 42
-0.075578
  0
VERTEX
  8
0
 10
328.635294
 20
399.618338
 42
-0.078397
  0
VERTEX
  8
0
 10
327.958812
 20
398.126073
 42
-0.029362
  0
VERTEX
  8
0
 10
326.581155
 20
396.278817
 42
-0.065430
  0
VERTEX
  8
0
 10
324.629957
 20
394.494989
 42
-0.040891
  0
VERTEX
  8
0
 10
321.951967
 20
392.932353
 42
-0.025097
  0
VERTEX
  8
0
 10
317.912613
 20
391.242195
 42
-0.006445
  0
VERTEX
  8
0
 10
311.223314
 20
388.926891
 42
0.000338
  0
VERTEX
  8
0
 10
306.249431
 20
387.273073
 42
0.000482
  0
VERTEX
  8
0
 10
301.836113
 20
385.797609
 42
0.000262
  0
VERTEX
  8
0
 10
298.104087
 20
384.543741
 42
0.007279
  0
VERTEX
  8
0
 10
297.133666
 20
384.201331
 42
-0.052804
  0
VERTEX
  8
0
 10
296.504052
 20
384.041733
 42
-0.383938
  0
VERTEX
  8
0
 10
296.266229
 20
384.201113
 42
-0.169868
  0
VERTEX
  8
0
 10
296.304787
 20
384.631683
 42
-0.015986
  0
VERTEX
  8
0
 10
296.781091
 20
385.598370
 42
0.071027
  0
VERTEX
  8
0
 10
300.877591
 20
396.892296
 42
0.030105
  0
VERTEX
  8
0
 10
303.226091
 20
412.869032
 42
0.029746
  0
VERTEX
  8
0
 10
303.643764
 20
428.756375
 42
0.085893
  0
VERTEX
  8
0
 10
301.414920
 20
439.500000
 42
-0.007298
  0
VERTEX
  8
0
 10
300.945748
 20
440.741467
 42
-0.387460
  0
VERTEX
  8
0
 10
301.035243
 20
440.957609
 42
-0.281563
  0
VERTEX
  8
0
 10
301.308102
 20
440.927477
 42
-0.005309
  0
VERTEX
  8
0
 10
302.479943
 20
440.000000
 42
-0.030940
  0
VERTEX
  8
0
 10
303.628031
 20
438.947484
 42
-0.002335
  0
VERTEX
  8
0
 10
306.545195
 20
435.892174
 42
-0.003215
  0
VERTEX
  8
0
 10
309.986918
 20
432.206408
 42
-0.002440
  0
SEQEND
  0
POLYLINE
  8
0
 66
1
 70
1
  0
VERTEX
  8
0
 10
208.160837
 20
410.225874
 42
0.048835
  0
VERTEX
  8
0
 10
205.739739
 20
406.008920
 42
0.023027
  0
VERTEX
  8
0
 10
203.422807
 20
400.166456
 42
0.016518
  0
VERTEX
  8
0
 10
200.944062
 20
392.109521
 42
0.006146
  0
VERTEX
  8
0
 10
197.975930
 20
380.635686
 42
-0.016706
  0
VERTEX
  8
0
 10
194.358232
 20
367.777088
 42
-0.028104
  0
VERTEX
  8
0
 10
190.369021
 20
357.301566
 42
-0.029460
  0
VERTEX
  8
0
 10
185.376749
 20
347.687716
 42
-0.020798
  0
VERTEX
  8
0
 10
178.710174
 20
337.500000
 42
0.013079
  0
VERTEX
  8
0
 10
174.054709
 20
330.619758
 42
0.016767
  0
VERTEX
  8
0
 10
170.155636
 20
324.043590
 42
0.018559
  0
VERTEX
  8
0
 10
167.096916
 20
317.939827
 42
0.029661
  0
VERTEX
  8
0
 10
164.998736
 20
312.500000
 42
-0.019943
  0
VERTEX
  8
0
 10
164.253679
 20
310.450641
 42
-0.006063
  0
VERTEX
  8
0
 10
162.964649
 20
307.407790
 42
-0.006061
  0
VERTEX
  8
0
 10
161.436189
 20
304.030172
 42
-0.006576
  0
VERTEX
  8
0
 10
159.866163
 20
300.781839
 42
0.023081
  0
VERTEX
  8
0
 10
155.708363
 20
291.401485
 42
0.031286
  0
VERTEX
  8
0
 10
152.894835
 20
282.573180
 42
0.032125
  0
VERTEX
  8
0
 10
151.255484
 20
273.652312
 42
0.026513
  0
VERTEX
  8
0
 10
150.632075
 20
264.000000
 42
0.000000
  0
VERTEX
  8
0
 10
150.500000
 20
252.500000
 42
0.000000
  0
VERTEX
  8
0
 10
141.500000
 20
252.444466
 42
0.011933
  0
VERTEX
  8
0
 10
136.564147
 20
252.296174
 42
0.030020
  0
VERTEX
  8
0
 10
132.990891
 20
251.887332
 42
0.034172
  0
VERTEX
  8
0
 10
129.772130
 20
251.091924
 42
0.020113
  0
VERTEX
  8
0
 10
126.048487
 20
249.729313
 42
-0.004577
  0
VERTEX
  8
0
 10
123.556345
 20
248.728522
 42
-0.007392
  0
VERTEX
  8
0
 10
121.415359
 20
247.927703
 42
-0.002353
  0
VERTEX
  8
0
 10
119.568214
 20
247.277539
 42
-0.287319
  0
VERTEX
  8
0
 10
119.335709
 20
247.330957
 42
-0.345852
  0
VERTEX
  8
0
 10
119.307785
 20
247.563620
 42
-0.000233
  0
VERTEX
  8
0
 10
122.847739
 20
253.376930
 42
-0.002374
  0
VERTEX
  8
0
 10
126.852049
 20
259.876264
 42
-0.001431
  0
VERTEX
  8
0
 10
131.658436
 20
267.546110
 42
0.007321
  0
VERTEX
  8
0
 10
145.691992
 20
290.537866
 42
0.020850
  0
VERTEX
  8
0
 10
154.546239
 20
307.071068
 42
0.021572
  0
VERTEX
  8
0
 10
161.828428
 20
323.971562
 42
0.008308
  0
VERTEX
  8
0
 10
170.520401
 20
348.000000
 42
-0.012275
  0
VERTEX
  8
0
 10
178.612059
 20
369.826002
 42
-0.029661
  0
VERTEX
  8
0
 10
185.921906
 20
385.398332
 42
-0.037878
  0
VERTEX
  8
0
 10
193.754995
 20
397.514669
 42
-0.038183
  0
VERTEX
  8
0
 10
203.307246
 20
408.275900
 42
-0.008274
  0
VERTEX
  8
0
 10
207.447970
 20
412.148641
 42
-0.088581
  0
VERTEX
  8
0
 10
209.391377
 20
413.363602
 42
-0.700697
  0
VERTEX
  8
0
 10
209.814624
 20
412.891067
 42
-0.031715
  0
SEQEND
  0
POLYLINE
  8
0
 66
1
 70
1
  0
VERTEX
  8
0
 10
189.746221
 20
406.912508
 42
0.035993
  0
VERTEX
  8
0
 10
185.230979
 20
402.440651
 42
0.007214
  0
VERTEX
  8
0
 10
177.896664
 20
393.800634
 42
0.006229
  0
VERTEX
  8
0
 10
168.342016
 20
381.911384
 42
0.002752
  0
VERTEX
  8
0
 10
156.000000
 20
365.975778
 42
-0.025528
  0
VERTEX
  8
0
 10
141.736482
 20
349.196537
 42
-0.017046
  0
VERTEX
  8
0
 10
123.826517
 20
331.438864
 42
-0.017081
  0
VERTEX
  8
0
 10
104.829414
 20
315.014950
 42
-0.026454
  0
VERTEX
  8
0
 10
87.259517
 20
302.316498
 42
-0.001585
  0
VERTEX
  8
0
 10
84.078083
 20
300.278383
 42
-0.002542
  0
VERTEX
  8
0
 10
81.349095
 20
298.561721
 42
-0.000479
  0
VERTEX
  8
0
 10
78.935341
 20
297.063632
 42
-0.139521
  0
VERTEX
  8
0
 10
78.711743
 20
297.000000
 42
-0.416214
  0
VERTEX
  8
0
 10
78.595055
 20
297.117487
 42
-0.002240
  0
VERTEX
  8
0
 10
78.614987
 20
298.880319
 42
-0.007480
  0
VERTEX
  8
0
 10
78.678536
 20
300.946563
 42
-0.004471
  0
VERTEX
  8
0
 10
78.812804
 20
303.401084
 42
0.062824
  0
VERTEX
  8
0
 10
78.290794
 20
311.824216
 42
0.102175
  0
VERTEX
  8
0
 10
75.569448
 20
318.425432
 42
0.108608
  0
VERTEX
  8
0
 10
70.603818
 20
323.142793
 42
0.078112
  0
VERTEX
  8
0
 10
63.500000
 20
326.042022
 42
0.000000
  0
VERTEX
  8
0
 10
60.500000
 20
326.749459
 42
0.000000
  0
VERTEX
  8
0
 10
64.000000
 20
328.044116
 42
0.036015
  0
VERTEX
  8
0
 10
75.211074
 20
333.135523
 42
0.020440
  0
VERTEX
  8
0
 10
88.007400
 20
340.791487
 42
0.017613
  0
VERTEX
  8
0
 10
102.272160
 20
350.873478
 42
0.011556
  0
VERTEX
  8
0
 10
118.000000
 20
363.426113
 42
-0.005946
  0
VERTEX
  8
0
 10
131.984806
 20
374.846766
 42
-0.010979
  0
VERTEX
  8
0
 10
143.659629
 20
383.739741
 42
-0.012924
  0
VERTEX
  8
0
 10
154.247444
 20
391.032447
 42
-0.014375
  0
VERTEX
  8
0
 10
164.834859
 20
397.502744
 42
-0.013356
  0
VERTEX
  8
0
 10
172.173535
 20
401.446442
 42
-0.006664
  0
VERTEX
  8
0
 10
181.656167
 20
406.063029
 42
-0.002809
  0
VERTEX
  8
0
 10
191.209808
 20
410.492309
 42
-0.107947
  0
VERTEX
  8
0
 10
193.500000
 20
410.988703
 42
-0.619587
  0
VERTEX
  8
0
 10
193.616211
 20
410.754021
 42
-0.023664
  0
VERTEX
  8
0
 10
192.809828
 20
409.790654
 42
-0.019698
  0
VERTEX
  8
0
 10
191.500914
 20
408.477115
 42
-0.009789
  0
SEQEND
  0
POLYLINE
  8
0
 66
1
 70
1
  0
VERTEX
  8
0
 10
298.410657
 20
405.250000
 42
-0.014585
  0
VERTEX
  8
0
 10
298.012461
 20
403.368348
 42
-0.005129
  0
VERTEX
  8
0
 10
297.334912
 20
400.692187
 42
-0.005087
  0
VERTEX
  8
0
 10
296.529424
 20
397.763517
 42
-0.005939
  0
VERTEX
  8
0
 10
295.703398
 20
395.000000
 42
0.000000
  0
VERTEX
  8
0
 10
293.676107
 20
388.500000
 42
0.000000
  0
VERTEX
  8
0
 10
292.416440
 20
392.698533
 42
-0.015643
  0
VERTEX
  8
0
 10
291.884514
 20
394.696513
 42
-0.007655
  0
VERTEX
  8
0
 10
291.325865
 20
397.271984
 42
-0.007586
  0
VERTEX
  8
0
 10
290.826336
 20
399.969290
 42
-0.010913
  0
VERTEX
  8
0
 10
290.472736
 20
402.371916
 42
-0.007389
  0
VERTEX
  8
0
 10
290.077006
 20
405.970754
 42
-0.112302
  0
VERTEX
  8
0
 10
290.237280
 20
407.207029
 42
-0.228697
  0
VERTEX
  8
0
 10
290.914657
 20
407.861948
 42
-0.042657
  0
VERTEX
  8
0
 10
292.644349
 20
408.273551
 42
-0.006393
  0
VERTEX
  8
0
 10
297.061058
 20
408.876017
 42
-0.152598
  0
VERTEX
  8
0
 10
298.278432
 20
408.654396
 42
-0.299889
  0
VERTEX
  8
0
 10
298.742121
 20
407.815911
 42
-0.025459
  0
SEQEND
  0
POLYLINE
  8
0
 66
1
 70
1
  0
VERTEX
  8
0
 10
289.526387
 20
400.772646
 42
0.012475
  0
VERTEX
  8
0
 10
289.904117
 20
398.101783
 42
0.009773
  0
VERTEX
  8
0
 10
290.442455
 20
395.224934
 42
0.009904
  0
VERTEX
  8
0
 10
291.049025
 20
392.566641
 42
0.023764
  0
VERTEX
  8
0
 10
291.629974
 20
390.631615
 42
-0.040991
  0
VERTEX
  8
0
 10
292.375616
 20
387.797328
 42
-0.142255
  0
VERTEX
  8
0
 10
292.174695
 20
385.931996
 42
-0.102197
  0
VERTEX
  8
0
 10
290.952306
 20
384.120467
 42
-0.015879
  0
VERTEX
  8
0
 10
287.747317
 20
381.183703
 42
0.027391
  0
VERTEX
  8
0
 10
286.733830
 20
380.211195
 42
0.040428
  0
VERTEX
  8
0
 10
285.968235
 20
379.245738
 42
0.046927
  0
VERTEX
  8
0
 10
285.518035
 20
378.413469
 42
0.243563
  0
VERTEX
  8
0
 10
285.556334
 20
377.908849
 42
0.218027
  0
VERTEX
  8
0
 10
286.104365
 20
377.543587
 42
0.010252
  0
VERTEX
  8
0
 10
288.359136
 20
377.230327
 42
0.015321
  0
VERTEX
  8
0
 10
291.129606
 20
376.988950
 42
0.010259
  0
VERTEX
  8
0
 10
294.309017
 20
376.875244
 42
-0.000877
  0
VERTEX
  8
0
 10
299.692571
 20
376.783801
 42
-0.064048
  0
VERTEX
  8
0
 10
300.563452
 20
376.655155
 42
-0.799522
  0
VERTEX
  8
0
 10
300.553879
 20
376.473617
 42
-0.003902
  0
VERTEX
  8
0
 10
297.500000
 20
375.976363
 42
0.005845
  0
VERTEX
  8
0
 10
295.258698
 20
375.602475
 42
0.003670
  0
VERTEX
  8
0
 10
292.646875
 20
375.115519
 42
0.003684
  0
VERTEX
  8
0
 10
290.082953
 20
374.598365
 42
0.006726
  0
VERTEX
  8
0
 10
288.000000
 20
374.132899
 42
-0.013706
  0
VERTEX
  8
0
 10
285.553295
 20
373.621898
 42
-0.065184
  0
VERTEX
  8
0
 10
284.128394
 20
373.553023
 42
-0.115366
  0
VERTEX
  8
0
 10
283.153456
 20
373.867045
 42
-0.095971
  0
VERTEX
  8
0
 10
282.341884
 20
374.597251
 42
-0.091787
  0
VERTEX
  8
0
 10
280.684247
 20
377.912031
 42
-0.014562
  0
VERTEX
  8
0
 10
278.867283
 20
384.982838
 42
-0.017147
  0
VERTEX
  8
0
 10
277.443728
 20
392.460869
 42
-0.038475
  0
VERTEX
  8
0
 10
277.000000
 20
398.218760
 42
0.000000
  0
VERTEX
  8
0
 10
277.000000
 20
404.801321
 42
0.000000
  0
VERTEX
  8
0
 10
280.750000
 20
405.797308
 42
-0.015724
  0
VERTEX
  8
0
 10
285.761566
 20
406.961002
 42
-0.181113
  0
VERTEX
  8
0
 10
287.722558
 20
406.641262
 42
-0.214132
  0
VERTEX
  8
0
 10
288.816095
 20
405.138088
 42
-0.022879
  0
SEQEND
  0
POLYLINE
  8
0
 66
1
 70
1
  0
VERTEX
  8
0
 10
276.057646
 20
396.250000
 42
0.028299
  0
VERTEX
  8
0
 10
276.407723
 20
390.789365
 42
0.017635
  0
VERTEX
  8
0
 10
277.403776
 20
384.450997
 42
0.017668
  0
VERTEX
  8
0
 10
278.796317
 20
378.407621
 42
0.039027
  0
VERTEX
  8
0
 10
280.373285
 20
373.947022
 42
-0.210715
  0
VERTEX
  8
0
 10
280.375448
 20
373.074569
 42
-0.122889
  0
VERTEX
  8
0
 10
279.724839
 20
372.231798
 42
-0.056383
  0
VERTEX
  8
0
 10
278.228561
 20
371.301665
 42
-0.012651
  0
VERTEX
  8
0
 10
275.481148
 20
370.080591
 42
-0.007047
  0
VERTEX
  8
0
 10
273.319559
 20
369.220155
 42
-0.011308
  0
VERTEX
  8
0
 10
271.449998
 20
368.554354
 42
-0.005226
  0
VERTEX
  8
0
 10
269.873021
 20
368.050847
 42
-0.303262
  0
VERTEX
  8
0
 10
269.596104
 20
368.133569
 42
-0.064347
  0
VERTEX
  8
0
 10
266.431856
 20
373.146064
 42
-0.030348
  0
VERTEX
  8
0
 10
263.631426
 20
380.283447
 42
-0.030143
  0
VERTEX
  8
0
 10
261.649937
 20
387.948866
 42
-0.048210
  0
VERTEX
  8
0
 10
261.000000
 20
394.673828
 42
0.000000
  0
VERTEX
  8
0
 10
261.000000
 20
399.927458
 42
0.000000
  0
VERTEX
  8
0
 10
267.250000
 20
401.907562
 42
-0.008792
  0
VERTEX
  8
0
 10
273.343583
 20
403.720846
 42
-0.213827
  0
VERTEX
  8
0
 10
275.052953
 20
403.463084
 42
-0.241385
  0
VERTEX
  8
0
 10
275.884619
 20
402.030923
 42
-0.011242
  0
SEQEND
  0
POLYLINE
  8
0
 66
1
 70
1
  0
VERTEX
  8
0
 10
187.256798
 20
395.250000
 42
0.026431
  0
VERTEX
  8
0
 10
182.217758
 20
386.878816
 42
0.016760
  0
VERTEX
  8
0
 10
177.207877
 20
376.651231
 42
0.014235
  0
VERTEX
  8
0
 10
172.089963
 20
364.323480
 42
0.008677
  0
VERTEX
  8
0
 10
166.717917
 20
349.500000
 42
-0.007688
  0
VERTEX
  8
0
 10
157.523309
 20
323.971081
 42
-0.023937
  0
VERTEX
  8
0
 10
150.256073
 20
307.202058
 42
-0.022506
  0
VERTEX
  8
0
 10
141.185928
 20
290.670446
 42
-0.006186
  0
VERTEX
  8
0
 10
125.433866
 20
265.500000
 42
0.000000
  0
VERTEX
  8
0
 10
114.500000
 20
248.500000
 42
0.000000
  0
VERTEX
  8
0
 10
113.841166
 20
257.000000
 42
0.028505
  0
VERTEX
  8
0
 10
112.822203
 20
264.538729
 42
0.042536
  0
VERTEX
  8
0
 10
111.008177
 20
270.934655
 42
0.046162
  0
VERTEX
  8
0
 10
108.279561
 20
276.531179
 42
0.043339
  0
VERTEX
  8
0
 10
104.519920
 20
281.660384
 42
0.038488
  0
VERTEX
  8
0
 10
100.503847
 20
285.591515
 42
0.049600
  0
VERTEX
  8
0
 10
96.240860
 20
288.499564
 42
0.049829
  0
VERTEX
  8
0
 10
91.505038
 20
290.501616
 42
0.039383
  0
VERTEX
  8
0
 10
86.076365
 20
291.725030
 42
0.000000
  0
VERTEX
  8
0
 10
80.676620
 20
292.502128
 42
0.000000
  0
VERTEX
  8
0
 10
86.588310
 20
296.414396
 42
0.016541
  0
VERTEX
  8
0
 10
96.977999
 20
303.795594
 42
0.009335
  0
VERTEX
  8
0
 10
109.100323
 20
313.388573
 42
0.009124
  0
VERTEX
  8
0
 10
121.410623
 20
323.891934
 42
0.011357
  0
VERTEX
  8
0
 10
132.443390
 20
334.114908
 42
0.009315
  0
VERTEX
  8
0
 10
141.828670
 20
343.561642
 42
0.012820
  0
VERTEX
  8
0
 10
149.878418
 20
352.415456
 42
0.008833
  0
VERTEX
  8
0
 10
159.410705
 20
363.858337
 42
0.002150
  0
VERTEX
  8
0
 10
174.723474
 20
383.083735
 42
-0.005442
  0
VERTEX
  8
0
 10
180.466730
 20
390.197840
 42
-0.007908
  0
VERTEX
  8
0
 10
185.699793
 20
396.337142
 42
-0.003020
  0
VERTEX
  8
0
 10
190.333313
 20
401.538413
 42
-0.212365
  0
VERTEX
  8
0
 10
191.371079
 20
402.000000
 42
-0.581641
  0
VERTEX
  8
0
 10
191.454317
 20
401.853664
 42
-0.002737
  0
VERTEX
  8
0
 10
190.348683
 20
400.017187
 42
-0.007522
  0
VERTEX
  8
0
 10
188.975706
 20
397.839069
 42
-0.004305
  0
SEQEND
  0
POLYLINE
  8
0
 66
1
 70
1
  0
VERTEX
  8
0
 10
154.893490
 20
395.718975
 42
0.013472
  0
VERTEX
  8
0
 10
146.781824
 20
390.316308
 42
0.007057
  0
VERTEX
  8
0
 10
136.970255
 20
383.183242
 42
0.005635
  0
VERTEX
  8
0
 10
124.982878
 20
373.994407
 42
0.002812
  0
VERTEX
  8
0
 10
110.008203
 20
362.108733
 42
-0.004288
  0
VERTEX
  8
0
 10
103.410845
 20
356.903961
 42
-0.003728
  0
VERTEX
  8
0
 10
96.411785
 20
351.562081
 42
-0.003752
  0
VERTEX
  8
0
 10
90.005267
 20
346.822427
 42
-0.011020
  0
VERTEX
  8
0
 10
85.500000
 20
343.690959
 42
-0.018075
  0
VERTEX
  8
0
 10
78.147128
 20
339.190730
 42
-0.007889
  0
VERTEX
  8
0
 10
68.090894
 20
333.732193
 42
-0.001869
  0
VERTEX
  8
0
 10
57.450453
 20
328.222618
 42
-0.325695
  0
VERTEX
  8
0
 10
56.256691
 20
328.409975
 42
-0.251235
  0
VERTEX
  8
0
 10
56.182057
 20
328.657263
 42
-0.013588
  0
VERTEX
  8
0
 10
56.371367
 20
329.479335
 42
-0.018535
  0
VERTEX
  8
0
 10
56.671113
 20
330.481683
 42
-0.012214
  0
VERTEX
  8
0
 10
57.086115
 20
331.611312
 42
0.049204
  0
VERTEX
  8
0
 10
57.536302
 20
333.187735
 42
0.013340
  0
VERTEX
  8
0
 10
57.932626
 20
335.755080
 42
0.013367
  0
VERTEX
  8
0
 10
58.228139
 20
338.707728
 42
0.013512
  0
VERTEX
  8
0
 10
58.364094
 20
341.661301
 42
0.012632
  0
VERTEX
  8
0
 10
58.337583
 20
345.877371
 42
0.053875
  0
VERTEX
  8
0
 10
57.988734
 20
348.367309
 42
0.065884
  0
VERTEX
  8
0
 10
57.150580
 20
350.475429
 42
0.025056
  0
VERTEX
  8
0
 10
55.466297
 20
353.161301
 42
0.064487
  0
VERTEX
  8
0
 10
52.076614
 20
356.881109
 42
0.046575
  0
VERTEX
  8
0
 10
47.471789
 20
360.098964
 42
0.045627
  0
VERTEX
  8
0
 10
42.228903
 20
362.475891
 42
0.054195
  0
VERTEX
  8
0
 10
36.934605
 20
363.694151
 42
-0.013503
  0
VERTEX
  8
0
 10
34.889722
 20
363.992525
 42
-0.043632
  0
VERTEX
  8
0
 10
33.563720
 20
364.343997
 42
-0.145740
  0
VERTEX
  8
0
 10
33.070919
 20
364.707668
 42
-0.454449
  0
VERTEX
  8
0
 10
33.145410
 20
365.061499
 42
-0.059342
  0
VERTEX
  8
0
 10
36.904313
 20
366.613913
 42
-0.001445
  0
VERTEX
  8
0
 10
55.013824
 20
371.630243
 42
-0.003568
  0
VERTEX
  8
0
 10
73.579743
 20
376.573109
 42
-0.005719
  0
VERTEX
  8
0
 10
89.500000
 20
380.496479
 42
0.004081
  0
VERTEX
  8
0
 10
107.860204
 20
384.957403
 42
0.004847
  0
VERTEX
  8
0
 10
125.118120
 20
389.478288
 42
0.005262
  0
VERTEX
  8
0
 10
140.157870
 20
393.744796
 42
0.011684
  0
VERTEX
  8
0
 10
151.500000
 20
397.381880
 42
-0.001971
  0
VERTEX
  8
0
 10
155.397310
 20
398.715656
 42
-0.002913
  0
VERTEX
  8
0
 10
158.827637
 20
399.852308
 42
-0.001327
  0
VERTEX
  8
0
 10
161.759066
 20
400.796139
 42
-0.056305
  0
VERTEX
  8
0
 10
162.402593
 20
400.924139
 42
-0.760105
  0
VERTEX
  8
0
 10
162.461310
 20
400.765636
 42
-0.004890
  0
VERTEX
  8
0
 10
160.569114
 20
399.426415
 42
-0.007448
  0
VERTEX
  8
0
 10
158.057788
 20
397.740430
 42
-0.003930
  0
SEQEND
  0
POLYLINE
  8
0
 66
1
 70
1
  0
VERTEX
  8
0
 10
260.000000
 20
393.105335
 42
0.041937
  0
VERTEX
  8
0
 10
260.442487
 20
387.839055
 42
0.024828
  0
VERTEX
  8
0
 10
261.802616
 20
381.678566
 42
0.024895
  0
VERTEX
  8
0
 10
263.745278
 20
375.751369
 42
0.046420
  0
VERTEX
  8
0
 10
265.983356
 20
371.225830
 42
-0.009188
  0
VERTEX
  8
0
 10
266.755587
 20
369.918866
 42
-0.012171
  0
VERTEX
  8
0
 10
267.407086
 20
368.700235
 42
-0.009588
  0
VERTEX
  8
0
 10
267.902766
 20
367.667350
 42
-0.108099
  0
VERTEX
  8
0
 10
267.998212
 20
367.225830
 42
-0.217388
  0
VERTEX
  8
0
 10
267.812455
 20
366.821414
 42
-0.010792
  0
VERTEX
  8
0
 10
266.656465
 20
365.866322
 42
-0.015775
  0
VERTEX
  8
0
 10
265.181790
 20
364.774331
 42
-0.010596
  0
VERTEX
  8
0
 10
263.433074
 20
363.616967
 42
0.000000
  0
VERTEX
  8
0
 10
258.869725
 20
360.733934
 42
0.000000
  0
VERTEX
  8
0
 10
255.345570
 20
364.116967
 42
-0.046300
  0
VERTEX
  8
0
 10
252.308711
 20
367.626691
 42
-0.033274
  0
VERTEX
  8
0
 10
249.578932
 20
372.037037
 42
-0.030999
  0
VERTEX
  8
0
 10
247.269118
 20
377.130685
 42
-0.027245
  0
VERTEX
  8
0
 10
245.491668
 20
382.693298
 42
-0.016283
  0
VERTEX
  8
0
 10
244.176479
 20
388.513379
 42
-0.153504
  0
VERTEX
  8
0
 10
244.466692
 20
391.026894
 42
-0.159460
  0
VERTEX
  8
0
 10
246.140767
 20
392.875704
 42
-0.017952
  0
VERTEX
  8
0
 10
251.221788
 20
395.539051
 42
-0.003911
  0
VERTEX
  8
0
 10
254.045423
 20
396.865183
 42
-0.005737
  0
VERTEX
  8
0
 10
256.550776
 20
397.983346
 42
-0.002910
  0
VERTEX
  8
0
 10
258.685789
 20
398.892278
 42
-0.099493
  0
VERTEX
  8
0
 10
259.221788
 20
399.000000
 42
-0.358644
  0
VERTEX
  8
0
 10
259.529291
 20
398.746874
 42
-0.015531
  0
VERTEX
  8
0
 10
259.771400
 20
397.268442
 42
-0.020422
  0
VERTEX
  8
0
 10
259.943959
 20
395.365283
 42
-0.012397
  0
SEQEND
  0
POLYLINE
  8
0
 66
1
 70
1
  0
VERTEX
  8
0
 10
243.784944
 20
384.880960
 42
0.035429
  0
VERTEX
  8
0
 10
245.308907
 20
379.027485
 42
0.026123
  0
VERTEX
  8
0
 10
247.780029
 20
372.800138
 42
0.026554
  0
VERTEX
  8
0
 10
250.793133
 20
367.055895
 42
0.046120
  0
VERTEX
  8
0
 10
253.956229
 20
362.702633
 42
0.000000
  0
VERTEX
  8
0
 10
257.207184
 20
359.000000
 42
0.000000
  0
VERTEX
  8
0
 10
254.353592
 20
355.726362
 42
0.007701
  0
VERTEX
  8
0
 10
253.145335
 20
354.296372
 42
0.005988
  0
VERTEX
  8
0
 10
251.874140
 20
352.705527
 42
0.006058
  0
VERTEX
  8
0
 10
250.724519
 20
351.193532
 42
0.014567
  0
VERTEX
  8
0
 10
249.920076
 20
350.039690
 42
0.000000
  0
VERTEX
  8
0
 10
248.340152
 20
347.626656
 42
0.000000
  0
VERTEX
  8
0
 10
244.766711
 20
349.835163
 42
-0.065312
  0
VERTEX
  8
0
 10
238.849353
 20
354.659701
 42
-0.050149
  0
VERTEX
  8
0
 10
233.756753
 20
361.274109
 42
-0.049969
  0
VERTEX
  8
0
 10
230.064911
 20
368.799947
 42
-0.063426
  0
VERTEX
  8
0
 10
228.305258
 20
376.331276
 42
0.000000
  0
VERTEX
  8
0
 10
227.754408
 20
381.668498
 42
0.000000
  0
VERTEX
  8
0
 10
234.627204
 20
386.303336
 42
-0.003322
  0
VERTEX
  8
0
 10
237.302694
 20
388.081870
 42
-0.005073
  0
VERTEX
  8
0
 10
239.649580
 20
389.585771
 42
-0.001966
  0
VERTEX
  8
0
 10
241.677448
 20
390.845331
 42
-0.125154
  0
VERTEX
  8
0
 10
242.073495
 20
390.969087
 42
-0.342569
  0
VERTEX
  8
0
 10
242.339166
 20
390.784892
 42
-0.007613
  0
VERTEX
  8
0
 10
242.812799
 20
389.193451
 42
-0.013967
  0
VERTEX
  8
0
 10
243.307363
 20
387.224640
 42
-0.008576
  0
SEQEND
  0
POLYLINE
  8
0
 66
1
 70
1
  0
VERTEX
  8
0
 10
333.364952
 20
379.889017
 42
-0.091510
  0
VERTEX
  8
0
 10
338.615871
 20
377.401092
 42
-0.156706
  0
VERTEX
  8
0
 10
341.464384
 20
373.534440
 42
-0.148686
  0
VERTEX
  8
0
 10
341.607449
 20
368.573829
 42
-0.079806
  0
VERTEX
  8
0
 10
339.055870
 20
362.945781
 42
-0.006580
  0
VERTEX
  8
0
 10
335.181644
 20
357.259497
 42
-0.081552
  0
VERTEX
  8
0
 10
333.359322
 20
355.395107
 42
-0.490308
  0
VERTEX
  8
0
 10
332.395647
 20
355.669780
 42
-0.094745
  0
VERTEX
  8
0
 10
331.990231
 20
357.750000
 42
0.084280
  0
VERTEX
  8
0
 10
331.306840
 20
361.690612
 42
0.041484
  0
VERTEX
  8
0
 10
329.213406
 20
366.343382
 42
0.041419
  0
VERTEX
  8
0
 10
326.361269
 20
370.616894
 42
0.079176
  0
VERTEX
  8
0
 10
323.325827
 20
373.396740
 42
0.032196
  0
VERTEX
  8
0
 10
319.632069
 20
375.507147
 42
0.025130
  0
VERTEX
  8
0
 10
315.382701
 20
377.326159
 42
0.025597
  0
VERTEX
  8
0
 10
311.291211
 20
378.605413
 42
0.063046
  0
VERTEX
  8
0
 10
308.174273
 20
379.000000
 42
-0.110486
  0
VERTEX
  8
0
 10
306.671312
 20
379.336218
 42
-0.598352
  0
VERTEX
  8
0
 10
306.637997
 20
379.973601
 42
-0.083472
  0
VERTEX
  8
0
 10
308.739657
 20
380.808272
 42
-0.028318
  0
VERTEX
  8
0
 10
312.000000
 20
381.317262
 42
-0.026825
  0
VERTEX
  8
0
 10
316.949285
 20
381.538184
 42
-0.014431
  0
VERTEX
  8
0
 10
323.055388
 20
381.306715
 42
-0.014345
  0
VERTEX
  8
0
 10
329.001141
 20
380.737527
 42
-0.033972
  0
SEQEND
  0
POLYLINE
  8
0
 66
1
 70
1
  0
VERTEX
  8
0
 10
231.008762
 20
363.377422
 42
0.039352
  0
VERTEX
  8
0
 10
233.534210
 20
359.097638
 42
0.030634
  0
VERTEX
  8
0
 10
236.903309
 20
354.871312
 42
0.030233
  0
VERTEX
  8
0
 10
240.822419
 20
351.024518
 42
0.035046
  0
VERTEX
  8
0
 10
244.997163
 20
347.879912
 42
-0.026032
  0
VERTEX
  8
0
 10
246.519269
 20
346.775794
 42
-0.188762
  0
VERTEX
  8
0
 10
246.958525
 20
346.005134
 42
-0.136755
  0
VERTEX
  8
0
 10
246.831568
 20
345.010125
 42
-0.011560
  0
VERTEX
  8
0
 10
245.763342
 20
342.629912
 42
-0.028191
  0
VERTEX
  8
0
 10
244.785826
 20
340.846253
 42
-0.078419
  0
VERTEX
  8
0
 10
243.852696
 20
339.769849
 42
-0.102453
  0
VERTEX
  8
0
 10
242.793044
 20
339.196638
 42
-0.073047
  0
VERTEX
  8
0
 10
241.454253
 20
339.000000
 42
-0.118853
  0
VERTEX
  8
0
 10
235.707539
 20
340.385605
 42
-0.032565
  0
VERTEX
  8
0
 10
227.650185
 20
345.196828
 42
-0.033284
  0
VERTEX
  8
0
 10
219.653558
 20
351.531560
 42
-0.049613
  0
VERTEX
  8
0
 10
213.672846
 20
358.145596
 42
0.000000
  0
VERTEX
  8
0
 10
210.845692
 20
361.974554
 42
0.000000
  0
VERTEX
  8
0
 10
213.074973
 20
365.237277
 42
-0.021753
  0
VERTEX
  8
0
 10
214.302602
 20
366.876169
 42
-0.006679
  0
VERTEX
  8
0
 10
216.293777
 20
369.241350
 42
-0.006669
  0
VERTEX
  8
0
 10
218.595477
 20
371.831756
 42
-0.007261
  0
VERTEX
  8
0
 10
220.902127
 20
374.286466
 42
0.000000
  0
VERTEX
  8
0
 10
226.500000
 20
380.072932
 42
0.000000
  0
VERTEX
  8
0
 10
227.258830
 20
374.786466
 42
0.029376
  0
VERTEX
  8
0
 10
227.761203
 20
372.324659
 42
0.014381
  0
VERTEX
  8
0
 10
228.673390
 20
369.254392
 42
0.014214
  0
VERTEX
  8
0
 10
229.807723
 20
366.107688
 42
0.020009
  0
SEQEND
  0
POLYLINE
  8
0
 66
1
 70
1
  0
VERTEX
  8
0
 10
403.250020
 20
375.548105
 42
0.000000
  0
VERTEX
  8
0
 10
415.000041
 20
375.500000
 42
0.000000
  0
VERTEX
  8
0
 10
417.957557
 20
369.250000
 42
0.011907
  0
VERTEX
  8
0
 10
419.161500
 20
366.854982
 42
0.017986
  0
VERTEX
  8
0
 10
420.332524
 20
364.835938
 42
0.013006
  0
VERTEX
  8
0
 10
421.378850
 20
363.264923
 42
0.243983
  0
VERTEX
  8
0
 10
421.889443
 20
363.000000
 42
0.167852
  0
VERTEX
  8
0
 10
422.392240
 20
363.173685
 42
0.025530
  0
VERTEX
  8
0
 10
423.205096
 20
363.881250
 42
0.026197
  0
VERTEX
  8
0
 10
424.110717
 20
364.851212
 42
0.019990
  0
VERTEX
  8
0
 10
425.000000
 20
366.000000
 42
-0.023901
  0
VERTEX
  8
0
 10
426.904955
 20
368.421493
 42
-0.275153
  0
VERTEX
  8
0
 10
428.008395
 20
368.786446
 42
-0.278989
  0
VERTEX
  8
0
 10
428.843833
 20
367.989627
 42
-0.024391
  0
VERTEX
  8
0
 10
429.499115
 20
365.005240
 42
0.021981
  0
VERTEX
  8
0
 10
429.837853
 20
363.426236
 42
0.026732
  0
VERTEX
  8
0
 10
430.297464
 20
361.985123
 42
0.026919
  0
VERTEX
  8
0
 10
430.803218
 20
360.840340
 42
0.137709
  0
VERTEX
  8
0
 10
431.269154
 20
360.333654
 42
0.256364
  0
VERTEX
  8
0
 10
431.892201
 20
360.301441
 42
0.040871
  0
VERTEX
  8
0
 10
432.982803
 20
360.943313
 42
0.036666
  0
VERTEX
  8
0
 10
434.259166
 20
361.990216
 42
0.024438
  0
VERTEX
  8
0
 10
435.565014
 20
363.359527
 42
0.000000
  0
VERTEX
  8
0
 10
438.765744
 20
367.062226
 42
0.000000
  0
VERTEX
  8
0
 10
439.471632
 20
363.299523
 42
0.038200
  0
VERTEX
  8
0
 10
440.772038
 20
358.446516
 42
0.186404
  0
VERTEX
  8
0
 10
442.585555
 20
356.322688
 42
0.252485
  0
VERTEX
  8
0
 10
444.963720
 20
356.320693
 42
0.067651
  0
VERTEX
  8
0
 10
448.127120
 20
358.621789
 42
0.000000
  0
VERTEX
  8
0
 10
450.863678
 20
361.243578
 42
0.000000
  0
VERTEX
  8
0
 10
451.560066
 20
357.371789
 42
0.011415
  0
VERTEX
  8
0
 10
451.883368
 20
355.783325
 42
0.011434
  0
VERTEX
  8
0
 10
452.278677
 20
354.212141
 42
0.011322
  0
VERTEX
  8
0
 10
452.685629
 20
352.858276
 42
0.043865
  0
VERTEX
  8
0
 10
453.028494
 20
352.052521
 42
-0.208599
  0
VERTEX
  8
0
 10
453.128636
 20
350.782460
 42
-0.041643
  0
VERTEX
  8
0
 10
452.188438
 20
348.653419
 42
-0.033031
  0
VERTEX
  8
0
 10
450.463601
 20
345.933358
 42
-0.015486
  0
VERTEX
  8
0
 10
447.900345
 20
342.645175
 42
-0.514941
  0
VERTEX
  8
0
 10
447.545917
 20
342.671226
 42
-0.038581
  0
VERTEX
  8
0
 10
447.030459
 20
343.687872
 42
-0.028567
  0
VERTEX
  8
0
 10
446.467812
 20
345.304095
 42
-0.014432
  0
VERTEX
  8
0
 10
445.936045
 20
347.395175
 42
0.030889
  0
VERTEX
  8
0
 10
444.720606
 20
351.591615
 42
0.271260
  0
VERTEX
  8
0
 10
443.295863
 20
352.785206
 42
0.231225
  0
VERTEX
  8
0
 10
441.374652
 20
352.218392
 42
0.023517
  0
VERTEX
  8
0
 10
437.926883
 20
348.750000
 42
0.000000
  0
VERTEX
  8
0
 10
434.082026
 20
344.500000
 42
0.000000
  0
VERTEX
  8
0
 10
434.041013
 20
350.750000
 42
0.016960
  0
VERTEX
  8
0
 10
433.859146
 20
355.240527
 42
0.217480
  0
VERTEX
  8
0
 10
433.068506
 20
356.678592
 42
0.277461
  0
VERTEX
  8
0
 10
431.601802
 20
356.823553
 42
0.026194
  0
VERTEX
  8
0
 10
428.286292
 20
355.033031
 42
-0.021178
  0
VERTEX
  8
0
 10
426.017742
 20
353.778378
 42
-0.240162
  0
VERTEX
  8
0
 10
425.023237
 20
353.786886
 42
-0.201681
  0
VERTEX
  8
0
 10
424.341760
 20
354.607849
 42
-0.014816
  0
VERTEX
  8
0
 10
423.557864
 20
357.494406
 42
0.069895
  0
VERTEX
  8
0
 10
422.196325
 20
360.952296
 42
0.236111
  0
VERTEX
  8
0
 10
420.239913
 20
362.269033
 42
0.158430
  0
VERTEX
  8
0
 10
417.390536
 20
361.734096
 42
0.029746
  0
VERTEX
  8
0
 10
412.834147
 20
358.881902
 42
-0.066563
  0
VERTEX
  8
0
 10
410.586527
 20
357.695016
 42
-0.203070
  0
VERTEX
  8
0
 10
408.898682
 20
357.775717
 42
-0.073040
  0
VERTEX
  8
0
 10
406.783414
 20
359.205190
 42
-0.004161
  0
VERTEX
  8
0
 10
401.000000
 20
364.576119
 42
0.007481
  0
VERTEX
  8
0
 10
398.529932
 20
366.839664
 42
0.005043
  0
VERTEX
  8
0
 10
395.646875
 20
369.351770
 42
0.005080
  0
VERTEX
  8
0
 10
392.808365
 20
371.725706
 42
0.010051
  0
VERTEX
  8
0
 10
390.500000
 20
373.540450
 42
-0.003303
  0
VERTEX
  8
0
 10
387.604676
 20
375.754071
 42
-0.077610
  0
VERTEX
  8
0
 10
386.898834
 20
376.501884
 42
-0.658584
  0
VERTEX
  8
0
 10
387.068387
 20
376.770444
 42
-0.030328
  0
VERTEX
  8
0
 10
388.500000
 20
376.453672
 42
0.047422
  0
VERTEX
  8
0
 10
390.316237
 20
376.116365
 42
0.006884
  0
VERTEX
  8
0
 10
394.070318
 20
375.833958
 42
0.007744
  0
VERTEX
  8
0
 10
398.531387
 20
375.629362
 42
0.006563
  0
SEQEND
  0
POLYLINE
  8
0
 66
1
 70
1
  0
VERTEX
  8
0
 10
424.773634
 20
372.161063
 42
-0.095824
  0
VERTEX
  8
0
 10
425.284820
 20
371.678531
 42
-0.216879
  0
VERTEX
  8
0
 10
425.386162
 20
371.168162
 42
-0.125704
  0
VERTEX
  8
0
 10
425.062620
 20
370.548549
 42
-0.025984
  0
VERTEX
  8
0
 10
424.187286
 20
369.669492
 42
-0.022422
  0
VERTEX
  8
0
 10
423.024321
 20
368.708231
 42
-0.232468
  0
VERTEX
  8
0
 10
422.431552
 20
368.594802
 42
-0.204446
  0
VERTEX
  8
0
 10
421.933219
 20
368.990490
 42
-0.017214
  0
VERTEX
  8
0
 10
421.185091
 20
370.493115
 42
-0.016091
  0
VERTEX
  8
0
 10
420.597664
 20
371.900738
 42
-0.149676
  0
VERTEX
  8
0
 10
420.554717
 20
372.550309
 42
-0.285541
  0
VERTEX
  8
0
 10
420.894361
 20
372.888593
 42
-0.059061
  0
VERTEX
  8
0
 10
421.771439
 20
372.984687
 42
-0.038390
  0
VERTEX
  8
0
 10
422.526369
 20
372.919907
 42
-0.026359
  0
VERTEX
  8
0
 10
423.366365
 20
372.736431
 42
-0.026652
  0
VERTEX
  8
0
 10
424.161132
 20
372.472133
 42
-0.047830
  0
SEQEND
  0
POLYLINE
  8
0
 66
1
 70
1
  0
VERTEX
  8
0
 10
435.329541
 20
371.138728
 42
-0.037852
  0
VERTEX
  8
0
 10
436.368960
 20
370.635444
 42
-0.281702
  0
VERTEX
  8
0
 10
436.618698
 20
370.172853
 42
-0.148494
  0
VERTEX
  8
0
 10
436.384241
 20
369.528506
 42
-0.009867
  0
VERTEX
  8
0
 10
435.157219
 20
367.959013
 42
0.000000
  0
VERTEX
  8
0
 10
433.155357
 20
365.500000
 42
0.000000
  0
VERTEX
  8
0
 10
432.077678
 20
368.315100
 42
-0.004781
  0
VERTEX
  8
0
 10
431.664864
 20
369.425121
 42
-0.006576
  0
VERTEX
  8
0
 10
431.316568
 20
370.431016
 42
-0.004373
  0
VERTEX
  8
0
 10
431.043672
 20
371.278749
 42
-0.075817
  0
VERTEX
  8
0
 10
431.000000
 20
371.565100
 42
-0.385746
  0
VERTEX
  8
0
 10
431.304493
 20
371.901052
 42
-0.049121
  0
VERTEX
  8
0
 10
432.368191
 20
371.901052
 42
-0.040349
  0
VERTEX
  8
0
 10
433.792381
 20
371.643633
 42
-0.028955
  0
SEQEND
  0
POLYLINE
  8
0
 66
1
 70
1
  0
VERTEX
  8
0
 10
448.352225
 20
367.027012
 42
-0.240644
  0
VERTEX
  8
0
 10
448.529516
 20
366.501576
 42
-0.050775
  0
VERTEX
  8
0
 10
448.284010
 20
365.533433
 42
-0.042744
  0
VERTEX
  8
0
 10
447.734895
 20
364.352516
 42
-0.028996
  0
VERTEX
  8
0
 10
446.923260
 20
363.110074
 42
-0.015373
  0
VERTEX
  8
0
 10
446.016346
 20
361.959169
 42
-0.026102
  0
VERTEX
  8
0
 10
445.180551
 20
361.062574
 42
-0.024801
  0
VERTEX
  8
0
 10
444.486702
 20
360.455619
 42
-0.380548
  0
VERTEX
  8
0
 10
444.194009
 20
360.472657
 42
-0.124923
  0
VERTEX
  8
0
 10
443.985022
 20
360.823812
 42
-0.007765
  0
VERTEX
  8
0
 10
443.656368
 20
361.998745
 42
-0.011104
  0
VERTEX
  8
0
 10
443.314009
 20
363.428584
 42
-0.007986
  0
VERTEX
  8
0
 10
442.992931
 20
365.038660
 42
-0.007598
  0
VERTEX
  8
0
 10
442.539382
 20
367.751236
 42
-0.163037
  0
VERTEX
  8
0
 10
442.677114
 20
368.540548
 42
-0.312039
  0
VERTEX
  8
0
 10
443.228679
 20
368.820640
 42
-0.026732
  0
VERTEX
  8
0
 10
444.869956
 20
368.507538
 42
-0.019930
  0
VERTEX
  8
0
 10
445.939330
 20
368.197941
 42
-0.020089
  0
VERTEX
  8
0
 10
446.977766
 20
367.804895
 42
-0.020372
  0
VERTEX
  8
0
 10
447.852112
 20
367.390333
 42
-0.072522
  0
SEQEND
  0
POLYLINE
  8
0
 66
1
 70
1
  0
VERTEX
  8
0
 10
459.850838
 20
364.379832
 42
0.000000
  0
VERTEX
  8
0
 10
462.951676
 20
363.759665
 42
0.000000
  0
VERTEX
  8
0
 10
459.761040
 20
359.316784
 42
-0.008400
  0
VERTEX
  8
0
 10
457.957387
 20
356.892273
 42
-0.080618
  0
VERTEX
  8
0
 10
457.021795
 20
356.014529
 42
-0.308600
  0
VERTEX
  8
0
 10
456.386104
 20
356.018366
 42
-0.148708
  0
VERTEX
  8
0
 10
455.855487
 20
356.686951
 42
-0.061802
  0
VERTEX
  8
0
 10
455.275261
 20
358.939091
 42
-0.032774
  0
VERTEX
  8
0
 10
455.093025
 20
361.819754
 42
-0.026626
  0
VERTEX
  8
0
 10
455.238211
 20
364.428994
 42
-0.382687
  0
VERTEX
  8
0
 10
455.875000
 20
365.000000
 42
-0.033557
  0
VERTEX
  8
0
 10
456.388882
 20
364.965472
 42
-0.005140
  0
VERTEX
  8
0
 10
457.403840
 20
364.817826
 42
-0.005726
  0
VERTEX
  8
0
 10
458.599493
 20
364.617272
 42
-0.004939
  0
SEQEND
  0
POLYLINE
  8
0
 66
1
 70
1
  0
VERTEX
  8
0
 10
472.382233
 20
360.871704
 42
0.000000
  0
VERTEX
  8
0
 10
474.858573
 20
359.743409
 42
0.000000
  0
VERTEX
  8
0
 10
472.296400
 20
355.871704
 42
-0.014510
  0
VERTEX
  8
0
 10
471.251780
 20
354.388552
 42
-0.020562
  0
VERTEX
  8
0
 10
470.232151
 20
353.137313
 42
-0.017243
  0
VERTEX
  8
0
 10
469.333937
 20
352.191060
 42
-0.196719
  0
VERTEX
  8
0
 10
468.867114
 20
352.000000
 42
-0.336750
  0
VERTEX
  8
0
 10
468.527515
 20
352.257974
 42
-0.024953
  0
VERTEX
  8
0
 10
468.254715
 20
353.468750
 42
-0.026627
  0
VERTEX
  8
0
 10
468.062537
 20
355.083276
 42
-0.016309
  0
VERTEX
  8
0
 10
468.000000
 20
357.000000
 42
-0.017690
  0
VERTEX
  8
0
 10
468.120355
 20
360.400647
 42
-0.196580
  0
VERTEX
  8
0
 10
468.710058
 20
361.593998
 42
-0.262579
  0
VERTEX
  8
0
 10
469.856344
 20
361.838393
 42
-0.031016
  0
SEQEND
  0
POLYLINE
  8
0
 66
1
 70
1
  0
VERTEX
  8
0
 10
231.500000
 20
340.758212
 42
0.013111
  0
VERTEX
  8
0
 10
233.659141
 20
339.743548
 42
0.010790
  0
VERTEX
  8
0
 10
236.012565
 20
338.772004
 42
0.010940
  0
VERTEX
  8
0
 10
238.213409
 20
337.973488
 42
0.028297
  0
VERTEX
  8
0
 10
239.840647
 20
337.523846
 42
-0.021849
  0
VERTEX
  8
0
 10
241.639271
 20
337.051709
 42
-0.129837
  0
VERTEX
  8
0
 10
242.455968
 20
336.541240
 42
-0.199806
  0
VERTEX
  8
0
 10
242.729405
 20
335.813731
 42
-0.063968
  0
VERTEX
  8
0
 10
242.538529
 20
334.650635
 42
0.015522
  0
VERTEX
  8
0
 10
242.252159
 20
333.571453
 42
0.005857
  0
VERTEX
  8
0
 10
241.916477
 20
332.046173
 42
0.005795
  0
VERTEX
  8
0
 10
241.589692
 20
330.376931
 42
0.007027
  0
VERTEX
  8
0
 10
241.323512
 20
328.804421
 42
-0.026234
  0
VERTEX
  8
0
 10
240.913343
 20
326.842369
 42
-0.104204
  0
VERTEX
  8
0
 10
240.363143
 20
325.748949
 42
-0.136780
  0
VERTEX
  8
0
 10
239.506241
 20
325.130622
 42
-0.059077
  0
VERTEX
  8
0
 10
238.125630
 20
324.799815
 42
-0.081089
  0
VERTEX
  8
0
 10
231.075424
 20
325.114932
 42
-0.030958
  0
VERTEX
  8
0
 10
221.569733
 20
327.729196
 42
-0.031173
  0
VERTEX
  8
0
 10
212.310759
 20
331.563382
 42
-0.067827
  0
VERTEX
  8
0
 10
205.934282
 20
335.836270
 42
0.000000
  0
VERTEX
  8
0
 10
201.703376
 20
339.590871
 42
0.000000
  0
VERTEX
  8
0
 10
203.489966
 20
345.045435
 42
-0.010743
  0
VERTEX
  8
0
 10
204.342989
 20
347.472219
 42
-0.006805
  0
VERTEX
  8
0
 10
205.436084
 20
350.264684
 42
-0.006833
  0
VERTEX
  8
0
 10
206.585029
 20
352.979275
 42
-0.012525
  0
VERTEX
  8
0
 10
207.606218
 20
355.153489
 42
0.000000
  0
VERTEX
  8
0
 10
209.935880
 20
359.806977
 42
0.000000
  0
VERTEX
  8
0
 10
218.217940
 20
351.538490
 42
0.013165
  0
VERTEX
  8
0
 10
221.763604
 20
348.180305
 42
0.012531
  0
VERTEX
  8
0
 10
225.538761
 20
344.956006
 42
0.012641
  0
VERTEX
  8
0
 10
229.022266
 20
342.271822
 42
0.041450
  0
SEQEND
  0
POLYLINE
  8
0
 66
1
 70
1
  0
VERTEX
  8
0
 10
361.627463
 20
356.593008
 42
-0.011960
  0
VERTEX
  8
0
 10
366.075631
 20
354.390906
 42
-0.143639
  0
VERTEX
  8
0
 10
367.436402
 20
353.074230
 42
-0.589799
  0
VERTEX
  8
0
 10
367.007087
 20
352.372791
 42
-0.033223
  0
VERTEX
  8
0
 10
363.823594
 20
352.726414
 42
0.031342
  0
VERTEX
  8
0
 10
359.112755
 20
353.267626
 42
0.013063
  0
VERTEX
  8
0
 10
352.714324
 20
353.431446
 42
0.012896
  0
VERTEX
  8
0
 10
346.388585
 20
353.264939
 42
0.036301
  0
VERTEX
  8
0
 10
342.000000
 20
352.714933
 42
0.000000
  0
VERTEX
  8
0
 10
338.500000
 20
352.015473
 42
0.000000
  0
VERTEX
  8
0
 10
341.000000
 20
354.070904
 42
-0.057106
  0
VERTEX
  8
0
 10
345.928753
 20
357.258161
 42
-0.084771
  0
VERTEX
  8
0
 10
350.843507
 20
358.729084
 42
-0.084151
  0
VERTEX
  8
0
 10
355.994590
 20
358.490725
 42
-0.055462
  0
SEQEND
  0
POLYLINE
  8
0
 66
1
 70
1
  0
VERTEX
  8
0
 10
420.000000
 20
357.081787
 42
0.046750
  0
VERTEX
  8
0
 10
420.043917
 20
356.613114
 42
0.014708
  0
VERTEX
  8
0
 10
420.195175
 20
355.924682
 42
0.014550
  0
VERTEX
  8
0
 10
420.410084
 20
355.162376
 42
0.015632
  0
VERTEX
  8
0
 10
420.664425
 20
354.432111
 42
-0.053296
  0
VERTEX
  8
0
 10
420.904354
 20
353.529892
 42
-0.338471
  0
VERTEX
  8
0
 10
420.691420
 20
353.139482
 42
-0.154203
  0
VERTEX
  8
0
 10
420.050601
 20
353.066919
 42
-0.013167
  0
VERTEX
  8
0
 10
418.416475
 20
353.431608
 42
-0.014725
  0
VERTEX
  8
0
 10
415.886865
 20
354.146298
 42
-0.178426
  0
VERTEX
  8
0
 10
415.101228
 20
354.753442
 42
-0.344286
  0
VERTEX
  8
0
 10
415.176216
 20
355.475897
 42
-0.043239
  0
VERTEX
  8
0
 10
416.442702
 20
356.581761
 42
-0.028091
  0
VERTEX
  8
0
 10
417.952372
 20
357.560533
 42
-0.095132
  0
VERTEX
  8
0
 10
419.058723
 20
357.938673
 42
-0.225517
  0
VERTEX
  8
0
 10
419.715927
 20
357.732517
 42
-0.208760
  0
SEQEND
  0
POLYLINE
  8
0
 66
1
 70
1
  0
VERTEX
  8
0
 10
464.272100
 20
350.000000
 42
-0.047972
  0
VERTEX
  8
0
 10
463.414300
 20
346.035733
 42
-0.047270
  0
VERTEX
  8
0
 10
461.814075
 20
342.286840
 42
-0.071072
  0
VERTEX
  8
0
 10
460.114561
 20
340.003337
 42
-0.484998
  0
VERTEX
  8
0
 10
458.912845
 20
340.141019
 42
-0.054905
  0
VERTEX
  8
0
 10
458.557633
 20
340.888015
 42
-0.013916
  0
VERTEX
  8
0
 10
458.151844
 20
342.170947
 42
-0.014024
  0
VERTEX
  8
0
 10
457.767957
 20
343.671459
 42
-0.013763
  0
VERTEX
  8
0
 10
457.466125
 20
345.200504
 42
-0.040697
  0
VERTEX
  8
0
 10
457.278647
 20
347.374623
 42
-0.078727
  0
VERTEX
  8
0
 10
457.543049
 20
349.095397
 42
-0.061393
  0
VERTEX
  8
0
 10
458.381954
 20
350.913912
 42
-0.016988
  0
VERTEX
  8
0
 10
460.131807
 20
353.534008
 42
-0.008320
  0
VERTEX
  8
0
 10
461.977810
 20
356.016278
 42
-0.076558
  0
VERTEX
  8
0
 10
462.945980
 20
356.939979
 42
-0.301646
  0
VERTEX
  8
0
 10
463.591519
 20
356.954923
 42
-0.162965
  0
VERTEX
  8
0
 10
464.115822
 20
356.313049
 42
-0.066412
  0
VERTEX
  8
0
 10
464.346899
 20
355.322580
 42
-0.017958
  0
VERTEX
  8
0
 10
464.444797
 20
353.710708
 42
-0.017849
  0
VERTEX
  8
0
 10
464.424493
 20
351.855801
 42
-0.017648
  0
SEQEND
  0
POLYLINE
  8
0
 66
1
 70
1
  0
VERTEX
  8
0
 10
430.821079
 20
347.982110
 42
-0.027743
  0
VERTEX
  8
0
 10
430.562936
 20
346.779783
 42
-0.301108
  0
VERTEX
  8
0
 10
430.207666
 20
346.468885
 42
-0.178513
  0
VERTEX
  8
0
 10
429.635094
 20
346.596540
 42
-0.010311
  0
VERTEX
  8
0
 10
428.120083
 20
347.618153
 42
0.000000
  0
VERTEX
  8
0
 10
425.740165
 20
349.295403
 42
0.000000
  0
VERTEX
  8
0
 10
428.120083
 20
351.103117
 42
-0.059031
  0
VERTEX
  8
0
 10
429.755375
 20
352.064943
 42
-0.328940
  0
VERTEX
  8
0
 10
430.689405
 20
351.854277
 42
-0.193459
  0
VERTEX
  8
0
 10
431.099460
 20
350.661730
 42
-0.026258
  0
SEQEND
  0
POLYLINE
  8
0
 66
1
 70
1
  0
VERTEX
  8
0
 10
443.355460
 20
342.186517
 42
-0.011581
  0
VERTEX
  8
0
 10
443.685151
 20
340.166629
 42
-0.174299
  0
VERTEX
  8
0
 10
443.541368
 20
339.480251
 42
-0.304843
  0
VERTEX
  8
0
 10
443.039716
 20
339.251770
 42
-0.033119
  0
VERTEX
  8
0
 10
441.737697
 20
339.557480
 42
-0.016605
  0
VERTEX
  8
0
 10
438.741902
 20
340.583751
 42
-0.178205
  0
VERTEX
  8
0
 10
437.789204
 20
341.412537
 42
-0.261770
  0
VERTEX
  8
0
 10
437.799775
 20
342.478392
 42
-0.036153
  0
VERTEX
  8
0
 10
439.087505
 20
344.384115
 42
-0.043751
  0
VERTEX
  8
0
 10
440.714149
 20
346.116380
 42
-0.310675
  0
VERTEX
  8
0
 10
441.797618
 20
346.254661
 42
-0.207558
  0
VERTEX
  8
0
 10
442.641742
 20
345.223501
 42
-0.022936
  0
SEQEND
  0
POLYLINE
  8
0
 66
1
 70
1
  0
VERTEX
  8
0
 10
454.961050
 20
340.135811
 42
-0.043467
  0
VERTEX
  8
0
 10
455.360002
 20
338.088132
 42
-0.264078
  0
VERTEX
  8
0
 10
454.944737
 20
337.134845
 42
-0.223468
  0
VERTEX
  8
0
 10
453.837804
 20
336.905970
 42
-0.032659
  0
VERTEX
  8
0
 10
451.587220
 20
337.604904
 42
-0.071678
  0
VERTEX
  8
0
 10
450.787918
 20
338.051496
 42
-0.242462
  0
VERTEX
  8
0
 10
450.539719
 20
338.575407
 42
-0.113684
  0
VERTEX
  8
0
 10
450.751637
 20
339.372928
 42
-0.011863
  0
VERTEX
  8
0
 10
451.702866
 20
341.074138
 42
-0.011820
  0
VERTEX
  8
0
 10
453.030022
 20
343.204204
 42
-0.328717
  0
VERTEX
  8
0
 10
453.610116
 20
343.419100
 42
-0.249860
  0
VERTEX
  8
0
 10
454.110312
 20
342.933983
 42
-0.007927
  0
SEQEND
  0
POLYLINE
  8
0
 66
1
 70
1
  0
VERTEX
  8
0
 10
465.900320
 20
334.343620
 42
-0.182362
  0
VERTEX
  8
0
 10
465.783083
 20
333.927742
 42
-0.154601
  0
VERTEX
  8
0
 10
465.411675
 20
333.657801
 42
-0.098218
  0
VERTEX
  8
0
 10
464.794636
 20
333.579697
 42
-0.046503
  0
VERTEX
  8
0
 10
464.000000
 20
333.710251
 42
-0.022061
  0
VERTEX
  8
0
 10
462.520771
 20
334.167656
 42
-0.263652
  0
VERTEX
  8
0
 10
462.144518
 20
334.604322
 42
-0.150489
  0
VERTEX
  8
0
 10
462.216920
 20
335.304154
 42
-0.006425
  0
VERTEX
  8
0
 10
463.228637
 20
337.602459
 42
0.000000
  0
VERTEX
  8
0
 10
464.457274
 20
340.299023
 42
0.000000
  0
VERTEX
  8
0
 10
465.128957
 20
337.899512
 42
-0.007633
  0
VERTEX
  8
0
 10
465.393407
 20
336.896028
 42
-0.007198
  0
VERTEX
  8
0
 10
465.632614
 20
335.865170
 42
-0.007179
  0
VERTEX
  8
0
 10
465.818227
 20
334.946008
 42
-0.024733
  0
SEQEND
  0
POLYLINE
  8
0
 66
1
 70
1
  0
VERTEX
  8
0
 10
215.669353
 20
328.396985
 42
0.023035
  0
VERTEX
  8
0
 10
220.900328
 20
326.352194
 42
0.017958
  0
VERTEX
  8
0
 10
226.748605
 20
324.602767
 42
0.018194
  0
VERTEX
  8
0
 10
232.279369
 20
323.375462
 42
0.045527
  0
VERTEX
  8
0
 10
236.394345
 20
323.000000
 42
0.000000
  0
VERTEX
  8
0
 10
240.000000
 20
323.000000
 42
0.000000
  0
VERTEX
  8
0
 10
240.000000
 20
318.077552
 42
-0.014471
  0
VERTEX
  8
0
 10
239.910486
 20
314.985260
 42
-0.121001
  0
VERTEX
  8
0
 10
239.501854
 20
313.658200
 42
-0.152264
  0
VERTEX
  8
0
 10
238.558675
 20
312.815744
 42
-0.027024
  0
VERTEX
  8
0
 10
236.326437
 20
311.942719
 42
-0.092321
  0
VERTEX
  8
0
 10
229.209251
 20
310.978522
 42
-0.032353
  0
VERTEX
  8
0
 10
218.913469
 20
312.158907
 42
-0.032676
  0
VERTEX
  8
0
 10
208.705225
 20
314.702105
 42
-0.077476
  0
VERTEX
  8
0
 10
201.721992
 20
318.197959
 42
-0.032872
  0
VERTEX
  8
0
 10
200.192241
 20
319.446426
 42
-0.107997
  0
VERTEX
  8
0
 10
199.454541
 20
320.512275
 42
-0.104353
  0
VERTEX
  8
0
 10
199.215333
 20
321.809810
 42
-0.029574
  0
VERTEX
  8
0
 10
199.390121
 20
323.866650
 42
0.002415
  0
VERTEX
  8
0
 10
199.635965
 20
325.622944
 42
0.001057
  0
VERTEX
  8
0
 10
199.945787
 20
327.954093
 42
0.001046
  0
VERTEX
  8
0
 10
200.264326
 20
330.430503
 42
0.001398
  0
VERTEX
  8
0
 10
200.542411
 20
332.679200
 42
0.000000
  0
VERTEX
  8
0
 10
201.168201
 20
337.858399
 42
0.000000
  0
VERTEX
  8
0
 10
205.834100
 20
334.277909
 42
0.017953
  0
VERTEX
  8
0
 10
207.995254
 20
332.739518
 42
0.010955
  0
VERTEX
  8
0
 10
210.647890
 20
331.073435
 42
0.010975
  0
VERTEX
  8
0
 10
213.352378
 20
329.535860
 42
0.019079
  0
SEQEND
  0
POLYLINE
  8
0
 66
1
 70
1
  0
VERTEX
  8
0
 10
473.533201
 20
332.276261
 42
-0.025885
  0
VERTEX
  8
0
 10
473.174597
 20
331.107324
 42
-0.129641
  0
VERTEX
  8
0
 10
472.787110
 20
330.549675
 42
-0.265225
  0
VERTEX
  8
0
 10
472.337015
 20
330.464432
 42
-0.114004
  0
VERTEX
  8
0
 10
471.800279
 20
330.799721
 42
-0.123010
  0
VERTEX
  8
0
 10
471.381282
 20
331.497752
 42
-0.090464
  0
VERTEX
  8
0
 10
471.276993
 20
332.397593
 42
-0.060211
  0
VERTEX
  8
0
 10
471.500016
 20
333.587163
 42
-0.022168
  0
VERTEX
  8
0
 10
472.086572
 20
335.194365
 42
-0.010778
  0
VERTEX
  8
0
 10
472.796958
 20
336.803150
 42
-0.107344
  0
VERTEX
  8
0
 10
473.241048
 20
337.385818
 42
-0.465885
  0
VERTEX
  8
0
 10
473.568997
 20
337.330776
 42
-0.085069
  0
VERTEX
  8
0
 10
473.819494
 20
336.670905
 42
-0.044453
  0
VERTEX
  8
0
 10
473.911802
 20
335.788536
 42
-0.020113
  0
VERTEX
  8
0
 10
473.882913
 20
334.625477
 42
-0.019728
  0
VERTEX
  8
0
 10
473.753591
 20
333.392511
 42
-0.025493
  0
SEQEND
  0
POLYLINE
  8
0
 66
1
 70
1
  0
VERTEX
  8
0
 10
204.159980
 20
315.534150
 42
0.040918
  0
VERTEX
  8
0
 10
209.652047
 20
313.029525
 42
0.034433
  0
VERTEX
  8
0
 10
215.803557
 20
311.278995
 42
0.032943
  0
VERTEX
  8
0
 10
222.421047
 20
310.329292
 42
0.030169
  0
VERTEX
  8
0
 10
229.305013
 20
310.216665
 42
0.007428
  0
VERTEX
  8
0
 10
232.554182
 20
310.407994
 42
0.009509
  0
VERTEX
  8
0
 10
235.538305
 20
310.685392
 42
0.007690
  0
VERTEX
  8
0
 10
238.017445
 20
311.002173
 42
0.076525
  0
VERTEX
  8
0
 10
239.016875
 20
311.306109
 42
-0.219259
  0
VERTEX
  8
0
 10
239.837509
 20
311.319479
 42
-0.152136
  0
VERTEX
  8
0
 10
240.547261
 20
310.700296
 42
-0.059788
  0
VERTEX
  8
0
 10
241.243443
 20
309.190499
 42
-0.011203
  0
VERTEX
  8
0
 10
242.116381
 20
306.267531
 42
0.004049
  0
VERTEX
  8
0
 10
242.778006
 20
303.930707
 42
0.004455
  0
VERTEX
  8
0
 10
243.457233
 20
301.678565
 42
0.004160
  0
VERTEX
  8
0
 10
244.070581
 20
299.764780
 42
0.022480
  0
VERTEX
  8
0
 10
244.458565
 20
298.744605
 42
-0.172052
  0
VERTEX
  8
0
 10
244.527198
 20
297.730934
 42
-0.145418
  0
VERTEX
  8
0
 10
243.951674
 20
296.816972
 42
-0.061871
  0
VERTEX
  8
0
 10
242.472616
 20
295.812832
 42
-0.010878
  0
VERTEX
  8
0
 10
239.442424
 20
294.345010
 42
-0.052249
  0
VERTEX
  8
0
 10
231.532984
 20
291.680559
 42
-0.056638
  0
VERTEX
  8
0
 10
223.457203
 20
290.810107
 42
-0.055809
  0
VERTEX
  8
0
 10
215.289393
 20
291.772494
 42
-0.048299
  0
VERTEX
  8
0
 10
207.107946
 20
294.532044
 42
-0.013562
  0
VERTEX
  8
0
 10
203.849073
 20
296.102062
 42
-0.064039
  0
VERTEX
  8
0
 10
202.144788
 20
297.278011
 42
-0.101699
  0
VERTEX
  8
0
 10
201.193510
 20
298.565831
 42
-0.065356
  0
VERTEX
  8
0
 10
200.637455
 20
300.344582
 42
-0.015833
  0
VERTEX
  8
0
 10
199.963570
 20
305.099173
 42
-0.007605
  0
VERTEX
  8
0
 10
199.385743
 20
311.233149
 42
-0.001660
  0
VERTEX
  8
0
 10
198.902390
 20
317.631937
 42
-0.435485
  0
VERTEX
  8
0
 10
199.244837
 20
318.000000
 42
-0.113284
  0
VERTEX
  8
0
 10
199.586110
 20
317.921673
 42
-0.003446
  0
VERTEX
  8
0
 10
200.896254
 20
317.275657
 42
-0.006642
  0
VERTEX
  8
0
 10
202.432963
 20
316.478991
 42
-0.004525
  0
SEQEND
  0
POLYLINE
  8
0
 66
1
 70
1
  0
VERTEX
  8
0
 10
206.789838
 20
293.115742
 42
0.027651
  0
VERTEX
  8
0
 10
208.629449
 20
292.306041
 42
0.011928
  0
VERTEX
  8
0
 10
211.159540
 20
291.423883
 42
0.011761
  0
VERTEX
  8
0
 10
213.903606
 20
290.610662
 42
0.015260
  0
VERTEX
  8
0
 10
216.455406
 20
290.002202
 42
0.041564
  0
VERTEX
  8
0
 10
222.878337
 20
289.224631
 42
0.049144
  0
VERTEX
  8
0
 10
228.982771
 20
289.596324
 42
0.041139
  0
VERTEX
  8
0
 10
235.712536
 20
291.252163
 42
0.018921
  0
VERTEX
  8
0
 10
244.163741
 20
294.446001
 42
-0.147556
  0
VERTEX
  8
0
 10
245.087081
 20
294.544396
 42
-0.110776
  0
VERTEX
  8
0
 10
246.030577
 20
294.137140
 42
-0.065902
  0
VERTEX
  8
0
 10
247.087002
 20
293.133558
 42
-0.020649
  0
VERTEX
  8
0
 10
248.390115
 20
291.376522
 42
-0.011620
  0
VERTEX
  8
0
 10
249.880484
 20
289.069698
 42
-0.095963
  0
VERTEX
  8
0
 10
250.317189
 20
287.906066
 42
-0.170379
  0
VERTEX
  8
0
 10
250.155782
 20
286.964802
 42
-0.057117
  0
VERTEX
  8
0
 10
249.331726
 20
285.814060
 42
-0.074499
  0
VERTEX
  8
0
 10
243.657631
 20
281.164236
 42
-0.044512
  0
VERTEX
  8
0
 10
235.781675
 20
277.371173
 42
-0.042491
  0
VERTEX
  8
0
 10
226.839081
 20
274.848766
 42
-0.047534
  0
VERTEX
  8
0
 10
217.931229
 20
274.000000
 42
0.000000
  0
VERTEX
  8
0
 10
210.040648
 20
274.000000
 42
0.000000
  0
VERTEX
  8
0
 10
207.897000
 20
278.201897
 42
-0.020634
  0
VERTEX
  8
0
 10
206.164197
 20
281.975392
 42
-0.008796
  0
VERTEX
  8
0
 10
204.145760
 20
287.154368
 42
-0.005551
  0
VERTEX
  8
0
 10
202.312958
 20
292.287652
 42
-0.083149
  0
VERTEX
  8
0
 10
202.000000
 20
294.156550
 42
-0.213390
  0
VERTEX
  8
0
 10
202.256134
 20
294.729376
 42
-0.240433
  0
VERTEX
  8
0
 10
202.834573
 20
294.881978
 42
-0.058082
  0
VERTEX
  8
0
 10
204.054228
 20
294.464213
 42
-0.005971
  0
SEQEND
  0
POLYLINE
  8
0
 66
1
 70
1
  0
VERTEX
  8
0
 10
259.000000
 20
277.359068
 42
-0.169589
  0
VERTEX
  8
0
 10
258.733975
 20
276.597302
 42
-0.006965
  0
VERTEX
  8
0
 10
256.870313
 20
274.320249
 42
-0.011447
  0
VERTEX
  8
0
 10
254.527926
 20
271.664130
 42
-0.007801
  0
VERTEX
  8
0
 10
251.750000
 20
268.748460
 42
-0.015150
  0
VERTEX
  8
0
 10
247.869004
 20
265.032438
 42
-0.022856
  0
VERTEX
  8
0
 10
244.252534
 20
262.061689
 42
-0.023705
  0
VERTEX
  8
0
 10
240.482463
 20
259.512337
 42
-0.018166
  0
VERTEX
  8
0
 10
236.142518
 20
257.079902
 42
0.000000
  0
VERTEX
  8
0
 10
227.785035
 20
252.786916
 42
0.000000
  0
VERTEX
  8
0
 10
222.820114
 20
257.643458
 42
-0.018201
  0
VERTEX
  8
0
 10
219.332106
 20
261.313049
 42
-0.009828
  0
VERTEX
  8
0
 10
215.296107
 20
266.066229
 42
-0.004161
  0
VERTEX
  8
0
 10
211.437714
 20
270.876765
 42
-0.167208
  0
VERTEX
  8
0
 10
210.998178
 20
272.133977
 42
-0.409694
  0
VERTEX
  8
0
 10
211.134468
 20
272.273776
 42
-0.003740
  0
VERTEX
  8
0
 10
212.730225
 20
272.294450
 42
-0.009697
  0
VERTEX
  8
0
 10
214.634563
 20
272.267942
 42
-0.005796
  0
VERTEX
  8
0
 10
216.897068
 20
272.166277
 42
0.058437
  0
VERTEX
  8
0
 10
225.201073
 20
272.667160
 42
0.039018
  0
VERTEX
  8
0
 10
234.428583
 20
275.072369
 42
0.039612
  0
VERTEX
  8
0
 10
242.855696
 20
278.756727
 42
0.079031
  0
VERTEX
  8
0
 10
248.638062
 20
283.144106
 42
0.000000
  0
VERTEX
  8
0
 10
251.394237
 20
286.020933
 42
0.000000
  0
VERTEX
  8
0
 10
255.197119
 20
282.307519
 42
-0.015384
  0
VERTEX
  8
0
 10
256.653446
 20
280.795186
 42
-0.020136
  0
VERTEX
  8
0
 10
257.882904
 20
279.322128
 42
-0.018097
  0
VERTEX
  8
0
 10
258.795277
 20
278.041550
 42
-0.146754
  0
SEQEND
  0
POLYLINE
  8
0
 66
1
 70
1
  0
VERTEX
  8
0
 10
269.500000
 20
271.051194
 42
-0.000887
  0
VERTEX
  8
0
 10
271.506266
 20
269.865150
 42
-0.001048
  0
VERTEX
  8
0
 10
273.399543
 20
268.735995
 42
-0.000913
  0
VERTEX
  8
0
 10
274.994295
 20
267.776383
 42
-0.006624
  0
VERTEX
  8
0
 10
275.753762
 20
267.303649
 42
-0.346040
  0
VERTEX
  8
0
 10
276.359187
 20
265.561703
 42
-0.032608
  0
VERTEX
  8
0
 10
274.488063
 20
261.098571
 42
-0.034966
  0
VERTEX
  8
0
 10
271.506404
 20
256.033870
 42
-0.035697
  0
VERTEX
  8
0
 10
267.866631
 20
251.471138
 42
-0.033749
  0
VERTEX
  8
0
 10
264.173879
 20
247.971096
 42
-0.041645
  0
VERTEX
  8
0
 10
260.281886
 20
245.263070
 42
-0.043277
  0
VERTEX
  8
0
 10
256.128317
 20
243.317001
 42
-0.041882
  0
VERTEX
  8
0
 10
251.656254
 20
242.089228
 42
-0.038450
  0
VERTEX
  8
0
 10
249.157695
 20
241.819936
 42
-0.067326
  0
VERTEX
  8
0
 10
247.091860
 20
242.035447
 42
-0.048225
  0
VERTEX
  8
0
 10
244.729117
 20
242.857357
 42
-0.011612
  0
VERTEX
  8
0
 10
241.000000
 20
244.678862
 42
-0.006777
  0
VERTEX
  8
0
 10
238.328126
 20
246.107947
 42
-0.006621
  0
VERTEX
  8
0
 10
235.675000
 20
247.619791
 42
-0.006545
  0
VERTEX
  8
0
 10
233.381180
 20
249.008145
 42
-0.024614
  0
VERTEX
  8
0
 10
232.000000
 20
249.966473
 42
0.000000
  0
VERTEX
  8
0
 10
229.500000
 20
251.889978
 42
0.000000
  0
VERTEX
  8
0
 10
233.477471
 20
253.553452
 42
0.041398
  0
VERTEX
  8
0
 10
239.936125
 20
256.906601
 42
0.030170
  0
VERTEX
  8
0
 10
246.514028
 20
261.621896
 42
0.030087
  0
VERTEX
  8
0
 10
252.501109
 20
267.115205
 42
0.040175
  0
VERTEX
  8
0
 10
257.182845
 20
272.811829
 42
-0.009065
  0
VERTEX
  8
0
 10
259.109125
 20
275.477548
 42
-0.109803
  0
VERTEX
  8
0
 10
260.062748
 20
276.294227
 42
-0.227918
  0
VERTEX
  8
0
 10
260.981129
 20
276.332166
 42
-0.055061
  0
VERTEX
  8
0
 10
262.340580
 20
275.559374
 42
0.012638
  0
VERTEX
  8
0
 10
263.497975
 20
274.764767
 42
0.003601
  0
VERTEX
  8
0
 10
265.334420
 20
273.589829
 42
0.003624
  0
VERTEX
  8
0
 10
267.427357
 20
272.293025
 42
0.003834
  0
SEQEND
  0
POLYLINE
  8
0
 66
1
 70
1
  0
VERTEX
  8
0
 10
285.000000
 20
264.125632
 42
-0.012512
  0
VERTEX
  8
0
 10
288.340701
 20
262.927826
 42
-0.095965
  0
VERTEX
  8
0
 10
289.744756
 20
262.046308
 42
-0.144229
  0
VERTEX
  8
0
 10
290.447340
 20
260.853581
 42
-0.040231
  0
VERTEX
  8
0
 10
290.808004
 20
258.693399
 42
-0.047935
  0
VERTEX
  8
0
 10
290.759988
 20
254.240230
 42
-0.025937
  0
VERTEX
  8
0
 10
289.894518
 20
248.823619
 42
-0.024905
  0
VERTEX
  8
0
 10
288.384663
 20
243.150289
 42
-0.027990
  0
VERTEX
  8
0
 10
286.364737
 20
237.877944
 42
0.000000
  0
VERTEX
  8
0
 10
283.692567
 20
231.923557
 42
0.000000
  0
VERTEX
  8
0
 10
279.096284
 20
232.585820
 42
-0.019775
  0
VERTEX
  8
0
 10
273.748959
 20
233.573496
 42
-0.005921
  0
VERTEX
  8
0
 10
265.686822
 20
235.495521
 42
-0.005419
  0
VERTEX
  8
0
 10
257.766397
 20
237.574674
 42
-0.028421
  0
VERTEX
  8
0
 10
253.500000
 20
239.009273
 42
0.000000
  0
VERTEX
  8
0
 10
250.500000
 20
240.211705
 42
0.000000
  0
VERTEX
  8
0
 10
254.675825
 20
241.478450
 42
0.061303
  0
VERTEX
  8
0
 10
261.135026
 20
244.339609
 42
0.050028
  0
VERTEX
  8
0
 10
267.206234
 20
248.854313
 42
0.048809
  0
VERTEX
  8
0
 10
272.403743
 20
254.617032
 42
0.051601
  0
VERTEX
  8
0
 10
276.275353
 20
261.176241
 42
-0.008315
  0
VERTEX
  8
0
 10
277.160116
 20
263.023171
 42
-0.013096
  0
VERTEX
  8
0
 10
277.986838
 20
264.574749
 42
-0.007078
  0
VERTEX
  8
0
 10
278.720725
 20
265.827557
 42
-0.277388
  0
VERTEX
  8
0
 10
278.994148
 20
265.971842
 42
-0.059275
  0
VERTEX
  8
0
 10
279.354390
 20
265.908513
 42
-0.001451
  0
VERTEX
  8
0
 10
280.967031
 20
265.417903
 42
-0.003131
  0
VERTEX
  8
0
 10
282.855814
 20
264.824318
 42
-0.002123
  0
SEQEND
  0
POLYLINE
  8
0
 66
1
 70
1
  0
VERTEX
  8
0
 10
308.609839
 20
258.577204
 42
-0.273391
  0
VERTEX
  8
0
 10
310.513154
 20
256.250662
 42
-0.014446
  0
VERTEX
  8
0
 10
311.739001
 20
246.338353
 42
-0.018206
  0
VERTEX
  8
0
 10
312.310168
 20
236.458497
 42
-0.147578
  0
VERTEX
  8
0
 10
311.106577
 20
232.138204
 42
-0.197468
  0
VERTEX
  8
0
 10
310.161867
 20
231.469265
 42
-0.036555
  0
VERTEX
  8
0
 10
308.012314
 20
231.137489
 42
-0.022754
  0
VERTEX
  8
0
 10
304.554171
 20
231.017925
 42
-0.005199
  0
VERTEX
  8
0
 10
298.700588
 20
231.142839
 42
-0.004625
  0
VERTEX
  8
0
 10
294.233755
 20
231.326006
 42
-0.007124
  0
VERTEX
  8
0
 10
290.374654
 20
231.575186
 42
-0.002903
  0
VERTEX
  8
0
 10
287.093969
 20
231.853179
 42
-0.175535
  0
VERTEX
  8
0
 10
286.566569
 20
232.100097
 42
-0.248173
  0
VERTEX
  8
0
 10
286.428989
 20
232.546625
 42
-0.019095
  0
VERTEX
  8
0
 10
286.719514
 20
233.811202
 42
-0.022642
  0
VERTEX
  8
0
 10
287.215983
 20
235.364916
 42
-0.015139
  0
VERTEX
  8
0
 10
287.916904
 20
237.095462
 42
0.024234
  0
VERTEX
  8
0
 10
289.486257
 20
241.182166
 42
0.020302
  0
VERTEX
  8
0
 10
290.759069
 20
245.648937
 42
0.018622
  0
VERTEX
  8
0
 10
291.758368
 20
250.584810
 42
0.013918
  0
VERTEX
  8
0
 10
292.503796
 20
256.086013
 42
0.000000
  0
VERTEX
  8
0
 10
293.102935
 20
261.672025
 42
0.000000
  0
VERTEX
  8
0
 10
300.301467
 20
260.328047
 42
-0.002477
  0
VERTEX
  8
0
 10
303.139563
 20
259.783608
 42
-0.003303
  0
VERTEX
  8
0
 10
305.711446
 20
259.259346
 42
-0.002327
  0
VERTEX
  8
0
 10
307.861404
 20
258.795821
 42
-0.033609
  0
SEQEND
  0
POLYLINE
  8
0
 66
1
 70
1
  0
VERTEX
  8
0
 10
322.229676
 20
258.011006
 42
-0.034498
  0
VERTEX
  8
0
 10
324.381156
 20
257.856004
 42
-0.117107
  0
VERTEX
  8
0
 10
325.681733
 20
257.345501
 42
-0.101126
  0
VERTEX
  8
0
 10
326.718144
 20
256.259492
 42
-0.022184
  0
VERTEX
  8
0
 10
327.998368
 20
254.003199
 42
-0.045534
  0
VERTEX
  8
0
 10
329.684475
 20
249.790769
 42
-0.044316
  0
VERTEX
  8
0
 10
330.599351
 20
245.304269
 42
-0.043935
  0
VERTEX
  8
0
 10
330.713699
 20
240.689401
 42
-0.043129
  0
VERTEX
  8
0
 10
330.023027
 20
236.095987
 42
0.000000
  0
VERTEX
  8
0
 10
328.800518
 20
231.000000
 42
0.000000
  0
VERTEX
  8
0
 10
320.755222
 20
231.000000
 42
0.000000
  0
VERTEX
  8
0
 10
312.709926
 20
231.000000
 42
0.000000
  0
VERTEX
  8
0
 10
313.255258
 20
237.750000
 42
0.020820
  0
VERTEX
  8
0
 10
313.440437
 20
242.497965
 42
0.022888
  0
VERTEX
  8
0
 10
313.217620
 20
247.096166
 42
0.022721
  0
VERTEX
  8
0
 10
312.572734
 20
251.684906
 42
0.019923
  0
VERTEX
  8
0
 10
311.492991
 20
256.404737
 42
0.000000
  0
VERTEX
  8
0
 10
310.705511
 20
259.309474
 42
0.000000
  0
VERTEX
  8
0
 10
314.602755
 20
258.665743
 42
0.012081
  0
VERTEX
  8
0
 10
316.365561
 20
258.418158
 42
0.007435
  0
VERTEX
  8
0
 10
318.450777
 20
258.207874
 42
0.007453
  0
VERTEX
  8
0
 10
320.520345
 20
258.061252
 42
0.013219
  0
SEQEND
  0
POLYLINE
  8
0
 66
1
 70
1
  0
VERTEX
  8
0
 10
348.536236
 20
252.750000
 42
-0.043847
  0
VERTEX
  8
0
 10
350.107939
 20
248.418568
 42
-0.045583
  0
VERTEX
  8
0
 10
350.874454
 20
243.935503
 42
-0.045264
  0
VERTEX
  8
0
 10
350.818489
 20
239.358965
 42
-0.042073
  0
VERTEX
  8
0
 10
349.947419
 20
234.750000
 42
0.000000
  0
VERTEX
  8
0
 10
348.905992
 20
231.000000
 42
0.000000
  0
VERTEX
  8
0
 10
339.477747
 20
231.000000
 42
0.000000
  0
VERTEX
  8
0
 10
330.049502
 20
231.000000
 42
0.000000
  0
VERTEX
  8
0
 10
331.024751
 20
233.565100
 42
0.075015
  0
VERTEX
  8
0
 10
332.016040
 20
238.135802
 42
0.043387
  0
VERTEX
  8
0
 10
331.886991
 20
243.770593
 42
0.039289
  0
VERTEX
  8
0
 10
330.706868
 20
249.968431
 42
0.033601
  0
VERTEX
  8
0
 10
328.528071
 20
256.250000
 42
-0.235288
  0
VERTEX
  8
0
 10
328.584038
 20
257.164491
 42
-0.213761
  0
VERTEX
  8
0
 10
329.355267
 20
257.722469
 42
-0.047334
  0
VERTEX
  8
0
 10
331.462422
 20
257.956345
 42
-0.003986
  0
VERTEX
  8
0
 10
336.939016
 20
258.000000
 42
0.000000
  0
VERTEX
  8
0
 10
346.092010
 20
258.000000
 42
0.000000
  0
SEQEND
  0
POLYLINE
  8
0
 66
1
 70
1
  0
VERTEX
  8
0
 10
361.598126
 20
257.008692
 42
-0.184505
  0
VERTEX
  8
0
 10
364.617796
 20
255.845416
 42
-0.115992
  0
VERTEX
  8
0
 10
366.802137
 20
252.701577
 42
-0.068929
  0
VERTEX
  8
0
 10
368.105612
 20
247.343473
 42
-0.025254
  0
VERTEX
  8
0
 10
368.500000
 20
239.540102
 42
-0.015540
  0
VERTEX
  8
0
 10
368.289608
 20
232.772306
 42
-0.210938
  0
VERTEX
  8
0
 10
367.179568
 20
230.629328
 42
-0.186301
  0
VERTEX
  8
0
 10
364.775355
 20
229.862636
 42
-0.011752
  0
VERTEX
  8
0
 10
357.242310
 20
230.490693
 42
0.000000
  0
VERTEX
  8
0
 10
350.878901
 20
231.172156
 42
0.000000
  0
VERTEX
  8
0
 10
351.689451
 20
234.336078
 42
0.048476
  0
VERTEX
  8
0
 10
352.393581
 20
238.874703
 42
0.034127
  0
VERTEX
  8
0
 10
352.335739
 20
244.043457
 42
0.034266
  0
VERTEX
  8
0
 10
351.578786
 20
249.123264
 42
0.050965
  0
VERTEX
  8
0
 10
350.173028
 20
253.389964
 42
0.000000
  0
VERTEX
  8
0
 10
347.988635
 20
258.279928
 42
0.000000
  0
VERTEX
  8
0
 10
353.244318
 20
257.648656
 42
0.005868
  0
VERTEX
  8
0
 10
355.483594
 20
257.406312
 42
0.004903
  0
VERTEX
  8
0
 10
357.866218
 20
257.200267
 42
0.004951
  0
VERTEX
  8
0
 10
360.049272
 20
257.054754
 42
0.013463
  0
SEQEND
  0
POLYLINE
  8
0
 66
1
 70
1
  0
VERTEX
  8
0
 10
377.520794
 20
255.911523
 42
-0.030053
  0
VERTEX
  8
0
 10
381.616055
 20
254.896819
 42
-0.097886
  0
VERTEX
  8
0
 10
384.059719
 20
253.567794
 42
-0.090351
  0
VERTEX
  8
0
 10
385.919740
 20
251.347410
 42
-0.023338
  0
VERTEX
  8
0
 10
388.045459
 20
247.167095
 42
-0.050154
  0
VERTEX
  8
0
 10
389.332537
 20
243.328754
 42
-0.043133
  0
VERTEX
  8
0
 10
389.914612
 20
239.109882
 42
-0.043461
  0
VERTEX
  8
0
 10
389.762715
 20
234.889423
 42
-0.053197
  0
VERTEX
  8
0
 10
388.866546
 20
231.047018
 42
0.000000
  0
VERTEX
  8
0
 10
387.733092
 20
227.795589
 42
0.000000
  0
VERTEX
  8
0
 10
381.116546
 20
228.473603
 42
-0.007884
  0
VERTEX
  8
0
 10
373.576081
 20
229.366637
 42
-0.160567
  0
VERTEX
  8
0
 10
371.536089
 20
230.357269
 42
-0.189895
  0
VERTEX
  8
0
 10
370.648729
 20
232.317963
 42
-0.011859
  0
VERTEX
  8
0
 10
370.480530
 20
238.796971
 42
0.011581
  0
VERTEX
  8
0
 10
370.364954
 20
243.346595
 42
0.028279
  0
VERTEX
  8
0
 10
370.013432
 20
246.678829
 42
0.035370
  0
VERTEX
  8
0
 10
369.353212
 20
249.468919
 42
0.031563
  0
VERTEX
  8
0
 10
368.286760
 20
252.250000
 42
0.000000
  0
VERTEX
  8
0
 10
366.112461
 20
257.000000
 42
0.000000
  0
VERTEX
  8
0
 10
368.872571
 20
257.000000
 42
-0.024327
  0
VERTEX
  8
0
 10
370.320086
 20
256.929530
 42
-0.006978
  0
VERTEX
  8
0
 10
372.551532
 20
256.680260
 42
-0.007005
  0
VERTEX
  8
0
 10
375.064056
 20
256.328207
 42
-0.007394
  0
SEQEND
  0
POLYLINE
  8
0
 66
1
 70
1
  0
VERTEX
  8
0
 10
397.028677
 20
251.657394
 42
-0.008400
  0
VERTEX
  8
0
 10
404.030632
 20
249.603824
 42
-0.048735
  0
VERTEX
  8
0
 10
407.573605
 20
248.108059
 42
-0.108700
  0
VERTEX
  8
0
 10
409.355528
 20
246.565817
 42
-0.161591
  0
VERTEX
  8
0
 10
410.000000
 20
244.623747
 42
-0.059556
  0
VERTEX
  8
0
 10
409.602908
 20
241.301813
 42
-0.023882
  0
VERTEX
  8
0
 10
408.310874
 20
236.903183
 42
-0.023938
  0
VERTEX
  8
0
 10
406.528667
 20
232.458189
 42
-0.038873
  0
VERTEX
  8
0
 10
404.554470
 20
228.902946
 42
-0.058371
  0
VERTEX
  8
0
 10
402.402043
 20
226.353775
 42
-0.129824
  0
VERTEX
  8
0
 10
400.182857
 20
225.156452
 42
-0.100500
  0
VERTEX
  8
0
 10
397.283148
 20
225.051321
 42
-0.026705
  0
VERTEX
  8
0
 10
392.741263
 20
226.054993
 42
-0.013169
  0
VERTEX
  8
0
 10
390.498865
 20
226.741823
 42
-0.145311
  0
VERTEX
  8
0
 10
389.738605
 20
227.275629
 42
-0.251879
  0
VERTEX
  8
0
 10
389.610160
 20
227.995605
 42
-0.044560
  0
VERTEX
  8
0
 10
390.170663
 20
229.299416
 42
0.100904
  0
VERTEX
  8
0
 10
391.323705
 20
233.108442
 42
0.041491
  0
VERTEX
  8
0
 10
391.377282
 20
238.529059
 42
0.040793
  0
VERTEX
  8
0
 10
390.492602
 20
244.206134
 42
0.060689
  0
VERTEX
  8
0
 10
388.735380
 20
248.912247
 42
-0.013729
  0
VERTEX
  8
0
 10
387.693205
 20
251.063490
 42
-0.037416
  0
VERTEX
  8
0
 10
387.115255
 20
252.652312
 42
-0.066871
  0
VERTEX
  8
0
 10
386.972019
 20
253.664773
 42
-0.416264
  0
VERTEX
  8
0
 10
387.304909
 20
254.000000
 42
-0.056184
  0
VERTEX
  8
0
 10
388.117506
 20
253.908400
 42
-0.002977
  0
VERTEX
  8
0
 10
390.660040
 20
253.311859
 42
-0.004652
  0
VERTEX
  8
0
 10
393.678970
 20
252.554770
 42
-0.003367
  0
SEQEND
  0
POLYLINE
  8
0
 66
1
 70
1
  0
VERTEX
  8
0
 10
170.568633
 20
219.047446
 42
0.003702
  0
VERTEX
  8
0
 10
170.649554
 20
211.760590
 42
0.005094
  0
VERTEX
  8
0
 10
170.837468
 20
205.213937
 42
0.003321
  0
VERTEX
  8
0
 10
171.087329
 20
199.729188
 42
0.059910
  0
VERTEX
  8
0
 10
171.387436
 20
198.000000
 42
-0.005002
  0
VERTEX
  8
0
 10
171.755967
 20
196.725670
 42
-0.141418
  0
VERTEX
  8
0
 10
171.752747
 20
196.385238
 42
-0.619647
  0
VERTEX
  8
0
 10
171.610286
 20
196.360654
 42
-0.014383
  0
VERTEX
  8
0
 10
171.113085
 20
197.082081
 42
-0.053775
  0
VERTEX
  8
0
 10
170.580385
 20
198.138022
 42
-0.005285
  0
VERTEX
  8
0
 10
169.604131
 20
200.819064
 42
-0.006631
  0
VERTEX
  8
0
 10
168.513675
 20
204.051307
 42
-0.005209
  0
VERTEX
  8
0
 10
167.414908
 20
207.582081
 42
-0.016472
  0
VERTEX
  8
0
 10
165.998594
 20
212.941969
 42
-0.024705
  0
VERTEX
  8
0
 10
165.151444
 20
217.705608
 42
-0.018934
  0
VERTEX
  8
0
 10
164.647640
 20
223.368452
 42
-0.005716
  0
VERTEX
  8
0
 10
164.307060
 20
232.000000
 42
0.000000
  0
VERTEX
  8
0
 10
163.872868
 20
247.500000
 42
0.000000
  0
VERTEX
  8
0
 10
167.186434
 20
242.547446
 42
0.000000
  0
VERTEX
  8
0
 10
170.500000
 20
237.594892
 42
0.000000
  0
SEQEND
  0
POLYLINE
  8
0
 66
1
 70
1
  0
VERTEX
  8
0
 10
419.534957
 20
242.789967
 42
-0.012886
  0
VERTEX
  8
0
 10
422.690803
 20
241.335456
 42
-0.027600
  0
VERTEX
  8
0
 10
425.026838
 20
240.020071
 42
-0.031789
  0
VERTEX
  8
0
 10
426.595484
 20
238.872561
 42
-0.226227
  0
VERTEX
  8
0
 10
426.978038
 20
238.039967
 42
-0.094339
  0
VERTEX
  8
0
 10
426.465707
 20
235.543128
 42
-0.024636
  0
VERTEX
  8
0
 10
424.715549
 20
231.823314
 42
-0.025319
  0
VERTEX
  8
0
 10
422.376760
 20
227.918585
 42
-0.032562
  0
VERTEX
  8
0
 10
419.826979
 20
224.601729
 42
0.000000
  0
VERTEX
  8
0
 10
416.404592
 20
220.703458
 42
0.000000
  0
VERTEX
  8
0
 10
410.952296
 20
221.980442
 42
-0.007351
  0
VERTEX
  8
0
 10
405.629710
 20
223.309881
 42
-0.121310
  0
VERTEX
  8
0
 10
404.035958
 20
224.182427
 42
-0.329756
  0
VERTEX
  8
0
 10
403.812411
 20
225.336112
 42
-0.055271
  0
VERTEX
  8
0
 10
405.076852
 20
227.370571
 42
0.051129
  0
VERTEX
  8
0
 10
407.126824
 20
230.608963
 42
0.025044
  0
VERTEX
  8
0
 10
409.084826
 20
235.088179
 42
0.024776
  0
VERTEX
  8
0
 10
410.553530
 20
239.634325
 42
0.065830
  0
VERTEX
  8
0
 10
411.000000
 20
243.010727
 42
-0.016834
  0
VERTEX
  8
0
 10
411.038590
 20
244.156629
 42
-0.027446
  0
VERTEX
  8
0
 10
411.157144
 20
245.121901
 42
-0.026288
  0
VERTEX
  8
0
 10
411.325662
 20
245.842770
 42
-0.333773
  0
VERTEX
  8
0
 10
411.534957
 20
246.000000
 42
-0.094310
  0
VERTEX
  8
0
 10
411.921931
 20
245.926354
 42
-0.001365
  0
VERTEX
  8
0
 10
414.105627
 20
245.057053
 42
-0.003702
  0
VERTEX
  8
0
 10
416.635285
 20
244.020205
 42
-0.002427
  0
SEQEND
  0
POLYLINE
  8
0
 66
1
 70
1
  0
VERTEX
  8
0
 10
436.219155
 20
234.466867
 42
-0.006007
  0
VERTEX
  8
0
 10
440.553311
 20
232.098237
 42
-0.088237
  0
VERTEX
  8
0
 10
441.890894
 20
230.998352
 42
-0.206610
  0
VERTEX
  8
0
 10
442.251478
 20
229.828967
 42
-0.056822
  0
VERTEX
  8
0
 10
441.818034
 20
227.907857
 42
-0.054232
  0
VERTEX
  8
0
 10
441.107253
 20
226.412777
 42
-0.016221
  0
VERTEX
  8
0
 10
439.712529
 20
224.305108
 42
-0.016058
  0
VERTEX
  8
0
 10
437.982048
 20
222.024684
 42
-0.016738
  0
VERTEX
  8
0
 10
436.131604
 20
219.892284
 42
0.000000
  0
VERTEX
  8
0
 10
431.500000
 20
214.902589
 42
0.000000
  0
VERTEX
  8
0
 10
425.098122
 20
217.436506
 42
-0.003570
  0
VERTEX
  8
0
 10
422.611028
 20
218.441519
 42
-0.005232
  0
VERTEX
  8
0
 10
420.438757
 20
219.364123
 42
-0.002634
  0
VERTEX
  8
0
 10
418.612295
 20
220.174004
 42
-0.090941
  0
VERTEX
  8
0
 10
418.226327
 20
220.440340
 42
-0.349938
  0
VERTEX
  8
0
 10
418.188877
 20
220.772837
 42
-0.019180
  0
VERTEX
  8
0
 10
418.822821
 20
221.700591
 42
-0.022937
  0
VERTEX
  8
0
 10
419.739070
 20
222.825199
 42
-0.013970
  0
VERTEX
  8
0
 10
420.916829
 20
224.070675
 42
0.039388
  0
VERTEX
  8
0
 10
423.386187
 20
226.963072
 42
0.027149
  0
VERTEX
  8
0
 10
425.725220
 20
230.583204
 42
0.025997
  0
VERTEX
  8
0
 10
427.504499
 20
234.108858
 42
0.104223
  0
VERTEX
  8
0
 10
428.000000
 20
236.460162
 42
-0.185461
  0
VERTEX
  8
0
 10
428.396098
 20
237.491304
 42
-0.275469
  0
VERTEX
  8
0
 10
429.295859
 20
237.769318
 42
-0.058092
  0
VERTEX
  8
0
 10
431.256085
 20
237.044931
 42
-0.004528
  0
SEQEND
  0
POLYLINE
  8
0
 66
1
 70
1
  0
VERTEX
  8
0
 10
181.205413
 20
225.877136
 42
0.012849
  0
VERTEX
  8
0
 10
184.095334
 20
223.174412
 42
0.007665
  0
VERTEX
  8
0
 10
187.663229
 20
220.102049
 42
0.007671
  0
VERTEX
  8
0
 10
191.313770
 20
217.148552
 42
0.013163
  0
VERTEX
  8
0
 10
194.456875
 20
214.815331
 42
-0.006418
  0
VERTEX
  8
0
 10
197.199593
 20
212.836145
 42
-0.008709
  0
VERTEX
  8
0
 10
199.620909
 20
210.974967
 42
-0.006200
  0
VERTEX
  8
0
 10
201.591521
 20
209.364532
 42
-0.091009
  0
VERTEX
  8
0
 10
202.160724
 20
208.677285
 42
-0.079925
  0
VERTEX
  8
0
 10
202.458388
 20
207.863584
 42
-0.007109
  0
VERTEX
  8
0
 10
202.843686
 20
205.709085
 42
-0.009134
  0
VERTEX
  8
0
 10
203.221843
 20
203.109897
 42
-0.006997
  0
VERTEX
  8
0
 10
203.543371
 20
200.256624
 42
-0.006992
  0
VERTEX
  8
0
 10
203.885814
 20
196.201023
 42
-0.047767
  0
VERTEX
  8
0
 10
203.835302
 20
194.197595
 42
-0.114926
  0
VERTEX
  8
0
 10
203.424283
 20
193.069913
 42
-0.157796
  0
VERTEX
  8
0
 10
202.590237
 20
192.396254
 42
-0.100246
  0
VERTEX
  8
0
 10
201.812749
 20
192.265526
 42
-0.061004
  0
VERTEX
  8
0
 10
200.888909
 20
192.409972
 42
-0.056692
  0
VERTEX
  8
0
 10
199.952042
 20
192.795313
 42
-0.058087
  0
VERTEX
  8
0
 10
199.134014
 20
193.378719
 42
0.056646
  0
VERTEX
  8
0
 10
197.352915
 20
194.656705
 42
0.198352
  0
VERTEX
  8
0
 10
195.977973
 20
194.819148
 42
0.167830
  0
VERTEX
  8
0
 10
194.737089
 20
193.958173
 42
0.038621
  0
VERTEX
  8
0
 10
193.375991
 20
191.760193
 42
0.000000
  0
VERTEX
  8
0
 10
191.700621
 20
188.520385
 42
0.000000
  0
VERTEX
  8
0
 10
189.600311
 20
191.439097
 42
0.019880
  0
VERTEX
  8
0
 10
185.005851
 20
197.316221
 42
0.126267
  0
VERTEX
  8
0
 10
181.937499
 20
199.489754
 42
0.258472
  0
VERTEX
  8
0
 10
179.373370
 20
199.126439
 42
0.094982
  0
VERTEX
  8
0
 10
176.836083
 20
196.318314
 42
0.000000
  0
VERTEX
  8
0
 10
175.199726
 20
193.621457
 42
0.000000
  0
VERTEX
  8
0
 10
174.550169
 20
200.060729
 42
-0.015180
  0
VERTEX
  8
0
 10
173.895452
 20
209.374908
 42
-0.009511
  0
VERTEX
  8
0
 10
173.668213
 20
220.298787
 42
-0.002587
  0
VERTEX
  8
0
 10
173.705285
 20
231.218636
 42
-0.411706
  0
VERTEX
  8
0
 10
174.493373
 20
232.000000
 42
-0.185038
  0
VERTEX
  8
0
 10
174.819893
 20
231.874879
 42
-0.001913
  0
VERTEX
  8
0
 10
176.668551
 20
230.201409
 42
-0.005819
  0
VERTEX
  8
0
 10
178.786128
 20
228.224070
 42
-0.003708
  0
SEQEND
  0
POLYLINE
  8
0
 66
1
 70
1
  0
VERTEX
  8
0
 10
452.250000
 20
224.788593
 42
-0.008226
  0
VERTEX
  8
0
 10
454.453577
 20
223.254920
 42
-0.012512
  0
VERTEX
  8
0
 10
456.310938
 20
221.844392
 42
-0.007146
  0
VERTEX
  8
0
 10
457.802942
 20
220.615938
 42
-0.220388
  0
VERTEX
  8
0
 10
458.000000
 20
220.190583
 42
-0.177436
  0
VERTEX
  8
0
 10
457.369800
 20
218.470642
 42
-0.017264
  0
VERTEX
  8
0
 10
454.341609
 20
215.133888
 42
-0.022695
  0
VERTEX
  8
0
 10
450.950755
 20
211.949986
 42
-0.058700
  0
VERTEX
  8
0
 10
448.169544
 20
210.082638
 42
0.000000
  0
VERTEX
  8
0
 10
444.523147
 20
208.211924
 42
0.000000
  0
VERTEX
  8
0
 10
438.677768
 20
211.162662
 42
0.000000
  0
VERTEX
  8
0
 10
432.832389
 20
214.113400
 42
0.000000
  0
VERTEX
  8
0
 10
437.203281
 20
218.806700
 42
0.016797
  0
VERTEX
  8
0
 10
438.974117
 20
220.841070
 42
0.014872
  0
VERTEX
  8
0
 10
440.680608
 20
223.072297
 42
0.015105
  0
VERTEX
  8
0
 10
442.096996
 20
225.174175
 42
0.043333
  0
VERTEX
  8
0
 10
442.903142
 20
226.737291
 42
-0.030971
  0
VERTEX
  8
0
 10
443.517739
 20
228.004860
 42
-0.062481
  0
VERTEX
  8
0
 10
444.178117
 20
228.895182
 42
-0.097299
  0
VERTEX
  8
0
 10
444.813742
 20
229.343059
 42
-0.241510
  0
VERTEX
  8
0
 10
445.366056
 20
229.313144
 42
-0.012264
  0
VERTEX
  8
0
 10
446.082035
 20
228.871627
 42
-0.001089
  0
VERTEX
  8
0
 10
447.855966
 20
227.711214
 42
-0.001422
  0
VERTEX
  8
0
 10
449.965102
 20
226.316357
 42
-0.001108
  0
SEQEND
  0
POLYLINE
  8
0
 66
1
 70
1
  0
VERTEX
  8
0
 10
466.744876
 20
213.420190
 42
-0.023954
  0
VERTEX
  8
0
 10
471.303826
 20
208.943341
 42
-0.234165
  0
VERTEX
  8
0
 10
472.044828
 20
206.428502
 42
-0.217584
  0
VERTEX
  8
0
 10
470.512514
 20
204.198244
 42
-0.020716
  0
VERTEX
  8
0
 10
464.560238
 20
200.955040
 42
0.000000
  0
VERTEX
  8
0
 10
458.124951
 20
197.786959
 42
0.000000
  0
VERTEX
  8
0
 10
451.930052
 20
202.553824
 42
0.000000
  0
VERTEX
  8
0
 10
445.735153
 20
207.320689
 42
0.000000
  0
VERTEX
  8
0
 10
449.303622
 20
209.151424
 42
0.038297
  0
VERTEX
  8
0
 10
450.907801
 20
210.136223
 42
0.018742
  0
VERTEX
  8
0
 10
452.797328
 20
211.616706
 42
0.018473
  0
VERTEX
  8
0
 10
454.656445
 20
213.310950
 42
0.025463
  0
VERTEX
  8
0
 10
456.186046
 20
214.973053
 42
-0.006767
  0
VERTEX
  8
0
 10
457.492245
 20
216.503446
 42
-0.010246
  0
VERTEX
  8
0
 10
458.673401
 20
217.795598
 42
-0.005343
  0
VERTEX
  8
0
 10
459.695374
 20
218.845904
 42
-0.192664
  0
VERTEX
  8
0
 10
460.000000
 20
218.977479
 42
-0.178862
  0
VERTEX
  8
0
 10
460.335627
 20
218.863671
 42
-0.002064
  0
VERTEX
  8
0
 10
462.187557
 20
217.350607
 42
-0.005982
  0
VERTEX
  8
0
 10
464.315119
 20
215.554486
 42
-0.003830
  0
SEQEND
  0
POLYLINE
  8
0
 66
1
 70
1
  0
VERTEX
  8
0
 10
481.825608
 20
195.819825
 42
-0.005596
  0
VERTEX
  8
0
 10
483.041917
 20
193.982624
 42
-0.008189
  0
VERTEX
  8
0
 10
484.067522
 20
192.336626
 42
-0.004516
  0
VERTEX
  8
0
 10
484.893326
 20
190.933051
 42
-0.131445
  0
VERTEX
  8
0
 10
485.000000
 20
190.534287
 42
-0.298947
  0
VERTEX
  8
0
 10
484.422299
 20
189.654413
 42
-0.009901
  0
VERTEX
  8
0
 10
480.357352
 20
187.988099
 42
-0.018637
  0
VERTEX
  8
0
 10
476.060618
 20
186.506947
 42
-0.035536
  0
VERTEX
  8
0
 10
472.500000
 20
185.697077
 42
-0.038626
  0
VERTEX
  8
0
 10
469.961704
 20
185.505346
 42
-0.137379
  0
VERTEX
  8
0
 10
468.406885
 20
185.943817
 42
-0.080141
  0
VERTEX
  8
0
 10
466.871382
 20
187.257919
 42
-0.007991
  0
VERTEX
  8
0
 10
463.793086
 20
191.010417
 42
0.000000
  0
VERTEX
  8
0
 10
459.086173
 20
196.938963
 42
0.000000
  0
VERTEX
  8
0
 10
465.410533
 20
199.957302
 42
0.010499
  0
VERTEX
  8
0
 10
467.921814
 20
201.221231
 42
0.012444
  0
VERTEX
  8
0
 10
470.237325
 20
202.523033
 42
0.011313
  0
VERTEX
  8
0
 10
472.128912
 20
203.708120
 42
0.074077
  0
VERTEX
  8
0
 10
472.961149
 20
204.453187
 42
-0.279716
  0
VERTEX
  8
0
 10
474.176645
 20
204.873033
 42
-0.140739
  0
VERTEX
  8
0
 10
475.659898
 20
204.077016
 42
-0.044470
  0
VERTEX
  8
0
 10
477.849068
 20
201.528643
 42
-0.006213
  0
SEQEND
  0
POLYLINE
  8
0
 66
1
 70
1
  0
VERTEX
  8
0
 10
331.485906
 20
194.250000
 42
0.065788
  0
VERTEX
  8
0
 10
330.625059
 20
191.050997
 42
0.030958
  0
VERTEX
  8
0
 10
330.326860
 20
186.772742
 42
0.030048
  0
VERTEX
  8
0
 10
330.567145
 20
182.190137
 42
0.037425
  0
VERTEX
  8
0
 10
331.360923
 20
178.001346
 42
-0.007058
  0
VERTEX
  8
0
 10
331.900954
 20
175.868452
 42
-0.010993
  0
VERTEX
  8
0
 10
332.299673
 20
174.014881
 42
-0.005396
  0
VERTEX
  8
0
 10
332.581994
 20
172.455464
 42
-0.243051
  0
VERTEX
  8
0
 10
332.485246
 20
172.151913
 42
-0.516853
  0
VERTEX
  8
0
 10
331.723365
 20
172.281659
 42
-0.006297
  0
VERTEX
  8
0
 10
329.256911
 20
177.583260
 42
-0.014454
  0
VERTEX
  8
0
 10
326.958907
 20
183.111637
 42
-0.027565
  0
VERTEX
  8
0
 10
325.491668
 20
187.693298
 42
-0.007622
  0
VERTEX
  8
0
 10
324.167986
 20
193.112620
 42
-0.133112
  0
VERTEX
  8
0
 10
324.240481
 20
194.908282
 42
-0.284298
  0
VERTEX
  8
0
 10
325.243539
 20
195.773578
 42
-0.039475
  0
VERTEX
  8
0
 10
328.106989
 20
196.000000
 42
-0.011906
  0
VERTEX
  8
0
 10
330.393045
 20
195.945556
 42
-0.107981
  0
VERTEX
  8
0
 10
331.351384
 20
195.687793
 42
-0.281767
  0
VERTEX
  8
0
 10
331.670345
 20
195.160034
 42
-0.097454
  0
SEQEND
  0
POLYLINE
  8
0
 66
1
 70
1
  0
VERTEX
  8
0
 10
353.946584
 20
190.398454
 42
0.020499
  0
VERTEX
  8
0
 10
352.499290
 20
187.350055
 42
0.037568
  0
VERTEX
  8
0
 10
351.615965
 20
184.747179
 42
0.038987
  0
VERTEX
  8
0
 10
351.151647
 20
182.107749
 42
0.024055
  0
VERTEX
  8
0
 10
351.000000
 20
178.957471
 42
-0.025410
  0
VERTEX
  8
0
 10
350.785188
 20
174.733322
 42
-0.154024
  0
VERTEX
  8
0
 10
349.927712
 20
172.745584
 42
-0.176714
  0
VERTEX
  8
0
 10
348.152185
 20
171.756923
 42
-0.035800
  0
VERTEX
  8
0
 10
344.500000
 20
171.439550
 42
0.016407
  0
VERTEX
  8
0
 10
342.846457
 20
171.360249
 42
0.015947
  0
VERTEX
  8
0
 10
341.185840
 20
171.172430
 42
0.016073
  0
VERTEX
  8
0
 10
339.738514
 20
170.914055
 42
0.055394
  0
VERTEX
  8
0
 10
338.834776
 20
170.615092
 42
-0.227634
  0
VERTEX
  8
0
 10
337.906193
 20
170.631336
 42
-0.163772
  0
VERTEX
  8
0
 10
337.164829
 20
171.379246
 42
-0.052453
  0
VERTEX
  8
0
 10
336.467872
 20
173.279536
 42
-0.006952
  0
VERTEX
  8
0
 10
335.478476
 20
177.452147
 42
-0.014464
  0
VERTEX
  8
0
 10
334.832265
 20
180.812438
 42
-0.017560
  0
VERTEX
  8
0
 10
334.429401
 20
183.994175
 42
-0.019146
  0
VERTEX
  8
0
 10
334.284061
 20
186.757675
 42
-0.047434
  0
VERTEX
  8
0
 10
334.447018
 20
188.776604
 42
-0.018955
  0
VERTEX
  8
0
 10
335.502391
 20
193.650571
 42
-0.197576
  0
VERTEX
  8
0
 10
336.702716
 20
195.258457
 42
-0.129072
  0
VERTEX
  8
0
 10
338.916402
 20
195.901422
 42
-0.006487
  0
VERTEX
  8
0
 10
346.513972
 20
196.000000
 42
0.000000
  0
VERTEX
  8
0
 10
356.893168
 20
196.000000
 42
0.000000
  0
SEQEND
  0
POLYLINE
  8
0
 66
1
 70
1
  0
VERTEX
  8
0
 10
264.717871
 20
186.250000
 42
0.012760
  0
VERTEX
  8
0
 10
264.793339
 20
182.993613
 42
0.011379
  0
VERTEX
  8
0
 10
265.034921
 20
179.618080
 42
0.011497
  0
VERTEX
  8
0
 10
265.390984
 20
176.593806
 42
0.034322
  0
VERTEX
  8
0
 10
265.822735
 20
174.556229
 42
-0.011792
  0
VERTEX
  8
0
 10
266.222670
 20
173.014675
 42
-0.017567
  0
VERTEX
  8
0
 10
266.492810
 20
171.647857
 42
-0.012763
  0
VERTEX
  8
0
 10
266.644353
 20
170.527700
 42
-0.227388
  0
VERTEX
  8
0
 10
266.526782
 20
170.193449
 42
-0.510560
  0
VERTEX
  8
0
 10
265.222651
 20
170.402199
 42
-0.011288
  0
VERTEX
  8
0
 10
262.013858
 20
177.124027
 42
-0.019508
  0
VERTEX
  8
0
 10
259.077028
 20
184.396694
 42
-0.039855
  0
VERTEX
  8
0
 10
257.465477
 20
190.332333
 42
0.000000
  0
VERTEX
  8
0
 10
256.777418
 20
194.000000
 42
0.000000
  0
VERTEX
  8
0
 10
260.756740
 20
194.000000
 42
0.000000
  0
VERTEX
  8
0
 10
264.736062
 20
194.000000
 42
0.000000
  0
SEQEND
  0
POLYLINE
  8
0
 66
1
 70
1
  0
VERTEX
  8
0
 10
287.715810
 20
189.600589
 42
0.037076
  0
VERTEX
  8
0
 10
287.320641
 20
187.000732
 42
0.031105
  0
VERTEX
  8
0
 10
287.280102
 20
184.211972
 42
0.023682
  0
VERTEX
  8
0
 10
287.604839
 20
180.804348
 42
0.009647
  0
VERTEX
  8
0
 10
288.354541
 20
176.207256
 42
-0.002022
  0
VERTEX
  8
0
 10
288.984912
 20
172.681216
 42
-0.002844
  0
VERTEX
  8
0
 10
289.516646
 20
169.530215
 42
-0.001672
  0
VERTEX
  8
0
 10
289.940714
 20
166.871102
 42
-0.038720
  0
VERTEX
  8
0
 10
290.000000
 20
166.106667
 42
-0.331427
  0
VERTEX
  8
0
 10
289.348628
 20
165.231930
 42
-0.127191
  0
VERTEX
  8
0
 10
287.741175
 20
165.171402
 42
-0.056146
  0
VERTEX
  8
0
 10
285.055432
 20
166.084029
 42
-0.018519
  0
VERTEX
  8
0
 10
281.346005
 20
168.000000
 42
0.008341
  0
VERTEX
  8
0
 10
277.323256
 20
170.182641
 42
0.078448
  0
VERTEX
  8
0
 10
275.464635
 20
170.806558
 42
0.167053
  0
VERTEX
  8
0
 10
274.104401
 20
170.581799
 42
0.072776
  0
VERTEX
  8
0
 10
272.616949
 20
169.474092
 42
-0.059627
  0
VERTEX
  8
0
 10
271.732753
 20
168.778914
 42
-0.333741
  0
VERTEX
  8
0
 10
271.169909
 20
168.833717
 42
-0.132279
  0
VERTEX
  8
0
 10
270.705099
 20
169.564554
 42
-0.010102
  0
VERTEX
  8
0
 10
270.046517
 20
171.827248
 42
-0.019807
  0
VERTEX
  8
0
 10
268.954220
 20
176.634500
 42
-0.023139
  0
VERTEX
  8
0
 10
268.312504
 20
181.270466
 42
-0.024931
  0
VERTEX
  8
0
 10
268.133673
 20
185.584985
 42
-0.035120
  0
VERTEX
  8
0
 10
268.436036
 20
189.422027
 42
0.000000
  0
VERTEX
  8
0
 10
269.122546
 20
194.000000
 42
0.000000
  0
VERTEX
  8
0
 10
278.922542
 20
194.000000
 42
0.000000
  0
VERTEX
  8
0
 10
288.722538
 20
194.000000
 42
0.000000
  0
SEQEND
  0
POLYLINE
  8
0
 66
1
 70
1
  0
VERTEX
  8
0
 10
393.250000
 20
190.799892
 42
-0.035345
  0
VERTEX
  8
0
 10
395.102013
 20
189.977275
 42
-0.170584
  0
VERTEX
  8
0
 10
395.870788
 20
189.142431
 42
-0.319402
  0
VERTEX
  8
0
 10
395.702147
 20
188.358960
 42
-0.093787
  0
VERTEX
  8
0
 10
394.594614
 20
187.674680
 42
0.139851
  0
VERTEX
  8
0
 10
392.742473
 20
186.283238
 42
0.015928
  0
VERTEX
  8
0
 10
389.685701
 20
181.971796
 42
0.019957
  0
VERTEX
  8
0
 10
386.626055
 20
176.924609
 42
0.025266
  0
VERTEX
  8
0
 10
384.231363
 20
172.024163
 42
0.000000
  0
VERTEX
  8
0
 10
381.869568
 20
166.500000
 42
0.000000
  0
VERTEX
  8
0
 10
382.384266
 20
173.500000
 42
-0.030244
  0
VERTEX
  8
0
 10
383.312796
 20
180.394843
 42
-0.033744
  0
VERTEX
  8
0
 10
385.048607
 20
186.873064
 42
-0.032843
  0
VERTEX
  8
0
 10
387.099525
 20
191.793474
 42
-0.392634
  0
VERTEX
  8
0
 10
388.863258
 20
192.461245
 42
0.004409
  0
VERTEX
  8
0
 10
389.680342
 20
192.137231
 42
0.001670
  0
VERTEX
  8
0
 10
390.827020
 20
191.698576
 42
0.001654
  0
VERTEX
  8
0
 10
392.077194
 20
191.229830
 42
0.002019
  0
SEQEND
  0
POLYLINE
  8
0
 66
1
 70
1
  0
VERTEX
  8
0
 10
489.525918
 20
181.750000
 42
0.000000
  0
VERTEX
  8
0
 10
491.861776
 20
176.000000
 42
0.000000
  0
VERTEX
  8
0
 10
486.898769
 20
176.000000
 42
0.024302
  0
VERTEX
  8
0
 10
484.747639
 20
175.895383
 42
0.017979
  0
VERTEX
  8
0
 10
482.386327
 20
175.579115
 42
0.018261
  0
VERTEX
  8
0
 10
480.172872
 20
175.117463
 42
0.038429
  0
VERTEX
  8
0
 10
478.506593
 20
174.567201
 42
0.000000
  0
VERTEX
  8
0
 10
475.077423
 20
173.134403
 42
0.000000
  0
VERTEX
  8
0
 10
472.179348
 20
178.485125
 42
0.000000
  0
VERTEX
  8
0
 10
469.281274
 20
183.835847
 42
0.000000
  0
VERTEX
  8
0
 10
475.139907
 20
184.867825
 42
0.010840
  0
VERTEX
  8
0
 10
477.511239
 20
185.338744
 42
0.011823
  0
VERTEX
  8
0
 10
479.791843
 20
185.900140
 42
0.011340
  0
VERTEX
  8
0
 10
481.716978
 20
186.469779
 42
0.055745
  0
VERTEX
  8
0
 10
482.749270
 20
186.932931
 42
-0.097481
  0
VERTEX
  8
0
 10
484.773251
 20
187.646087
 42
-0.202018
  0
VERTEX
  8
0
 10
486.365484
 20
187.232309
 42
-0.111928
  0
VERTEX
  8
0
 10
487.812318
 20
185.496846
 42
-0.021540
  0
SEQEND
  0
POLYLINE
  8
0
 66
1
 70
1
  0
VERTEX
  8
0
 10
405.289838
 20
184.869415
 42
-0.009012
  0
VERTEX
  8
0
 10
407.112015
 20
183.905652
 42
-0.006523
  0
VERTEX
  8
0
 10
409.108064
 20
182.769210
 42
-0.006591
  0
VERTEX
  8
0
 10
410.976431
 20
181.639577
 42
-0.014253
  0
VERTEX
  8
0
 10
412.375911
 20
180.711664
 42
0.000000
  0
VERTEX
  8
0
 10
415.251822
 20
178.684498
 42
0.000000
  0
VERTEX
  8
0
 10
410.160855
 20
176.785398
 42
0.066359
  0
VERTEX
  8
0
 10
406.333003
 20
174.745785
 42
0.028540
  0
VERTEX
  8
0
 10
401.821661
 20
171.103917
 42
0.023738
  0
VERTEX
  8
0
 10
397.909333
 20
167.204934
 42
0.187046
  0
VERTEX
  8
0
 10
397.000000
 20
164.859210
 42
-0.225812
  0
VERTEX
  8
0
 10
396.639232
 20
164.101119
 42
-0.365892
  0
VERTEX
  8
0
 10
395.967360
 20
164.113937
 42
-0.104656
  0
VERTEX
  8
0
 10
395.079056
 20
165.302938
 42
-0.054275
  0
VERTEX
  8
0
 10
394.485159
 20
167.067570
 42
0.069807
  0
VERTEX
  8
0
 10
393.666079
 20
169.273091
 42
0.144508
  0
VERTEX
  8
0
 10
392.382790
 20
170.565114
 42
0.166530
  0
VERTEX
  8
0
 10
390.739227
 20
170.850171
 42
0.100321
  0
VERTEX
  8
0
 10
388.867534
 20
170.149347
 42
-0.040718
  0
VERTEX
  8
0
 10
387.511426
 20
169.448752
 42
-0.550649
  0
VERTEX
  8
0
 10
387.135394
 20
169.712249
 42
-0.094516
  0
VERTEX
  8
0
 10
387.393056
 20
170.785692
 42
-0.003839
  0
VERTEX
  8
0
 10
389.069008
 20
174.423422
 42
-0.051024
  0
VERTEX
  8
0
 10
391.188231
 20
177.947890
 42
-0.020710
  0
VERTEX
  8
0
 10
394.735431
 20
182.292117
 42
-0.014143
  0
VERTEX
  8
0
 10
398.469730
 20
186.265122
 42
-0.199608
  0
VERTEX
  8
0
 10
400.237184
 20
187.000000
 42
-0.092512
  0
VERTEX
  8
0
 10
400.762899
 20
186.901891
 42
-0.007514
  0
VERTEX
  8
0
 10
402.068929
 20
186.374141
 42
-0.009905
  0
VERTEX
  8
0
 10
403.615860
 20
185.685435
 42
-0.007453
  0
SEQEND
  0
POLYLINE
  8
0
 66
1
 70
1
  0
VERTEX
  8
0
 10
494.320622
 20
167.153955
 42
-0.004651
  0
VERTEX
  8
0
 10
494.995452
 20
164.318372
 42
-0.007466
  0
VERTEX
  8
0
 10
495.512253
 20
161.886624
 42
-0.002465
  0
VERTEX
  8
0
 10
495.913144
 20
159.796985
 42
-0.270388
  0
VERTEX
  8
0
 10
495.820622
 20
159.538338
 42
-0.150942
  0
VERTEX
  8
0
 10
495.538489
 20
159.419223
 42
-0.001337
  0
VERTEX
  8
0
 10
493.206168
 20
159.191808
 42
-0.004461
  0
VERTEX
  8
0
 10
490.509787
 20
158.960426
 42
-0.002846
  0
VERTEX
  8
0
 10
487.370587
 20
158.737209
 42
0.000000
  0
VERTEX
  8
0
 10
479.241174
 20
158.205652
 42
0.000000
  0
VERTEX
  8
0
 10
477.441868
 20
164.852826
 42
-0.000724
  0
VERTEX
  8
0
 10
476.747163
 20
167.434090
 42
-0.001093
  0
VERTEX
  8
0
 10
476.150169
 20
169.684856
 42
-0.000415
  0
VERTEX
  8
0
 10
475.642559
 20
171.622184
 42
-0.026072
  0
VERTEX
  8
0
 10
475.571281
 20
171.967961
 42
-0.380146
  0
VERTEX
  8
0
 10
476.109637
 20
172.797991
 42
-0.013194
  0
VERTEX
  8
0
 10
480.158035
 20
173.799307
 42
-0.022237
  0
VERTEX
  8
0
 10
484.484670
 20
174.549209
 42
-0.042707
  0
VERTEX
  8
0
 10
488.000000
 20
174.696198
 42
0.000000
  0
VERTEX
  8
0
 10
492.500000
 20
174.500000
 42
0.000000
  0
SEQEND
  0
POLYLINE
  8
0
 66
1
 70
1
  0
VERTEX
  8
0
 10
117.000000
 20
164.841514
 42
0.028294
  0
VERTEX
  8
0
 10
130.910045
 20
160.771549
 42
0.030062
  0
VERTEX
  8
0
 10
144.912610
 20
158.397214
 42
0.026151
  0
VERTEX
  8
0
 10
160.688044
 20
157.519661
 42
0.014165
  0
VERTEX
  8
0
 10
180.122842
 20
158.006563
 42
-0.017006
  0
VERTEX
  8
0
 10
203.229103
 20
158.454155
 42
-0.032648
  0
VERTEX
  8
0
 10
221.695359
 20
156.975305
 42
-0.039016
  0
VERTEX
  8
0
 10
237.419145
 20
153.406649
 42
-0.041803
  0
VERTEX
  8
0
 10
252.022476
 20
147.493706
 42
-0.018076
  0
VERTEX
  8
0
 10
256.665208
 20
144.930588
 42
-0.008230
  0
VERTEX
  8
0
 10
262.550974
 20
141.264730
 42
-0.002283
  0
VERTEX
  8
0
 10
268.560063
 20
137.344356
 42
-0.252193
  0
VERTEX
  8
0
 10
269.000000
 20
136.527607
 42
-0.534354
  0
VERTEX
  8
0
 10
268.858044
 20
136.432705
 42
-0.001698
  0
VERTEX
  8
0
 10
266.513049
 20
137.412035
 42
-0.006191
  0
VERTEX
  8
0
 10
263.780705
 20
138.604107
 42
-0.003614
  0
VERTEX
  8
0
 10
260.533782
 20
140.097140
 42
0.024768
  0
VERTEX
  8
0
 10
248.376148
 20
145.076139
 42
0.053726
  0
VERTEX
  8
0
 10
238.564794
 20
147.392303
 42
0.027920
  0
VERTEX
  8
0
 10
225.162769
 20
148.313805
 42
0.002785
  0
VERTEX
  8
0
 10
193.000000
 20
148.547168
 42
-0.001163
  0
VERTEX
  8
0
 10
168.357379
 20
148.646035
 42
-0.007397
  0
VERTEX
  8
0
 10
155.844073
 20
148.910496
 42
-0.014463
  0
VERTEX
  8
0
 10
148.046220
 20
149.416892
 42
-0.037537
  0
VERTEX
  8
0
 10
142.500000
 20
150.362164
 42
-0.012297
  0
VERTEX
  8
0
 10
135.962464
 20
152.160538
 42
-0.015160
  0
VERTEX
  8
0
 10
129.967701
 20
154.169475
 42
-0.016630
  0
VERTEX
  8
0
 10
124.704865
 20
156.313913
 42
-0.026794
  0
VERTEX
  8
0
 10
120.397907
 20
158.522117
 42
-0.025751
  0
VERTEX
  8
0
 10
116.441008
 20
161.107929
 42
-0.015659
  0
VERTEX
  8
0
 10
112.031368
 20
164.541842
 42
-0.025061
  0
VERTEX
  8
0
 10
109.211703
 20
167.132326
 42
-0.808082
  0
VERTEX
  8
0
 10
109.500000
 20
167.570756
 42
0.004341
  0
VERTEX
  8
0
 10
110.611314
 20
167.150552
 42
0.000954
  0
VERTEX
  8
0
 10
112.528125
 20
166.448884
 42
0.000992
  0
VERTEX
  8
0
 10
114.747654
 20
165.646184
 42
0.000954
  0
SEQEND
  0
POLYLINE
  8
0
 66
1
 70
1
  0
VERTEX
  8
0
 10
123.700818
 20
154.253250
 42
0.047587
  0
VERTEX
  8
0
 10
135.544666
 20
149.447969
 42
0.041151
  0
VERTEX
  8
0
 10
148.675874
 20
146.675630
 42
0.026268
  0
VERTEX
  8
0
 10
166.657369
 20
145.355372
 42
0.006817
  0
VERTEX
  8
0
 10
195.686544
 20
145.148246
 42
-0.001376
  0
VERTEX
  8
0
 10
217.008195
 20
145.228101
 42
-0.011271
  0
VERTEX
  8
0
 10
226.736249
 20
145.018453
 42
-0.023536
  0
VERTEX
  8
0
 10
233.304173
 20
144.418121
 42
-0.022310
  0
VERTEX
  8
0
 10
239.906473
 20
143.197428
 42
-0.002589
  0
VERTEX
  8
0
 10
243.537746
 20
142.337169
 42
-0.004041
  0
VERTEX
  8
0
 10
246.654737
 20
141.554951
 42
-0.001226
  0
VERTEX
  8
0
 10
249.347033
 20
140.849083
 42
-0.132400
  0
VERTEX
  8
0
 10
249.670197
 20
140.663136
 42
-0.669962
  0
VERTEX
  8
0
 10
249.612967
 20
140.525928
 42
-0.001229
  0
VERTEX
  8
0
 10
246.299272
 20
140.550404
 42
-0.004556
  0
VERTEX
  8
0
 10
242.398538
 20
140.624356
 42
-0.002609
  0
VERTEX
  8
0
 10
237.693033
 20
140.781042
 42
0.019793
  0
VERTEX
  8
0
 10
223.368701
 20
140.765628
 42
0.015236
  0
VERTEX
  8
0
 10
207.773812
 20
139.654540
 42
0.015514
  0
VERTEX
  8
0
 10
192.815234
 20
137.658967
 42
0.026429
  0
VERTEX
  8
0
 10
180.500000
 20
134.950311
 42
0.008150
  0
VERTEX
  8
0
 10
178.022031
 20
134.222596
 42
0.000892
  0
VERTEX
  8
0
 10
172.359536
 20
132.447828
 42
0.001091
  0
VERTEX
  8
0
 10
165.626545
 20
130.308176
 42
0.000881
  0
VERTEX
  8
0
 10
158.404805
 20
127.981806
 42
-0.003152
  0
VERTEX
  8
0
 10
141.703334
 20
122.685279
 42
-0.009088
  0
VERTEX
  8
0
 10
130.039820
 20
119.298305
 42
-0.012248
  0
VERTEX
  8
0
 10
120.437890
 20
116.949100
 42
-0.012254
  0
VERTEX
  8
0
 10
110.734022
 20
115.073362
 42
-0.013565
  0
VERTEX
  8
0
 10
101.200039
 20
113.736555
 42
-0.007683
  0
VERTEX
  8
0
 10
89.592200
 20
112.609248
 42
-0.001692
  0
VERTEX
  8
0
 10
77.691197
 20
111.678332
 42
-0.436260
  0
VERTEX
  8
0
 10
77.000000
 20
112.319746
 42
-0.303557
  0
VERTEX
  8
0
 10
77.178402
 20
112.586521
 42
-0.006739
  0
VERTEX
  8
0
 10
78.689063
 20
113.187187
 42
-0.012939
  0
VERTEX
  8
0
 10
80.545811
 20
113.842100
 42
-0.008094
  0
VERTEX
  8
0
 10
82.750000
 20
114.516773
 42
0.027514
  0
VERTEX
  8
0
 10
92.553145
 20
117.938890
 42
0.023430
  0
VERTEX
  8
0
 10
102.476620
 20
122.583109
 42
0.024248
  0
VERTEX
  8
0
 10
111.312731
 20
127.796748
 42
0.046952
  0
VERTEX
  8
0
 10
117.709250
 20
132.920723
 42
0.065165
  0
VERTEX
  8
0
 10
122.035553
 20
138.365474
 42
0.126439
  0
VERTEX
  8
0
 10
123.612539
 20
143.655102
 42
0.125983
  0
VERTEX
  8
0
 10
122.446064
 20
149.062835
 42
0.064449
  0
VERTEX
  8
0
 10
118.547717
 20
154.862340
 42
-0.008839
  0
VERTEX
  8
0
 10
116.434526
 20
157.356716
 42
-0.674502
  0
VERTEX
  8
0
 10
116.619402
 20
157.693819
 42
-0.089689
  0
VERTEX
  8
0
 10
117.692479
 20
157.365927
 42
-0.001269
  0
SEQEND
  0
POLYLINE
  8
0
 66
1
 70
1
  0
VERTEX
  8
0
 10
495.065741
 20
156.964816
 42
-0.109232
  0
VERTEX
  8
0
 10
496.051359
 20
156.119366
 42
-0.098264
  0
VERTEX
  8
0
 10
496.635169
 20
154.905520
 42
-0.052433
  0
VERTEX
  8
0
 10
496.925183
 20
152.955364
 42
-0.010716
  0
VERTEX
  8
0
 10
497.000000
 20
149.464816
 42
0.000000
  0
VERTEX
  8
0
 10
497.000000
 20
143.000000
 42
0.000000
  0
VERTEX
  8
0
 10
489.098187
 20
143.000000
 42
0.000000
  0
VERTEX
  8
0
 10
481.196374
 20
143.000000
 42
0.000000
  0
VERTEX
  8
0
 10
480.489412
 20
149.091225
 42
-0.014380
  0
VERTEX
  8
0
 10
480.281187
 20
151.484484
 42
-0.019997
  0
VERTEX
  8
0
 10
480.242386
 20
153.635232
 42
-0.016900
  0
VERTEX
  8
0
 10
480.339681
 20
155.378738
 42
-0.181055
  0
VERTEX
  8
0
 10
480.641225
 20
156.006549
 42
-0.146683
  0
VERTEX
  8
0
 10
482.913302
 20
157.170726
 42
-0.028978
  0
VERTEX
  8
0
 10
487.505721
 20
157.744410
 42
-0.030504
  0
VERTEX
  8
0
 10
492.197530
 20
157.769496
 42
-0.109372
  0
SEQEND
  0
POLYLINE
  8
0
 66
1
 70
1
  0
VERTEX
  8
0
 10
414.203398
 20
146.371733
 42
-0.061922
  0
VERTEX
  8
0
 10
417.626894
 20
144.058760
 42
-0.038789
  0
VERTEX
  8
0
 10
421.015558
 20
140.601630
 42
-0.037838
  0
VERTEX
  8
0
 10
423.940125
 20
136.524234
 42
-0.047174
  0
VERTEX
  8
0
 10
425.976488
 20
132.333297
 42
-0.005843
  0
VERTEX
  8
0
 10
427.530499
 20
128.027170
 42
-0.080257
  0
VERTEX
  8
0
 10
427.817981
 20
126.396295
 42
-0.139645
  0
VERTEX
  8
0
 10
427.466087
 20
125.090235
 42
-0.028699
  0
VERTEX
  8
0
 10
426.108676
 20
123.097823
 42
0.000000
  0
VERTEX
  8
0
 10
424.261823
 20
120.695647
 42
0.000000
  0
VERTEX
  8
0
 10
422.598705
 20
125.702828
 42
0.033281
  0
VERTEX
  8
0
 10
420.686643
 20
130.391459
 42
0.026118
  0
VERTEX
  8
0
 10
418.024938
 20
135.195180
 42
0.024635
  0
VERTEX
  8
0
 10
414.694483
 20
139.986173
 42
0.021757
  0
VERTEX
  8
0
 10
410.775175
 20
144.637170
 42
-0.004091
  0
VERTEX
  8
0
 10
408.291927
 20
147.381175
 42
-0.074668
  0
VERTEX
  8
0
 10
407.649429
 20
148.365448
 42
-0.559309
  0
VERTEX
  8
0
 10
407.878391
 20
148.706915
 42
-0.064729
  0
VERTEX
  8
0
 10
409.000000
 20
148.515453
 42
-0.015161
  0
VERTEX
  8
0
 10
410.151413
 20
148.122777
 42
-0.007952
  0
VERTEX
  8
0
 10
411.559748
 20
147.568596
 42
-0.007902
  0
VERTEX
  8
0
 10
412.986370
 20
146.954300
 42
-0.012022
  0
SEQEND
  0
POLYLINE
  8
0
 66
1
 70
1
  0
VERTEX
  8
0
 10
344.449638
 20
127.500000
 42
-0.010412
  0
VERTEX
  8
0
 10
348.668428
 20
121.855024
 42
-0.012018
  0
VERTEX
  8
0
 10
352.444600
 20
116.299076
 42
-0.007859
  0
VERTEX
  8
0
 10
355.500557
 20
111.394210
 42
-0.136202
  0
VERTEX
  8
0
 10
356.000000
 20
109.594755
 42
-0.263254
  0
VERTEX
  8
0
 10
355.863666
 20
109.353761
 42
-0.099425
  0
VERTEX
  8
0
 10
355.485937
 20
109.218892
 42
-0.065140
  0
VERTEX
  8
0
 10
354.920696
 20
109.210611
 42
-0.037342
  0
VERTEX
  8
0
 10
354.250000
 20
109.339667
 42
0.004940
  0
VERTEX
  8
0
 10
353.398237
 20
109.561579
 42
0.002108
  0
VERTEX
  8
0
 10
352.254715
 20
109.842353
 42
0.002086
  0
VERTEX
  8
0
 10
351.032758
 20
110.131539
 42
0.002741
  0
VERTEX
  8
0
 10
349.914986
 20
110.384698
 42
-0.074701
  0
VERTEX
  8
0
 10
348.596550
 20
110.890573
 42
-0.095325
  0
VERTEX
  8
0
 10
347.607604
 20
111.733012
 42
-0.070997
  0
VERTEX
  8
0
 10
346.810530
 20
113.082875
 42
-0.025141
  0
VERTEX
  8
0
 10
346.057459
 20
115.202557
 42
0.027206
  0
VERTEX
  8
0
 10
344.136999
 20
120.538190
 42
0.018320
  0
VERTEX
  8
0
 10
341.398957
 20
126.406935
 42
0.018203
  0
VERTEX
  8
0
 10
338.205095
 20
132.122631
 42
0.024929
  0
VERTEX
  8
0
 10
334.898197
 20
137.000000
 42
0.000000
  0
VERTEX
  8
0
 10
330.754602
 20
142.500000
 42
0.000000
  0
VERTEX
  8
0
 10
334.480824
 20
139.000000
 42
-0.019480
  0
VERTEX
  8
0
 10
336.330074
 20
137.122201
 42
-0.006147
  0
VERTEX
  8
0
 10
338.946229
 20
134.178125
 42
-0.006128
  0
VERTEX
  8
0
 10
341.786308
 20
130.819519
 42
-0.006764
  0
SEQEND
  0
POLYLINE
  8
0
 66
1
 70
1
  0
VERTEX
  8
0
 10
417.068420
 20
130.358664
 42
-0.031671
  0
VERTEX
  8
0
 10
417.887850
 20
128.351036
 42
-0.019609
  0
VERTEX
  8
0
 10
418.604325
 20
125.905404
 42
-0.019646
  0
VERTEX
  8
0
 10
419.123996
 20
123.424550
 42
-0.033180
  0
VERTEX
  8
0
 10
419.337856
 20
121.311474
 42
-0.019914
  0
VERTEX
  8
0
 10
419.322548
 20
118.419721
 42
-0.114806
  0
VERTEX
  8
0
 10
418.911801
 20
116.956818
 42
-0.116686
  0
VERTEX
  8
0
 10
417.900271
 20
115.837057
 42
-0.020867
  0
VERTEX
  8
0
 10
415.500000
 20
114.325221
 42
-0.032592
  0
VERTEX
  8
0
 10
410.840503
 20
112.044484
 42
-0.020281
  0
VERTEX
  8
0
 10
405.121915
 20
109.960409
 42
-0.020120
  0
VERTEX
  8
0
 10
399.159827
 20
108.318777
 42
-0.028618
  0
VERTEX
  8
0
 10
393.745600
 20
107.382524
 42
0.000000
  0
VERTEX
  8
0
 10
387.991199
 20
106.723603
 42
0.000000
  0
VERTEX
  8
0
 10
389.483633
 20
110.953612
 42
-0.034246
  0
VERTEX
  8
0
 10
390.337987
 20
112.932015
 42
-0.015047
  0
VERTEX
  8
0
 10
391.722072
 20
115.428608
 42
-0.014810
  0
VERTEX
  8
0
 10
393.354935
 20
117.999142
 42
-0.019225
  0
VERTEX
  8
0
 10
395.008089
 20
120.247628
 42
0.021455
  0
VERTEX
  8
0
 10
398.050113
 20
124.424025
 42
0.078433
  0
VERTEX
  8
0
 10
399.411765
 20
127.392456
 42
0.113712
  0
VERTEX
  8
0
 10
399.535382
 20
130.016271
 42
0.074607
  0
VERTEX
  8
0
 10
398.555696
 20
132.892296
 42
0.000000
  0
VERTEX
  8
0
 10
396.948640
 20
136.000000
 42
0.000000
  0
VERTEX
  8
0
 10
401.851875
 20
136.000000
 42
0.042587
  0
VERTEX
  8
0
 10
405.314639
 20
136.295476
 42
0.110587
  0
VERTEX
  8
0
 10
407.616220
 20
137.242969
 42
0.175871
  0
VERTEX
  8
0
 10
408.684561
 20
138.765661
 42
0.149731
  0
VERTEX
  8
0
 10
408.618238
 20
140.737265
 42
-0.781464
  0
VERTEX
  8
0
 10
409.136382
 20
141.073049
 42
-0.033961
  0
VERTEX
  8
0
 10
411.623948
 20
138.409419
 42
-0.018899
  0
VERTEX
  8
0
 10
414.914915
 20
134.040064
 42
-0.039247
  0
SEQEND
  0
POLYLINE
  8
0
 66
1
 70
1
  0
VERTEX
  8
0
 10
495.418213
 20
141.393011
 42
-0.169284
  0
VERTEX
  8
0
 10
496.186670
 20
140.743387
 42
-0.080377
  0
VERTEX
  8
0
 10
496.665289
 20
139.521028
 42
-0.043266
  0
VERTEX
  8
0
 10
496.921632
 20
137.502472
 42
-0.010537
  0
VERTEX
  8
0
 10
496.984687
 20
134.143011
 42
-0.013112
  0
VERTEX
  8
0
 10
496.816370
 20
128.244439
 42
-0.182818
  0
VERTEX
  8
0
 10
495.970923
 20
126.332753
 42
-0.260022
  0
VERTEX
  8
0
 10
494.234549
 20
125.825952
 42
-0.026898
  0
VERTEX
  8
0
 10
489.986477
 20
127.040965
 42
0.011475
  0
VERTEX
  8
0
 10
487.711336
 20
127.768283
 42
0.011583
  0
VERTEX
  8
0
 10
485.412280
 20
128.388011
 42
0.011449
  0
VERTEX
  8
0
 10
483.387390
 20
128.834947
 42
0.045188
  0
VERTEX
  8
0
 10
482.119158
 20
128.967354
 42
-0.048464
  0
VERTEX
  8
0
 10
480.782125
 20
129.115787
 42
-0.236167
  0
VERTEX
  8
0
 10
480.203056
 20
129.575738
 42
-0.136985
  0
VERTEX
  8
0
 10
480.050021
 20
130.503762
 42
-0.013742
  0
VERTEX
  8
0
 10
480.358152
 20
132.750000
 42
0.009644
  0
VERTEX
  8
0
 10
480.596371
 20
134.386835
 42
0.007121
  0
VERTEX
  8
0
 10
480.799145
 20
136.206250
 42
0.007202
  0
VERTEX
  8
0
 10
480.941550
 20
137.931686
 42
0.015987
  0
VERTEX
  8
0
 10
480.988994
 20
139.250000
 42
-0.059804
  0
VERTEX
  8
0
 10
481.192416
 20
140.889200
 42
-0.235114
  0
VERTEX
  8
0
 10
481.833043
 20
141.642454
 42
-0.095133
  0
VERTEX
  8
0
 10
483.236378
 20
141.948157
 42
-0.006198
  0
VERTEX
  8
0
 10
487.418213
 20
142.000000
 42
-0.008642
  0
VERTEX
  8
0
 10
489.991509
 20
141.955521
 42
-0.010291
  0
VERTEX
  8
0
 10
492.415725
 20
141.821697
 42
-0.009188
  0
VERTEX
  8
0
 10
494.447872
 20
141.629897
 42
-0.063567
  0
SEQEND
  0
POLYLINE
  8
0
 66
1
 70
1
  0
VERTEX
  8
0
 10
334.831888
 20
132.085368
 42
-0.015362
  0
VERTEX
  8
0
 10
337.837483
 20
126.001197
 42
-0.013809
  0
VERTEX
  8
0
 10
340.578996
 20
119.525933
 42
-0.006147
  0
VERTEX
  8
0
 10
342.860104
 20
113.476448
 42
-0.291264
  0
VERTEX
  8
0
 10
342.588959
 20
112.255626
 42
-0.271388
  0
VERTEX
  8
0
 10
341.396774
 20
111.944360
 42
-0.000727
  0
VERTEX
  8
0
 10
324.530880
 20
116.722660
 42
-0.000661
  0
VERTEX
  8
0
 10
307.626008
 20
121.562744
 42
-0.334339
  0
VERTEX
  8
0
 10
307.000000
 20
122.394283
 42
-0.075268
  0
VERTEX
  8
0
 10
307.032948
 20
122.611915
 42
-0.001924
  0
VERTEX
  8
0
 10
307.331031
 20
123.560888
 42
-0.004056
  0
VERTEX
  8
0
 10
307.695103
 20
124.673241
 42
-0.002752
  0
VERTEX
  8
0
 10
308.126913
 20
125.934219
 42
-0.027304
  0
VERTEX
  8
0
 10
308.781167
 20
127.525764
 42
-0.102032
  0
VERTEX
  8
0
 10
309.430718
 20
128.383806
 42
-0.153865
  0
VERTEX
  8
0
 10
310.208688
 20
128.725758
 42
-0.091395
  0
VERTEX
  8
0
 10
311.227565
 20
128.650741
 42
0.145335
  0
VERTEX
  8
0
 10
314.213896
 20
128.748941
 42
0.103205
  0
VERTEX
  8
0
 10
317.127263
 20
130.445003
 42
0.097275
  0
VERTEX
  8
0
 10
319.250713
 20
133.273504
 42
0.112985
  0
VERTEX
  8
0
 10
320.000000
 20
136.547053
 42
-0.108208
  0
VERTEX
  8
0
 10
320.228259
 20
137.589434
 42
-0.343330
  0
VERTEX
  8
0
 10
320.821442
 20
137.896897
 42
-0.124913
  0
VERTEX
  8
0
 10
321.867363
 20
137.414964
 42
-0.018470
  0
VERTEX
  8
0
 10
323.634668
 20
135.873486
 42
0.079198
  0
VERTEX
  8
0
 10
325.605086
 20
134.536637
 42
0.183788
  0
VERTEX
  8
0
 10
327.358291
 20
134.405714
 42
0.216644
  0
VERTEX
  8
0
 10
328.561186
 20
135.451564
 42
0.107519
  0
VERTEX
  8
0
 10
329.000000
 20
137.468615
 42
-0.105812
  0
VERTEX
  8
0
 10
329.389939
 20
139.290582
 42
-0.512545
  0
VERTEX
  8
0
 10
330.258535
 20
139.468329
 42
-0.076364
  0
VERTEX
  8
0
 10
331.863069
 20
137.455275
 42
-0.007739
  0
SEQEND
  0
POLYLINE
  8
0
 66
1
 70
1
  0
VERTEX
  8
0
 10
491.679267
 20
124.965816
 42
-0.040018
  0
VERTEX
  8
0
 10
494.440194
 20
123.511497
 42
-0.220442
  0
VERTEX
  8
0
 10
495.327399
 20
122.133530
 42
-0.103626
  0
VERTEX
  8
0
 10
495.178633
 20
119.962619
 42
-0.005919
  0
VERTEX
  8
0
 10
493.272787
 20
113.500000
 42
-0.006229
  0
VERTEX
  8
0
 10
491.799604
 20
108.917894
 42
-0.154819
  0
VERTEX
  8
0
 10
491.026852
 20
107.859661
 42
-0.304622
  0
VERTEX
  8
0
 10
490.013374
 20
107.817592
 42
-0.024428
  0
VERTEX
  8
0
 10
487.688515
 20
109.403828
 42
0.033057
  0
VERTEX
  8
0
 10
486.155581
 20
110.411445
 42
0.018208
  0
VERTEX
  8
0
 10
484.163642
 20
111.445933
 42
0.018084
  0
VERTEX
  8
0
 10
482.058211
 20
112.352075
 42
0.027550
  0
VERTEX
  8
0
 10
480.166437
 20
112.968868
 42
-0.019592
  0
VERTEX
  8
0
 10
478.220959
 20
113.569109
 42
-0.062137
  0
VERTEX
  8
0
 10
477.004149
 20
114.175860
 42
-0.118207
  0
VERTEX
  8
0
 10
476.411509
 20
114.813548
 42
-0.223589
  0
VERTEX
  8
0
 10
476.361051
 20
115.498499
 42
0.018204
  0
VERTEX
  8
0
 10
476.631667
 20
116.288555
 42
0.003519
  0
VERTEX
  8
0
 10
477.058599
 20
117.737398
 42
0.003740
  0
VERTEX
  8
0
 10
477.532286
 20
119.435464
 42
0.003445
  0
VERTEX
  8
0
 10
477.993986
 20
121.187454
 42
-0.001820
  0
VERTEX
  8
0
 10
478.446162
 20
122.926214
 42
-0.002086
  0
VERTEX
  8
0
 10
478.891243
 20
124.584400
 42
-0.001879
  0
VERTEX
  8
0
 10
479.279910
 20
125.987867
 42
-0.011927
  0
VERTEX
  8
0
 10
479.497116
 20
126.695609
 42
-0.317336
  0
VERTEX
  8
0
 10
480.588202
 20
127.498852
 42
-0.040293
  0
VERTEX
  8
0
 10
483.670390
 20
127.312123
 42
-0.037492
  0
VERTEX
  8
0
 10
487.566706
 20
126.457178
 42
-0.028476
  0
SEQEND
  0
POLYLINE
  8
0
 66
1
 70
1
  0
VERTEX
  8
0
 10
160.500000
 20
123.317886
 42
0.005428
  0
VERTEX
  8
0
 10
156.262535
 20
121.090069
 42
0.000688
  0
VERTEX
  8
0
 10
147.184375
 20
116.174623
 42
0.000807
  0
VERTEX
  8
0
 10
136.425161
 20
110.307281
 42
0.000671
  0
VERTEX
  8
0
 10
125.000000
 20
104.032889
 42
-0.000440
  0
VERTEX
  8
0
 10
113.318739
 20
97.610825
 42
-0.000459
  0
VERTEX
  8
0
 10
101.787500
 20
91.298192
 42
-0.000440
  0
VERTEX
  8
0
 10
91.809345
 20
85.859066
 42
-0.002016
  0
VERTEX
  8
0
 10
86.000000
 20
82.729291
 42
-0.011082
  0
VERTEX
  8
0
 10
77.571210
 20
78.469265
 42
-0.010589
  0
VERTEX
  8
0
 10
68.834236
 20
74.518952
 42
-0.003707
  0
VERTEX
  8
0
 10
60.615973
 20
71.082633
 42
-0.302235
  0
VERTEX
  8
0
 10
59.324385
 20
71.342282
 42
-0.449662
  0
VERTEX
  8
0
 10
59.345106
 20
71.688686
 42
-0.002570
  0
VERTEX
  8
0
 10
62.227830
 20
73.929514
 42
-0.007957
  0
VERTEX
  8
0
 10
65.687035
 20
76.503485
 42
-0.004712
  0
VERTEX
  8
0
 10
69.889928
 20
79.468405
 42
0.006595
  0
VERTEX
  8
0
 10
74.269888
 20
82.583004
 42
0.007992
  0
VERTEX
  8
0
 10
78.290782
 20
85.622687
 42
0.006906
  0
VERTEX
  8
0
 10
81.589578
 20
88.274557
 42
0.053390
  0
VERTEX
  8
0
 10
82.970382
 20
89.689476
 42
0.103670
  0
VERTEX
  8
0
 10
84.753748
 20
93.289753
 42
0.119132
  0
VERTEX
  8
0
 10
84.815629
 20
97.117372
 42
0.090798
  0
VERTEX
  8
0
 10
83.021633
 20
101.336091
 42
0.040116
  0
VERTEX
  8
0
 10
79.277811
 20
106.126560
 42
0.000000
  0
VERTEX
  8
0
 10
76.862344
 20
108.753119
 42
0.000000
  0
VERTEX
  8
0
 10
92.181172
 20
109.226532
 42
0.019478
  0
VERTEX
  8
0
 10
105.596002
 20
110.165009
 42
0.024271
  0
VERTEX
  8
0
 10
117.935229
 20
112.122492
 42
0.020892
  0
VERTEX
  8
0
 10
131.400032
 20
115.526791
 42
0.009830
  0
VERTEX
  8
0
 10
148.500000
 20
120.986993
 42
-0.001394
  0
VERTEX
  8
0
 10
155.087885
 20
123.213729
 42
-0.002147
  0
VERTEX
  8
0
 10
160.800000
 20
125.099484
 42
-0.000683
  0
VERTEX
  8
0
 10
165.756878
 20
126.704854
 42
-0.063598
  0
VERTEX
  8
0
 10
166.500000
 20
126.843780
 42
-0.772029
  0
VERTEX
  8
0
 10
166.549608
 20
126.690854
 42
-0.009573
  0
VERTEX
  8
0
 10
165.150000
 20
125.831913
 42
-0.009704
  0
VERTEX
  8
0
 10
163.117332
 20
124.689901
 42
-0.004825
  0
SEQEND
  0
POLYLINE
  8
0
 66
1
 70
1
  0
VERTEX
  8
0
 10
167.458036
 20
121.865428
 42
0.012744
  0
VERTEX
  8
0
 10
155.776807
 20
114.768484
 42
0.016473
  0
VERTEX
  8
0
 10
145.454779
 20
107.640180
 42
0.013722
  0
VERTEX
  8
0
 10
134.278817
 20
98.880750
 42
0.005697
  0
VERTEX
  8
0
 10
119.649071
 20
86.467854
 42
0.005241
  0
VERTEX
  8
0
 10
114.806938
 20
82.173795
 42
0.008109
  0
VERTEX
  8
0
 10
110.725207
 20
78.354620
 42
0.003423
  0
VERTEX
  8
0
 10
107.338978
 20
75.036481
 42
0.197999
  0
VERTEX
  8
0
 10
107.008529
 20
74.250000
 42
0.272936
  0
VERTEX
  8
0
 10
107.560680
 20
73.299080
 42
0.193884
  0
VERTEX
  8
0
 10
108.813201
 20
73.136834
 42
0.083158
  0
VERTEX
  8
0
 10
110.810642
 20
74.029155
 42
0.032702
  0
VERTEX
  8
0
 10
113.215204
 20
75.862615
 42
-0.037906
  0
VERTEX
  8
0
 10
123.013216
 20
83.173721
 42
-0.019139
  0
VERTEX
  8
0
 10
136.340937
 20
90.929104
 42
-0.018929
  0
VERTEX
  8
0
 10
150.747950
 20
97.904066
 42
-0.027326
  0
VERTEX
  8
0
 10
164.000000
 20
102.867770
 42
-0.014779
  0
VERTEX
  8
0
 10
176.577705
 20
106.405593
 42
-0.022601
  0
VERTEX
  8
0
 10
187.681448
 20
108.650005
 42
-0.021300
  0
VERTEX
  8
0
 10
199.410953
 20
109.965147
 42
-0.011350
  0
VERTEX
  8
0
 10
214.000000
 20
110.642031
 42
-0.003400
  0
VERTEX
  8
0
 10
222.065336
 20
110.778057
 42
-0.008855
  0
VERTEX
  8
0
 10
227.869429
 20
110.733682
 42
-0.007869
  0
VERTEX
  8
0
 10
231.903948
 20
110.567800
 42
-0.735089
  0
VERTEX
  8
0
 10
232.000000
 20
110.185557
 42
-0.055549
  0
VERTEX
  8
0
 10
231.157697
 20
109.790847
 42
-0.014735
  0
VERTEX
  8
0
 10
229.736249
 20
109.354612
 42
-0.014760
  0
VERTEX
  8
0
 10
228.079676
 20
108.951355
 42
-0.014701
  0
VERTEX
  8
0
 10
226.399997
 20
108.645938
 42
0.046861
  0
VERTEX
  8
0
 10
215.376315
 20
105.900108
 42
0.022413
  0
VERTEX
  8
0
 10
201.823270
 20
100.446131
 42
0.019384
  0
VERTEX
  8
0
 10
186.311009
 20
92.641023
 42
0.012981
  0
VERTEX
  8
0
 10
169.179459
 20
82.582753
 42
-0.008940
  0
VERTEX
  8
0
 10
151.487490
 20
72.002236
 42
-0.034744
  0
VERTEX
  8
0
 10
140.009026
 20
66.434294
 42
-0.030574
  0
VERTEX
  8
0
 10
127.193345
 20
62.172389
 42
-0.005837
  0
VERTEX
  8
0
 10
103.386741
 20
56.138024
 42
0.027043
  0
VERTEX
  8
0
 10
86.784694
 20
51.172098
 42
0.038476
  0
VERTEX
  8
0
 10
72.740143
 20
44.872682
 42
0.041031
  0
VERTEX
  8
0
 10
60.526174
 20
36.860664
 42
0.037916
  0
VERTEX
  8
0
 10
49.433464
 20
26.765042
 42
-0.008865
  0
VERTEX
  8
0
 10
44.186425
 20
21.400815
 42
-0.818204
  0
VERTEX
  8
0
 10
43.672657
 20
21.746879
 42
-0.060071
  0
VERTEX
  8
0
 10
45.391492
 20
24.794941
 42
-0.002610
  0
VERTEX
  8
0
 10
52.703776
 20
34.643248
 42
0.017599
  0
VERTEX
  8
0
 10
60.788764
 20
46.243076
 42
0.068423
  0
VERTEX
  8
0
 10
64.484210
 20
54.156696
 42
0.126080
  0
VERTEX
  8
0
 10
64.777491
 20
60.087587
 42
0.147039
  0
VERTEX
  8
0
 10
62.114574
 20
65.039272
 42
0.000000
  0
VERTEX
  8
0
 10
59.229148
 20
67.924698
 42
0.000000
  0
VERTEX
  8
0
 10
64.806210
 20
69.545994
 42
0.041934
  0
VERTEX
  8
0
 10
71.773798
 20
72.222277
 42
0.005469
  0
VERTEX
  8
0
 10
86.023222
 20
79.308519
 42
0.005841
  0
VERTEX
  8
0
 10
103.843899
 20
88.679356
 42
0.003500
  0
VERTEX
  8
0
 10
124.806125
 20
100.207054
 42
-0.002610
  0
VERTEX
  8
0
 10
142.292455
 20
109.863826
 42
-0.003264
  0
VERTEX
  8
0
 10
158.623757
 20
118.633956
 42
-0.000809
  0
VERTEX
  8
0
 10
173.557116
 20
126.497293
 42
-0.116917
  0
VERTEX
  8
0
 10
175.458036
 20
126.983235
 42
-0.747929
  0
VERTEX
  8
0
 10
175.514345
 20
126.803715
 42
-0.005319
  0
VERTEX
  8
0
 10
173.503225
 20
125.486795
 42
-0.007963
  0
VERTEX
  8
0
 10
170.828082
 20
123.834872
 42
-0.004201
  0
SEQEND
  0
POLYLINE
  8
0
 66
1
 70
1
  0
VERTEX
  8
0
 10
483.659085
 20
110.304242
 42
-0.025133
  0
VERTEX
  8
0
 10
484.997747
 20
109.608211
 42
-0.018498
  0
VERTEX
  8
0
 10
486.408331
 20
108.710576
 42
-0.018786
  0
VERTEX
  8
0
 10
487.682045
 20
107.759694
 42
-0.039115
  0
VERTEX
  8
0
 10
488.582057
 20
106.909328
 42
-0.046515
  0
VERTEX
  8
0
 10
489.539071
 20
105.630912
 42
-0.162102
  0
VERTEX
  8
0
 10
489.769275
 20
104.639830
 42
-0.093417
  0
VERTEX
  8
0
 10
489.413089
 20
103.398694
 42
-0.009939
  0
VERTEX
  8
0
 10
488.004608
 20
100.730127
 42
-0.010975
  0
VERTEX
  8
0
 10
486.947287
 20
98.915051
 42
-0.008170
  0
VERTEX
  8
0
 10
485.704397
 20
96.957737
 42
-0.008266
  0
VERTEX
  8
0
 10
484.471091
 20
95.149698
 42
-0.018497
  0
VERTEX
  8
0
 10
483.461935
 20
93.828125
 42
0.000000
  0
VERTEX
  8
0
 10
481.260596
 20
91.156250
 42
0.000000
  0
VERTEX
  8
0
 10
479.165251
 20
93.990356
 42
0.047905
  0
VERTEX
  8
0
 10
478.072960
 20
95.205086
 42
0.024503
  0
VERTEX
  8
0
 10
476.495234
 20
96.517049
 42
0.024103
  0
VERTEX
  8
0
 10
474.722963
 20
97.720425
 42
0.033209
  0
VERTEX
  8
0
 10
473.018229
 20
98.612057
 42
-0.014592
  0
VERTEX
  8
0
 10
471.484222
 20
99.343053
 42
-0.023830
  0
VERTEX
  8
0
 10
470.235082
 20
100.060798
 42
-0.020499
  0
VERTEX
  8
0
 10
469.322636
 20
100.698754
 42
-0.341919
  0
VERTEX
  8
0
 10
469.233276
 20
101.033699
 42
-0.019559
  0
VERTEX
  8
0
 10
469.439124
 20
101.474018
 42
-0.000696
  0
VERTEX
  8
0
 10
470.298784
 20
103.134117
 42
-0.001285
  0
VERTEX
  8
0
 10
471.322601
 20
105.092180
 42
-0.000900
  0
VERTEX
  8
0
 10
472.485990
 20
107.293695
 42
-0.028502
  0
VERTEX
  8
0
 10
474.770878
 20
111.063150
 42
-0.178272
  0
VERTEX
  8
0
 10
476.580528
 20
112.344270
 42
-0.154388
  0
VERTEX
  8
0
 10
478.935102
 20
112.242579
 42
-0.019928
  0
SEQEND
  0
POLYLINE
  8
0
 66
1
 70
1
  0
VERTEX
  8
0
 10
284.729167
 20
106.395833
 42
-0.126455
  0
VERTEX
  8
0
 10
284.402231
 20
106.202593
 42
-0.060344
  0
VERTEX
  8
0
 10
283.916927
 20
106.123424
 42
-0.054150
  0
VERTEX
  8
0
 10
283.359369
 20
106.160852
 42
-0.051402
  0
VERTEX
  8
0
 10
282.812500
 20
106.316886
 42
-0.054073
  0
VERTEX
  8
0
 10
282.395823
 20
106.538436
 42
-0.470617
  0
VERTEX
  8
0
 10
282.378580
 20
106.720685
 42
-0.168741
  0
VERTEX
  8
0
 10
282.670344
 20
106.862007
 42
-0.018894
  0
VERTEX
  8
0
 10
283.416667
 20
106.921053
 42
-0.028489
  0
VERTEX
  8
0
 10
284.112848
 20
106.910055
 42
-0.077125
  0
VERTEX
  8
0
 10
284.592839
 20
106.799335
 42
-0.208169
  0
VERTEX
  8
0
 10
284.775380
 20
106.614691
 42
-0.296942
  0
SEQEND
  0
POLYLINE
  8
0
 66
1
 70
1
  0
VERTEX
  8
0
 10
297.114348
 20
102.866195
 42
-0.007455
  0
VERTEX
  8
0
 10
300.903914
 20
101.602402
 42
-0.011922
  0
VERTEX
  8
0
 10
304.096090
 20
100.398501
 42
-0.005798
  0
VERTEX
  8
0
 10
306.711750
 20
99.304667
 42
-0.299261
  0
VERTEX
  8
0
 10
307.000000
 20
98.866195
 42
-0.315023
  0
VERTEX
  8
0
 10
306.634442
 20
98.343565
 42
-0.156518
  0
VERTEX
  8
0
 10
305.786529
 20
98.310009
 42
-0.022406
  0
VERTEX
  8
0
 10
303.732861
 20
98.980937
 42
-0.000781
  0
VERTEX
  8
0
 10
295.886573
 20
101.953433
 42
-0.000703
  0
VERTEX
  8
0
 10
286.837397
 20
105.412395
 42
-0.591235
  0
VERTEX
  8
0
 10
286.785643
 20
105.789509
 42
-0.240421
  0
VERTEX
  8
0
 10
287.480579
 20
105.906937
 42
-0.000623
  0
SEQEND
  0
POLYLINE
  8
0
 66
1
 70
1
  0
VERTEX
  8
0
 10
214.109561
 20
100.563732
 42
0.073272
  0
VERTEX
  8
0
 10
194.517506
 20
89.043550
 42
0.077710
  0
VERTEX
  8
0
 10
179.530820
 20
72.559519
 42
0.079301
  0
VERTEX
  8
0
 10
170.509212
 20
52.598084
 42
0.080966
  0
VERTEX
  8
0
 10
168.237678
 20
30.966108
 42
-0.004899
  0
VERTEX
  8
0
 10
168.399930
 20
27.528034
 42
-0.008193
  0
VERTEX
  8
0
 10
168.460644
 20
24.633794
 42
-0.002681
  0
VERTEX
  8
0
 10
168.458744
 20
22.178822
 42
-0.412417
  0
VERTEX
  8
0
 10
168.278822
 20
22.000000
 42
-0.126779
  0
VERTEX
  8
0
 10
167.983309
 20
22.076154
 42
-0.007367
  0
VERTEX
  8
0
 10
167.167106
 20
22.542570
 42
-0.010800
  0
VERTEX
  8
0
 10
166.205419
 20
23.139478
 42
-0.007711
  0
VERTEX
  8
0
 10
165.154370
 20
23.847048
 42
0.071105
  0
VERTEX
  8
0
 10
159.891701
 20
26.493640
 42
0.055944
  0
VERTEX
  8
0
 10
153.646150
 20
27.839338
 42
0.053503
  0
VERTEX
  8
0
 10
146.968243
 20
27.796224
 42
0.052974
  0
VERTEX
  8
0
 10
140.428139
 20
26.339159
 42
0.043429
  0
VERTEX
  8
0
 10
137.643481
 20
25.122693
 42
0.037167
  0
VERTEX
  8
0
 10
134.953099
 20
23.386968
 42
0.027706
  0
VERTEX
  8
0
 10
131.922916
 20
20.820859
 42
0.010667
  0
VERTEX
  8
0
 10
128.000000
 20
16.944768
 42
-0.006801
  0
VERTEX
  8
0
 10
124.968275
 20
13.902541
 42
-0.008430
  0
VERTEX
  8
0
 10
122.061499
 20
11.158176
 42
-0.007093
  0
VERTEX
  8
0
 10
119.557814
 20
8.937253
 42
-0.060790
  0
VERTEX
  8
0
 10
118.315741
 20
8.105609
 42
-0.112307
  0
VERTEX
  8
0
 10
113.943478
 20
7.012932
 42
-0.079911
  0
VERTEX
  8
0
 10
108.923385
 20
7.711490
 42
-0.054253
  0
VERTEX
  8
0
 10
102.752151
 20
10.365472
 42
-0.020178
  0
VERTEX
  8
0
 10
94.713228
 20
15.348491
 42
0.027265
  0
VERTEX
  8
0
 10
89.429972
 20
18.520674
 42
0.031087
  0
VERTEX
  8
0
 10
84.054504
 20
20.947431
 42
0.033852
  0
VERTEX
  8
0
 10
78.951126
 20
22.493875
 42
0.056698
  0
VERTEX
  8
0
 10
74.502158
 20
23.000000
 42
0.050645
  0
VERTEX
  8
0
 10
67.241311
 20
22.262650
 42
0.028993
  0
VERTEX
  8
0
 10
58.722188
 20
19.992924
 42
0.028877
  0
VERTEX
  8
0
 10
50.434479
 20
16.720259
 42
0.046271
  0
VERTEX
  8
0
 10
43.863473
 20
12.902785
 42
0.000000
  0
VERTEX
  8
0
 10
40.768541
 20
10.698998
 42
0.000000
  0
VERTEX
  8
0
 10
41.961163
 20
12.927432
 42
-0.063055
  0
VERTEX
  8
0
 10
44.600741
 20
16.645658
 42
-0.008803
  0
VERTEX
  8
0
 10
51.121108
 20
23.493714
 42
-0.010818
  0
VERTEX
  8
0
 10
58.158486
 20
30.326707
 42
-0.024983
  0
VERTEX
  8
0
 10
63.798459
 20
35.068248
 42
-0.032820
  0
VERTEX
  8
0
 10
74.425828
 20
42.084231
 42
-0.035597
  0
VERTEX
  8
0
 10
85.602588
 20
47.438057
 42
-0.026178
  0
VERTEX
  8
0
 10
100.022940
 20
52.268248
 42
-0.008708
  0
VERTEX
  8
0
 10
121.597516
 20
57.856531
 42
0.017577
  0
VERTEX
  8
0
 10
135.021519
 20
61.588879
 42
0.029383
  0
VERTEX
  8
0
 10
145.966419
 20
65.772226
 42
0.024361
  0
VERTEX
  8
0
 10
157.662696
 20
71.751026
 42
0.008364
  0
VERTEX
  8
0
 10
174.000000
 20
81.499368
 42
-0.006299
  0
VERTEX
  8
0
 10
186.262293
 20
88.885011
 42
-0.013540
  0
VERTEX
  8
0
 10
195.931463
 20
94.197920
 42
-0.016658
  0
VERTEX
  8
0
 10
204.442952
 20
98.226237
 42
-0.017928
  0
VERTEX
  8
0
 10
213.000000
 20
101.573570
 42
-0.002051
  0
VERTEX
  8
0
 10
219.962618
 20
103.981216
 42
-0.273317
  0
VERTEX
  8
0
 10
220.807668
 20
103.805708
 42
-0.549228
  0
VERTEX
  8
0
 10
220.715822
 20
103.277260
 42
-0.002235
  0
SEQEND
  0
POLYLINE
  8
0
 66
1
 70
1
  0
VERTEX
  8
0
 10
226.500000
 20
99.795979
 42
0.039434
  0
VERTEX
  8
0
 10
221.893423
 20
95.926985
 42
0.024277
  0
VERTEX
  8
0
 10
217.090740
 20
90.717936
 42
0.024173
  0
VERTEX
  8
0
 10
212.774460
 20
85.015929
 42
0.036509
  0
VERTEX
  8
0
 10
209.645536
 20
79.634197
 42
0.025263
  0
VERTEX
  8
0
 10
207.048642
 20
73.545140
 42
0.031742
  0
VERTEX
  8
0
 10
205.300053
 20
67.667260
 42
0.029926
  0
VERTEX
  8
0
 10
204.241167
 20
61.341380
 42
0.018923
  0
VERTEX
  8
0
 10
203.731362
 20
53.875236
 42
0.000000
  0
VERTEX
  8
0
 10
203.500000
 20
46.250473
 42
0.000000
  0
VERTEX
  8
0
 10
197.291512
 20
45.666738
 42
0.065595
  0
VERTEX
  8
0
 10
189.217835
 20
43.821003
 42
0.079749
  0
VERTEX
  8
0
 10
182.472676
 20
40.004405
 42
0.080857
  0
VERTEX
  8
0
 10
177.328809
 20
34.318142
 42
0.069788
  0
VERTEX
  8
0
 10
173.934341
 20
27.006474
 42
-0.845231
  0
VERTEX
  8
0
 10
173.223038
 20
27.097974
 42
-0.011903
  0
VERTEX
  8
0
 10
173.093173
 20
35.412182
 42
-0.009237
  0
VERTEX
  8
0
 10
173.358543
 20
45.363437
 42
-0.047787
  0
VERTEX
  8
0
 10
174.129211
 20
50.807180
 42
-0.038210
  0
VERTEX
  8
0
 10
175.998800
 20
56.593449
 42
-0.016441
  0
VERTEX
  8
0
 10
179.321526
 20
63.998467
 42
-0.016497
  0
VERTEX
  8
0
 10
183.153987
 20
71.224368
 42
-0.035128
  0
VERTEX
  8
0
 10
186.675932
 20
76.474585
 42
-0.041589
  0
VERTEX
  8
0
 10
193.160200
 20
83.516022
 42
-0.038478
  0
VERTEX
  8
0
 10
200.882390
 20
89.590360
 42
-0.035910
  0
VERTEX
  8
0
 10
209.959912
 20
94.761505
 42
-0.027686
  0
VERTEX
  8
0
 10
220.500000
 20
99.102295
 42
-0.001100
  0
VERTEX
  8
0
 10
227.173029
 20
101.411185
 42
-0.054004
  0
VERTEX
  8
0
 10
228.540210
 20
101.721232
 42
-0.754361
  0
VERTEX
  8
0
 10
228.662933
 20
101.425477
 42
-0.012947
  0
SEQEND
  0
POLYLINE
  8
0
 66
1
 70
1
  0
VERTEX
  8
0
 10
315.250000
 20
96.906689
 42
-0.060278
  0
VERTEX
  8
0
 10
317.392119
 20
95.909372
 42
-0.099511
  0
VERTEX
  8
0
 10
318.841476
 20
94.546896
 42
-0.283580
  0
VERTEX
  8
0
 10
318.907923
 20
93.530247
 42
-0.277677
  0
VERTEX
  8
0
 10
318.026751
 20
93.000000
 42
-0.109661
  0
VERTEX
  8
0
 10
315.996807
 20
93.450629
 42
-0.017832
  0
VERTEX
  8
0
 10
312.380141
 20
95.299424
 42
-0.011715
  0
VERTEX
  8
0
 10
308.840172
 20
97.381393
 42
-0.413774
  0
VERTEX
  8
0
 10
308.640966
 20
98.228088
 42
-0.113791
  0
VERTEX
  8
0
 10
308.935917
 20
98.526132
 42
-0.084894
  0
VERTEX
  8
0
 10
309.364244
 20
98.704517
 42
-0.078832
  0
VERTEX
  8
0
 10
309.858246
 20
98.738113
 42
-0.077441
  0
VERTEX
  8
0
 10
310.341641
 20
98.617763
 42
0.013335
  0
VERTEX
  8
0
 10
311.011178
 20
98.356600
 42
0.002453
  0
VERTEX
  8
0
 10
312.261294
 20
97.913913
 42
0.002634
  0
VERTEX
  8
0
 10
313.729367
 20
97.410793
 42
0.002394
  0
SEQEND
  0
POLYLINE
  8
0
 66
1
 70
1
  0
VERTEX
  8
0
 10
473.019231
 20
96.990189
 42
-0.037370
  0
VERTEX
  8
0
 10
474.639064
 20
96.004958
 42
-0.028852
  0
VERTEX
  8
0
 10
476.248402
 20
94.706629
 42
-0.029575
  0
VERTEX
  8
0
 10
477.616224
 20
93.310436
 42
-0.059759
  0
VERTEX
  8
0
 10
478.480011
 20
92.038654
 42
-0.031774
  0
VERTEX
  8
0
 10
479.314456
 20
90.138149
 42
-0.199164
  0
VERTEX
  8
0
 10
479.269820
 20
89.100452
 42
-0.124387
  0
VERTEX
  8
0
 10
478.483187
 20
88.134969
 42
-0.009667
  0
VERTEX
  8
0
 10
475.750618
 20
86.182989
 42
-0.017826
  0
VERTEX
  8
0
 10
470.702301
 20
82.980531
 42
-0.022546
  0
VERTEX
  8
0
 10
465.811903
 20
80.406063
 42
-0.018923
  0
VERTEX
  8
0
 10
461.795029
 20
78.699964
 42
-0.525259
  0
VERTEX
  8
0
 10
461.000000
 20
79.247963
 42
0.082194
  0
VERTEX
  8
0
 10
460.880544
 20
79.969729
 42
0.013715
  0
VERTEX
  8
0
 10
460.389826
 20
81.291585
 42
0.014712
  0
VERTEX
  8
0
 10
459.718066
 20
82.827432
 42
0.012568
  0
VERTEX
  8
0
 10
458.922811
 20
84.405203
 42
0.000000
  0
VERTEX
  8
0
 10
456.845621
 20
88.280789
 42
0.000000
  0
VERTEX
  8
0
 10
462.138650
 20
93.640394
 42
-0.007258
  0
VERTEX
  8
0
 10
464.226618
 20
95.694123
 42
-0.010780
  0
VERTEX
  8
0
 10
466.118902
 20
97.425616
 42
-0.006159
  0
VERTEX
  8
0
 10
467.744462
 20
98.814879
 42
-0.175484
  0
VERTEX
  8
0
 10
468.255678
 20
99.000000
 42
-0.092079
  0
VERTEX
  8
0
 10
468.765487
 20
98.905312
 42
-0.007994
  0
VERTEX
  8
0
 10
469.994871
 20
98.409618
 42
-0.010302
  0
VERTEX
  8
0
 10
471.450271
 20
97.759926
 42
-0.007821
  0
SEQEND
  0
POLYLINE
  8
0
 66
1
 70
1
  0
VERTEX
  8
0
 10
332.400000
 20
89.091534
 42
-0.004143
  0
VERTEX
  8
0
 10
332.350857
 20
88.599992
 42
-0.002557
  0
VERTEX
  8
0
 10
332.285313
 20
88.022660
 42
-0.002564
  0
VERTEX
  8
0
 10
332.214685
 20
87.452693
 42
-0.004599
  0
VERTEX
  8
0
 10
332.150000
 20
86.985605
 42
-0.436946
  0
VERTEX
  8
0
 10
331.790500
 20
86.739606
 42
-0.022987
  0
VERTEX
  8
0
 10
330.290645
 20
87.154311
 42
-0.024242
  0
VERTEX
  8
0
 10
328.331164
 20
87.901269
 42
-0.013703
  0
VERTEX
  8
0
 10
326.030919
 20
88.984392
 42
-0.014068
  0
VERTEX
  8
0
 10
323.388897
 20
90.412724
 42
-0.039795
  0
VERTEX
  8
0
 10
321.663555
 20
91.601463
 42
-0.062725
  0
VERTEX
  8
0
 10
320.709820
 20
92.599578
 42
-0.256350
  0
VERTEX
  8
0
 10
320.600521
 20
93.401358
 42
-0.210628
  0
VERTEX
  8
0
 10
321.171404
 20
93.976600
 42
-0.130451
  0
VERTEX
  8
0
 10
322.132850
 20
94.087245
 42
-0.051746
  0
VERTEX
  8
0
 10
323.779534
 20
93.669829
 42
-0.008684
  0
VERTEX
  8
0
 10
326.819602
 20
92.494105
 42
-0.016018
  0
VERTEX
  8
0
 10
328.989012
 20
91.529398
 42
-0.024277
  0
VERTEX
  8
0
 10
330.802008
 20
90.541298
 42
-0.021252
  0
VERTEX
  8
0
 10
332.154876
 20
89.635390
 42
-0.263243
  0
SEQEND
  0
POLYLINE
  8
0
 66
1
 70
1
  0
VERTEX
  8
0
 10
341.033244
 20
86.483154
 42
-0.020565
  0
VERTEX
  8
0
 10
343.168596
 20
85.288309
 42
-0.041554
  0
VERTEX
  8
0
 10
344.720045
 20
84.146794
 42
-0.055339
  0
VERTEX
  8
0
 10
345.693544
 20
83.086691
 42
-0.159398
  0
VERTEX
  8
0
 10
346.000000
 20
82.149821
 42
-0.097874
  0
VERTEX
  8
0
 10
345.659022
 20
80.424583
 42
-0.298878
  0
VERTEX
  8
0
 10
344.720126
 20
79.782678
 42
-0.110035
  0
VERTEX
  8
0
 10
342.884977
 20
80.155357
 42
-0.011985
  0
VERTEX
  8
0
 10
338.965705
 20
82.017312
 42
-0.011449
  0
VERTEX
  8
0
 10
335.911569
 20
83.647825
 42
-0.060537
  0
VERTEX
  8
0
 10
334.385918
 20
84.770039
 42
-0.126909
  0
VERTEX
  8
0
 10
333.734810
 20
85.801219
 42
-0.142583
  0
VERTEX
  8
0
 10
333.702659
 20
86.970969
 42
-0.096365
  0
VERTEX
  8
0
 10
334.382941
 20
88.386792
 42
-0.254595
  0
VERTEX
  8
0
 10
335.370884
 20
88.842456
 42
-0.092475
  0
VERTEX
  8
0
 10
337.075098
 20
88.405715
 42
-0.008432
  0
SEQEND
  0
POLYLINE
  8
0
 66
1
 70
1
  0
VERTEX
  8
0
 10
457.474320
 20
84.049660
 42
-0.050516
  0
VERTEX
  8
0
 10
458.981360
 20
80.235660
 42
-0.201343
  0
VERTEX
  8
0
 10
458.681715
 20
77.792022
 42
-0.142143
  0
VERTEX
  8
0
 10
456.594583
 20
75.772171
 42
-0.021660
  0
VERTEX
  8
0
 10
451.305912
 20
73.260944
 42
-0.003283
  0
VERTEX
  8
0
 10
448.355349
 20
72.036247
 42
-0.005397
  0
VERTEX
  8
0
 10
445.841413
 20
71.043583
 42
-0.001207
  0
VERTEX
  8
0
 10
443.643335
 20
70.209026
 42
-0.330636
  0
VERTEX
  8
0
 10
443.461548
 20
70.260944
 42
-0.116868
  0
VERTEX
  8
0
 10
443.372870
 20
70.458838
 42
-0.002105
  0
VERTEX
  8
0
 10
443.159140
 20
71.604777
 42
-0.005119
  0
VERTEX
  8
0
 10
442.928343
 20
72.949762
 42
-0.003380
  0
VERTEX
  8
0
 10
442.689376
 20
74.500000
 42
-0.036575
  0
VERTEX
  8
0
 10
442.502172
 20
77.057485
 42
-0.152181
  0
VERTEX
  8
0
 10
442.956775
 20
78.516263
 42
-0.087405
  0
VERTEX
  8
0
 10
444.294070
 20
79.872118
 42
-0.007599
  0
VERTEX
  8
0
 10
448.300217
 20
82.628925
 42
-0.003759
  0
VERTEX
  8
0
 10
450.728315
 20
84.219768
 42
-0.005497
  0
VERTEX
  8
0
 10
452.891583
 20
85.580544
 42
-0.002815
  0
VERTEX
  8
0
 10
454.739900
 20
86.700760
 42
-0.093677
  0
VERTEX
  8
0
 10
455.224320
 20
86.878925
 42
-0.242356
  0
VERTEX
  8
0
 10
455.592035
 20
86.761169
 42
-0.028381
  0
VERTEX
  8
0
 10
456.184039
 20
86.097772
 42
-0.028949
  0
VERTEX
  8
0
 10
456.837156
 20
85.171146
 42
-0.019710
  0
SEQEND
  0
POLYLINE
  8
0
 66
1
 70
1
  0
VERTEX
  8
0
 10
356.226347
 20
79.365632
 42
-0.010181
  0
VERTEX
  8
0
 10
359.105209
 20
77.844590
 42
-0.107726
  0
VERTEX
  8
0
 10
360.097084
 20
76.972800
 42
-0.211928
  0
VERTEX
  8
0
 10
360.308898
 20
76.014086
 42
-0.056884
  0
VERTEX
  8
0
 10
359.815832
 20
74.495140
 42
-0.018724
  0
VERTEX
  8
0
 10
359.337425
 20
73.541482
 42
-0.027149
  0
VERTEX
  8
0
 10
358.839762
 20
72.741841
 42
-0.025785
  0
VERTEX
  8
0
 10
358.381736
 20
72.154766
 42
-0.230985
  0
VERTEX
  8
0
 10
358.089485
 20
72.030276
 42
-0.107235
  0
VERTEX
  8
0
 10
357.688063
 20
72.139201
 42
-0.002872
  0
VERTEX
  8
0
 10
356.056938
 20
72.997452
 42
-0.005867
  0
VERTEX
  8
0
 10
354.149005
 20
74.044333
 42
-0.003970
  0
VERTEX
  8
0
 10
351.997963
 20
75.280276
 42
-0.013017
  0
VERTEX
  8
0
 10
349.135965
 20
77.056672
 42
-0.058952
  0
VERTEX
  8
0
 10
347.635123
 20
78.318993
 42
-0.108287
  0
VERTEX
  8
0
 10
346.942061
 20
79.480439
 42
-0.116528
  0
VERTEX
  8
0
 10
346.823215
 20
80.793504
 42
-0.168279
  0
VERTEX
  8
0
 10
347.509570
 20
82.127531
 42
-0.232267
  0
VERTEX
  8
0
 10
348.773648
 20
82.526524
 42
-0.070744
  0
VERTEX
  8
0
 10
351.161205
 20
81.808970
 42
-0.008126
  0
SEQEND
  0
POLYLINE
  8
0
 66
1
 70
1
  0
VERTEX
  8
0
 10
441.004304
 20
71.020834
 42
-0.171233
  0
VERTEX
  8
0
 10
439.819117
 20
69.253391
 42
-0.056910
  0
VERTEX
  8
0
 10
437.084313
 20
67.661205
 42
-0.037225
  0
VERTEX
  8
0
 10
432.739189
 20
66.128525
 42
-0.012762
  0
VERTEX
  8
0
 10
426.250000
 20
64.546210
 42
-0.019042
  0
VERTEX
  8
0
 10
424.168490
 20
64.176958
 42
-0.229861
  0
VERTEX
  8
0
 10
423.416457
 20
64.421493
 42
-0.190869
  0
VERTEX
  8
0
 10
423.064598
 20
65.194122
 42
-0.012777
  0
VERTEX
  8
0
 10
423.003697
 20
67.670545
 42
0.000000
  0
VERTEX
  8
0
 10
423.007393
 20
71.500000
 42
0.000000
  0
VERTEX
  8
0
 10
431.753697
 20
74.553514
 42
-0.003179
  0
VERTEX
  8
0
 10
437.485596
 20
76.513837
 42
-0.054116
  0
VERTEX
  8
0
 10
439.429772
 20
76.938494
 42
-0.216408
  0
VERTEX
  8
0
 10
440.426222
 20
76.609032
 42
-0.139435
  0
VERTEX
  8
0
 10
441.070679
 20
75.553514
 42
-0.046645
  0
VERTEX
  8
0
 10
441.244104
 20
74.588656
 42
-0.024821
  0
VERTEX
  8
0
 10
441.286587
 20
73.374965
 42
-0.024485
  0
VERTEX
  8
0
 10
441.206672
 20
72.120181
 42
-0.034754
  0
SEQEND
  0
POLYLINE
  8
0
 66
1
 70
1
  0
VERTEX
  8
0
 10
370.694627
 20
73.483126
 42
-0.026825
  0
VERTEX
  8
0
 10
372.966612
 20
72.387267
 42
-0.175431
  0
VERTEX
  8
0
 10
373.788679
 20
71.450762
 42
-0.212989
  0
VERTEX
  8
0
 10
373.735679
 20
70.314703
 42
-0.041285
  0
VERTEX
  8
0
 10
372.637641
 20
68.519122
 42
-0.071520
  0
VERTEX
  8
0
 10
371.656175
 20
67.515363
 42
-0.180412
  0
VERTEX
  8
0
 10
370.694112
 20
67.221085
 42
-0.075319
  0
VERTEX
  8
0
 10
369.249600
 20
67.529718
 42
-0.006177
  0
VERTEX
  8
0
 10
365.647845
 20
68.939994
 42
-0.011094
  0
VERTEX
  8
0
 10
363.514161
 20
69.861640
 42
-0.018647
  0
VERTEX
  8
0
 10
361.772051
 20
70.740488
 42
-0.013270
  0
VERTEX
  8
0
 10
360.449354
 20
71.517343
 42
-0.392894
  0
VERTEX
  8
0
 10
360.356012
 20
71.862002
 42
0.021177
  0
VERTEX
  8
0
 10
360.526654
 20
72.222684
 42
0.004634
  0
VERTEX
  8
0
 10
360.787938
 20
72.857808
 42
0.004817
  0
VERTEX
  8
0
 10
361.076480
 20
73.598689
 42
0.004607
  0
VERTEX
  8
0
 10
361.355126
 20
74.356069
 42
-0.197916
  0
VERTEX
  8
0
 10
362.296322
 20
75.399131
 42
-0.135598
  0
VERTEX
  8
0
 10
363.885979
 20
75.682419
 42
-0.061929
  0
VERTEX
  8
0
 10
366.469424
 20
75.113123
 42
-0.013797
  0
SEQEND
  0
POLYLINE
  8
0
 66
1
 70
1
  0
VERTEX
  8
0
 10
383.010266
 20
70.404250
 42
-0.016314
  0
VERTEX
  8
0
 10
386.770955
 20
69.779942
 42
-0.147803
  0
VERTEX
  8
0
 10
388.223060
 20
69.004261
 42
-0.255548
  0
VERTEX
  8
0
 10
388.584142
 20
67.777778
 42
-0.053414
  0
VERTEX
  8
0
 10
387.852189
 20
65.574936
 42
-0.091019
  0
VERTEX
  8
0
 10
386.662290
 20
63.869050
 42
-0.168994
  0
VERTEX
  8
0
 10
385.157182
 20
63.150575
 42
-0.086615
  0
VERTEX
  8
0
 10
382.803680
 20
63.297277
 42
-0.013406
  0
VERTEX
  8
0
 10
378.272759
 20
64.511640
 42
0.000000
  0
VERTEX
  8
0
 10
373.182515
 20
66.023280
 42
0.000000
  0
VERTEX
  8
0
 10
374.318032
 20
69.031607
 42
-0.036998
  0
VERTEX
  8
0
 10
374.856305
 20
70.190309
 42
-0.062725
  0
VERTEX
  8
0
 10
375.489107
 20
71.050715
 42
-0.087335
  0
VERTEX
  8
0
 10
376.133964
 20
71.527985
 42
-0.210354
  0
VERTEX
  8
0
 10
376.714595
 20
71.556026
 42
0.040503
  0
VERTEX
  8
0
 10
377.483123
 20
71.330494
 42
0.005884
  0
VERTEX
  8
0
 10
379.084130
 20
71.018079
 42
0.006630
  0
VERTEX
  8
0
 10
380.990224
 20
70.695423
 42
0.005636
  0
SEQEND
  0
POLYLINE
  8
0
 66
1
 70
1
  0
VERTEX
  8
0
 10
421.810365
 20
67.250000
 42
0.000000
  0
VERTEX
  8
0
 10
421.500000
 20
63.500000
 42
0.000000
  0
VERTEX
  8
0
 10
415.000000
 20
62.422674
 42
-0.002388
  0
VERTEX
  8
0
 10
412.492196
 20
62.019321
 42
-0.003807
  0
VERTEX
  8
0
 10
410.343899
 20
61.701044
 42
-0.000896
  0
VERTEX
  8
0
 10
408.464170
 20
61.440599
 42
-0.170551
  0
VERTEX
  8
0
 10
408.277105
 20
61.478902
 42
-0.314835
  0
VERTEX
  8
0
 10
408.212423
 20
61.623372
 42
-0.004027
  0
VERTEX
  8
0
 10
408.418648
 20
62.655981
 42
-0.009924
  0
VERTEX
  8
0
 10
408.697843
 20
63.875715
 42
-0.006133
  0
VERTEX
  8
0
 10
409.071956
 20
65.298434
 42
-0.032805
  0
VERTEX
  8
0
 10
409.659708
 20
66.986862
 42
-0.064884
  0
VERTEX
  8
0
 10
410.375953
 20
68.208851
 42
-0.082297
  0
VERTEX
  8
0
 10
411.246893
 20
69.015069
 42
-0.093547
  0
VERTEX
  8
0
 10
412.294852
 20
69.453270
 42
-0.000081
  0
VERTEX
  8
0
 10
413.284462
 20
69.663516
 42
-0.000051
  0
VERTEX
  8
0
 10
414.439738
 20
69.908640
 42
-0.000051
  0
VERTEX
  8
0
 10
415.575547
 20
70.149392
 42
-0.000094
  0
VERTEX
  8
0
 10
416.500000
 20
70.345064
 42
-0.015906
  0
VERTEX
  8
0
 10
419.877565
 20
70.947779
 42
-0.169722
  0
VERTEX
  8
0
 10
421.226223
 20
70.686360
 42
-0.250292
  0
VERTEX
  8
0
 10
421.835458
 20
69.698416
 42
-0.036180
  0
SEQEND
  0
POLYLINE
  8
0
 66
1
 70
1
  0
VERTEX
  8
0
 10
408.000000
 20
67.565100
 42
-0.046310
  0
VERTEX
  8
0
 10
407.932026
 20
66.832767
 42
-0.014592
  0
VERTEX
  8
0
 10
407.697974
 20
65.757313
 42
-0.014436
  0
VERTEX
  8
0
 10
407.365411
 20
64.566527
 42
-0.015529
  0
VERTEX
  8
0
 10
406.971827
 20
63.425900
 42
0.000000
  0
VERTEX
  8
0
 10
405.943655
 20
60.721601
 42
0.000000
  0
VERTEX
  8
0
 10
397.412095
 20
61.253866
 42
-0.004324
  0
VERTEX
  8
0
 10
394.111648
 20
61.488445
 42
-0.006665
  0
VERTEX
  8
0
 10
391.262461
 20
61.753999
 42
-0.002634
  0
VERTEX
  8
0
 10
388.835945
 20
62.025762
 42
-0.168724
  0
VERTEX
  8
0
 10
388.457658
 20
62.209009
 42
-0.235192
  0
VERTEX
  8
0
 10
388.350037
 20
62.530096
 42
-0.018532
  0
VERTEX
  8
0
 10
388.512044
 20
63.442983
 42
-0.022095
  0
VERTEX
  8
0
 10
388.806855
 20
64.565282
 42
-0.014966
  0
VERTEX
  8
0
 10
389.236628
 20
65.815943
 42
0.000000
  0
VERTEX
  8
0
 10
390.438475
 20
69.000000
 42
0.000000
  0
VERTEX
  8
0
 10
399.219238
 20
69.000000
 42
-0.006436
  0
VERTEX
  8
0
 10
403.750175
 20
68.941671
 42
-0.034072
  0
VERTEX
  8
0
 10
406.220144
 20
68.709146
 42
-0.074871
  0
VERTEX
  8
0
 10
407.557711
 20
68.278553
 42
-0.284819
  0
SEQEND
  0
POLYLINE
  8
0
 66
1
 70
1
  0
VERTEX
  8
0
 10
369.071418
 20
428.000000
 42
0.051080
  0
VERTEX
  8
0
 10
369.481936
 20
423.473568
 42
0.070511
  0
VERTEX
  8
0
 10
370.815109
 20
419.622965
 42
0.076304
  0
VERTEX
  8
0
 10
373.060600
 20
416.519872
 42
0.073793
  0
VERTEX
  8
0
 10
376.156978
 20
414.191512
 42
-0.022420
  0
VERTEX
  8
0
 10
377.557833
 20
413.347468
 42
-0.012170
  0
VERTEX
  8
0
 10
379.204306
 20
412.193179
 42
-0.012103
  0
VERTEX
  8
0
 10
380.825554
 20
410.934956
 42
-0.018720
  0
VERTEX
  8
0
 10
382.156273
 20
409.763991
 42
0.030799
  0
VERTEX
  8
0
 10
383.460603
 20
408.670971
 42
0.024258
  0
VERTEX
  8
0
 10
384.995028
 20
407.649362
 42
0.024842
  0
VERTEX
  8
0
 10
386.518920
 20
406.838067
 42
0.054047
  0
VERTEX
  8
0
 10
387.770166
 20
406.407309
 42
-0.024228
  0
VERTEX
  8
0
 10
389.110138
 20
406.033556
 42
-0.009131
  0
VERTEX
  8
0
 10
390.946549
 20
405.386592
 42
-0.009020
  0
VERTEX
  8
0
 10
392.922757
 20
404.608660
 42
-0.010854
  0
VERTEX
  8
0
 10
394.750000
 20
403.804112
 42
-0.019406
  0
VERTEX
  8
0
 10
397.302818
 20
402.490371
 42
-0.116715
  0
VERTEX
  8
0
 10
398.390836
 20
401.483940
 42
-0.125030
  0
VERTEX
  8
0
 10
398.875016
 20
400.128924
 42
-0.023608
  0
VERTEX
  8
0
 10
399.000000
 20
397.483374
 42
0.026264
  0
VERTEX
  8
0
 10
399.121260
 20
395.176519
 42
0.071351
  0
VERTEX
  8
0
 10
399.521277
 20
393.593391
 42
0.083180
  0
VERTEX
  8
0
 10
400.306853
 20
392.328985
 42
0.045623
  0
VERTEX
  8
0
 10
401.634859
 20
391.072580
 42
0.038092
  0
VERTEX
  8
0
 10
403.625075
 20
389.738953
 42
0.079393
  0
VERTEX
  8
0
 10
405.370238
 20
389.090486
 42
0.161203
  0
VERTEX
  8
0
 10
406.513159
 20
389.231014
 42
0.289937
  0
VERTEX
  8
0
 10
407.000000
 20
390.000000
 42
0.099038
  0
VERTEX
  8
0
 10
406.923658
 20
390.381638
 42
0.097945
  0
VERTEX
  8
0
 10
406.706250
 20
390.706250
 42
0.097945
  0
VERTEX
  8
0
 10
406.381638
 20
390.923658
 42
0.099038
  0
VERTEX
  8
0
 10
406.000000
 20
391.000000
 42
-0.172915
  0
VERTEX
  8
0
 10
404.587269
 20
391.503624
 42
-0.046237
  0
VERTEX
  8
0
 10
402.859884
 20
393.203247
 42
-0.046815
  0
VERTEX
  8
0
 10
401.441373
 20
395.243540
 42
-0.129204
  0
VERTEX
  8
0
 10
401.000000
 20
396.923077
 42
-0.074018
  0
VERTEX
  8
0
 10
401.131582
 20
397.807060
 42
-0.424235
  0
VERTEX
  8
0
 10
401.510000
 20
398.000628
 42
-0.106832
  0
VERTEX
  8
0
 10
402.228384
 20
397.567579
 42
-0.007515
  0
VERTEX
  8
0
 10
403.923077
 20
395.923077
 42
0.078092
  0
VERTEX
  8
0
 10
406.500256
 20
394.045870
 42
0.080144
  0
VERTEX
  8
0
 10
409.506357
 20
393.070600
 42
0.074305
  0
VERTEX
  8
0
 10
412.859491
 20
393.052383
 42
0.055160
  0
VERTEX
  8
0
 10
416.450934
 20
393.981345
 42
0.000000
  0
VERTEX
  8
0
 10
419.032067
 20
394.962690
 42
0.000000
  0
VERTEX
  8
0
 10
417.442297
 20
391.888415
 42
0.020702
  0
VERTEX
  8
0
 10
416.874576
 20
390.669402
 42
0.030215
  0
VERTEX
  8
0
 10
416.486256
 20
389.550474
 42
0.030335
  0
VERTEX
  8
0
 10
416.290112
 20
388.643484
 42
0.238823
  0
VERTEX
  8
0
 10
416.420133
 20
388.246534
 42
0.361989
  0
VERTEX
  8
0
 10
417.342497
 20
388.162582
 42
0.044069
  0
VERTEX
  8
0
 10
419.028623
 20
389.559720
 42
0.044030
  0
VERTEX
  8
0
 10
420.547958
 20
391.353432
 42
0.154913
  0
VERTEX
  8
0
 10
421.000000
 20
392.777432
 42
-0.045421
  0
VERTEX
  8
0
 10
421.062766
 20
393.466936
 42
-0.304451
  0
VERTEX
  8
0
 10
421.290882
 20
393.700952
 42
-0.204162
  0
VERTEX
  8
0
 10
421.681271
 20
393.623565
 42
-0.023564
  0
VERTEX
  8
0
 10
422.410972
 20
393.073886
 42
0.049787
  0
VERTEX
  8
0
 10
423.032070
 20
392.655113
 42
0.097297
  0
VERTEX
  8
0
 10
423.600239
 20
392.479508
 42
0.134897
  0
VERTEX
  8
0
 10
424.069389
 20
392.556375
 42
0.147722
  0
VERTEX
  8
0
 10
424.414217
 20
392.861200
 42
0.248328
  0
VERTEX
  8
0
 10
424.582278
 20
395.374628
 42
0.048923
  0
VERTEX
  8
0
 10
422.268771
 20
399.435842
 42
0.049172
  0
VERTEX
  8
0
 10
418.895636
 20
403.329863
 42
0.090977
  0
VERTEX
  8
0
 10
415.400297
 20
405.606105
 42
0.047297
  0
VERTEX
  8
0
 10
413.672167
 20
406.143057
 42
0.016716
  0
VERTEX
  8
0
 10
411.115960
 20
406.590543
 42
0.016420
  0
VERTEX
  8
0
 10
408.257863
 20
406.897638
 42
0.018552
  0
VERTEX
  8
0
 10
405.500000
 20
407.000000
 42
-0.031925
  0
VERTEX
  8
0
 10
400.315825
 20
407.331345
 42
-0.052233
  0
VERTEX
  8
0
 10
396.035708
 20
408.342663
 42
-0.059790
  0
VERTEX
  8
0
 10
392.486048
 20
410.082975
 42
-0.062107
  0
VERTEX
  8
0
 10
389.499251
 20
412.595309
 42
0.004394
  0
VERTEX
  8
0
 10
387.824942
 20
414.370373
 42
0.156494
  0
VERTEX
  8
0
 10
387.332678
 20
414.636328
 42
0.445477
  0
VERTEX
  8
0
 10
387.053982
 20
414.423007
 42
0.019834
  0
VERTEX
  8
0
 10
387.000000
 20
413.062689
 42
-0.464046
  0
VERTEX
  8
0
 10
385.792570
 20
412.041859
 42
-0.196026
  0
VERTEX
  8
0
 10
383.721724
 20
413.323609
 42
-0.058391
  0
VERTEX
  8
0
 10
381.054189
 20
418.061695
 42
-0.059459
  0
VERTEX
  8
0
 10
379.574506
 20
423.259434
 42
0.022638
  0
VERTEX
  8
0
 10
378.955858
 20
426.252349
 42
0.537643
  0
VERTEX
  8
0
 10
378.275703
 20
426.489187
 42
0.234807
  0
VERTEX
  8
0
 10
377.737572
 20
425.397572
 42
0.017208
  0
VERTEX
  8
0
 10
377.867204
 20
421.957402
 42
-0.021869
  0
VERTEX
  8
0
 10
377.910215
 20
420.440453
 42
-0.035991
  0
VERTEX
  8
0
 10
377.798318
 20
419.162487
 42
-0.041639
  0
VERTEX
  8
0
 10
377.571029
 20
418.243720
 42
-0.321720
  0
VERTEX
  8
0
 10
377.231456
 20
418.000000
 42
-0.191527
  0
VERTEX
  8
0
 10
375.955778
 20
418.507263
 42
-0.051087
  0
VERTEX
  8
0
 10
374.500261
 20
420.194605
 42
-0.043952
  0
VERTEX
  8
0
 10
373.106848
 20
422.617913
 42
-0.032625
  0
VERTEX
  8
0
 10
371.993087
 20
425.500000
 42
0.002862
  0
VERTEX
  8
0
 10
370.255866
 20
430.937064
 42
0.137871
  0
VERTEX
  8
0
 10
369.625651
 20
431.880344
 42
0.623713
  0
VERTEX
  8
0
 10
369.181199
 20
431.688455
 42
0.009065
  0
SEQEND
  0
POLYLINE
  8
0
 66
1
 70
1
  0
VERTEX
  8
0
 10
411.000000
 20
400.000000
 42
0.072314
  0
VERTEX
  8
0
 10
411.111864
 20
399.230589
 42
0.088920
  0
VERTEX
  8
0
 10
411.437500
 20
398.583333
 42
0.102140
  0
VERTEX
  8
0
 10
411.924246
 20
398.153209
 42
0.130775
  0
VERTEX
  8
0
 10
412.500000
 20
398.000000
 42
0.099038
  0
VERTEX
  8
0
 10
413.072457
 20
398.114514
 42
0.097945
  0
VERTEX
  8
0
 10
413.559375
 20
398.440625
 42
0.097945
  0
VERTEX
  8
0
 10
413.885486
 20
398.927543
 42
0.099038
  0
VERTEX
  8
0
 10
414.000000
 20
399.500000
 42
-0.125149
  0
VERTEX
  8
0
 10
414.251935
 20
400.490774
 42
-0.234888
  0
VERTEX
  8
0
 10
414.912617
 20
400.953895
 42
-0.197987
  0
VERTEX
  8
0
 10
415.781044
 20
400.740500
 42
-0.096637
  0
VERTEX
  8
0
 10
416.569098
 20
399.888197
 42
-0.438118
  0
VERTEX
  8
0
 10
416.041789
 20
397.999683
 42
-0.115624
  0
VERTEX
  8
0
 10
412.611453
 20
397.151394
 42
-0.071762
  0
VERTEX
  8
0
 10
407.962286
 20
397.764314
 42
-0.180056
  0
VERTEX
  8
0
 10
405.242595
 20
399.750000
 42
-0.019594
  0
VERTEX
  8
0
 10
404.377140
 20
401.178637
 42
-0.327167
  0
VERTEX
  8
0
 10
404.443313
 20
401.697304
 42
-0.197159
  0
VERTEX
  8
0
 10
405.031308
 20
401.961433
 42
-0.008217
  0
VERTEX
  8
0
 10
407.378028
 20
402.000000
 42
-0.021050
  0
VERTEX
  8
0
 10
409.281730
 20
401.919819
 42
-0.105472
  0
VERTEX
  8
0
 10
410.297253
 20
401.611954
 42
-0.179235
  0
VERTEX
  8
0
 10
410.818253
 20
401.007733
 42
-0.089455
  0
SEQEND
  0
POLYLINE
  8
0
 66
1
 70
1
  0
VERTEX
  8
0
 10
473.000000
 20
378.000000
 42
0.031030
  0
VERTEX
  8
0
 10
472.050793
 20
377.299488
 42
0.533502
  0
VERTEX
  8
0
 10
472.085404
 20
376.977841
 42
0.097736
  0
VERTEX
  8
0
 10
472.767436
 20
376.775375
 42
0.002710
  0
VERTEX
  8
0
 10
475.853102
 20
376.502205
 42
-0.043720
  0
VERTEX
  8
0
 10
477.339521
 20
376.246647
 42
-0.026548
  0
VERTEX
  8
0
 10
479.038990
 20
375.700889
 42
-0.026486
  0
VERTEX
  8
0
 10
480.680159
 20
374.974329
 42
-0.041751
  0
VERTEX
  8
0
 10
481.990068
 20
374.165464
 42
0.028789
  0
VERTEX
  8
0
 10
483.917983
 20
372.904899
 42
0.167013
  0
VERTEX
  8
0
 10
485.094135
 20
372.678039
 42
0.380921
  0
VERTEX
  8
0
 10
485.583524
 20
373.256163
 42
0.085450
  0
VERTEX
  8
0
 10
485.309918
 20
374.634751
 42
0.167289
  0
VERTEX
  8
0
 10
483.482773
 20
376.813210
 42
0.068737
  0
VERTEX
  8
0
 10
479.890438
 20
378.349475
 42
0.067782
  0
VERTEX
  8
0
 10
475.936478
 20
378.872435
 42
0.143441
  0
SEQEND
  0
POLYLINE
  8
0
 66
1
 70
1
  0
VERTEX
  8
0
 10
474.666667
 20
374.333333
 42
0.239161
  0
VERTEX
  8
0
 10
473.994414
 20
372.276507
 42
0.092831
  0
VERTEX
  8
0
 10
475.018649
 20
369.369387
 42
0.086551
  0
VERTEX
  8
0
 10
477.111656
 20
366.866980
 42
0.177216
  0
VERTEX
  8
0
 10
479.480948
 20
366.000000
 42
0.245405
  0
VERTEX
  8
0
 10
480.726901
 20
366.650716
 42
0.096507
  0
VERTEX
  8
0
 10
481.533011
 20
368.476477
 42
0.080109
  0
VERTEX
  8
0
 10
481.681895
 20
370.818545
 42
0.099073
  0
VERTEX
  8
0
 10
481.049847
 20
372.906859
 42
0.133399
  0
VERTEX
  8
0
 10
479.874420
 20
374.151943
 42
0.082455
  0
VERTEX
  8
0
 10
477.996746
 20
374.911503
 42
0.085679
  0
VERTEX
  8
0
 10
476.047987
 20
375.006915
 42
0.167382
  0
SEQEND
  0
ENDSEC
  0
EOF
