  0
SECTION
  2
HEADER
  9
$ACADVER
  1
AC1006
  9
$EXTMIN
 10
0.000000
 20
0.000000
 30
0.000000
  9
$EXTMAX
 10
512.000000
 20
512.000000
 30
0.000000
  0
ENDSEC
  0
SECTION
  2
ENTITIES
  0
POLYLINE
  8
0
 66
1
 70
1
  0
VERTEX
  8
0
 10
237.568491
 20
509.744874
 42
0.076791
  0
VERTEX
  8
0
 10
236.851168
 20
508.167309
 42
0.077707
  0
VERTEX
  8
0
 10
236.647329
 20
506.453364
 42
0.039033
  0
VERTEX
  8
0
 10
236.938378
 20
503.928248
 42
0.006047
  0
VERTEX
  8
0
 10
237.963493
 20
498.994874
 42
0.015250
  0
VERTEX
  8
0
 10
239.958069
 20
491.100164
 42
0.009124
  0
VERTEX
  8
0
 10
242.783737
 20
481.841498
 42
0.008714
  0
VERTEX
  8
0
 10
245.760943
 20
473.202768
 42
0.030308
  0
VERTEX
  8
0
 10
248.112996
 20
467.789838
 42
-0.007325
  0
VERTEX
  8
0
 10
248.835737
 20
466.315756
 42
-0.009782
  0
VERTEX
  8
0
 10
249.445693
 20
464.955902
 42
-0.007336
  0
VERTEX
  8
0
 10
249.914116
 20
463.807888
 42
-0.093455
  0
VERTEX
  8
0
 10
250.000000
 20
463.352411
 42
-0.681364
  0
VERTEX
  8
0
 10
249.553132
 20
463.176729
 42
-0.001564
  0
VERTEX
  8
0
 10
242.963014
 20
470.307291
 42
-0.005413
  0
VERTEX
  8
0
 10
235.632485
 20
478.464440
 42
-0.004019
  0
VERTEX
  8
0
 10
227.706289
 20
487.626303
 42
0.005359
  0
VERTEX
  8
0
 10
224.295463
 20
491.547589
 42
0.007661
  0
VERTEX
  8
0
 10
221.179912
 20
494.946488
 42
0.004563
  0
VERTEX
  8
0
 10
218.499739
 20
497.730608
 42
0.107634
  0
VERTEX
  8
0
 10
217.592407
 20
498.326166
 42
0.122024
  0
VERTEX
  8
0
 10
216.859365
 20
498.417204
 42
0.050498
  0
VERTEX
  8
0
 10
215.877597
 20
498.197457
 42
0.045951
  0
VERTEX
  8
0
 10
214.822828
 20
497.735322
 42
0.043997
  0
VERTEX
  8
0
 10
213.853658
 20
497.082583
 42
0.000000
  0
VERTEX
  8
0
 10
211.609582
 20
495.265440
 42
0.000000
  0
VERTEX
  8
0
 10
213.851576
 20
486.382720
 42
0.020326
  0
VERTEX
  8
0
 10
216.496329
 20
477.451030
 42
0.010621
  0
VERTEX
  8
0
 10
220.473112
 20
466.548848
 42
0.010617
  0
VERTEX
  8
0
 10
224.940383
 20
455.750032
 42
0.019025
  0
VERTEX
  8
0
 10
229.127902
 20
447.114828
 42
-0.005863
  0
VERTEX
  8
0
 10
230.608582
 20
444.255673
 42
-0.009478
  0
VERTEX
  8
0
 10
231.793286
 20
441.785278
 42
-0.003706
  0
VERTEX
  8
0
 10
232.738108
 20
439.674078
 42
-0.309003
  0
VERTEX
  8
0
 10
232.675683
 20
439.342350
 42
-0.421658
  0
VERTEX
  8
0
 10
231.809186
 20
439.353332
 42
-0.000940
  0
VERTEX
  8
0
 10
221.950598
 20
449.763972
 42
-0.005729
  0
VERTEX
  8
0
 10
212.645895
 20
459.855983
 42
-0.010713
  0
VERTEX
  8
0
 10
205.388495
 20
468.266276
 42
0.011850
  0
VERTEX
  8
0
 10
199.794507
 20
474.719211
 42
0.060780
  0
VERTEX
  8
0
 10
196.212249
 20
477.807430
 42
0.144919
  0
VERTEX
  8
0
 10
193.558083
 20
478.634936
 42
0.202655
  0
VERTEX
  8
0
 10
191.283198
 20
477.711770
 42
0.088099
  0
VERTEX
  8
0
 10
190.429642
 20
476.489614
 42
0.127137
  0
VERTEX
  8
0
 10
190.193471
 20
475.199011
 42
0.053961
  0
VERTEX
  8
0
 10
190.551466
 20
473.228824
 42
0.005720
  0
VERTEX
  8
0
 10
191.927959
 20
468.763201
 42
0.030534
  0
VERTEX
  8
0
 10
195.261772
 20
460.205674
 42
0.010389
  0
VERTEX
  8
0
 10
201.107518
 20
448.205755
 42
0.010577
  0
VERTEX
  8
0
 10
207.859504
 20
435.705400
 42
0.015909
  0
VERTEX
  8
0
 10
214.316083
 20
425.132099
 42
-0.002165
  0
VERTEX
  8
0
 10
216.878200
 20
421.184532
 42
-0.003425
  0
VERTEX
  8
0
 10
219.036599
 20
417.776152
 42
-0.000856
  0
VERTEX
  8
0
 10
220.894818
 20
414.785457
 42
-0.139455
  0
VERTEX
  8
0
 10
221.000000
 20
414.415673
 42
-0.635077
  0
VERTEX
  8
0
 10
220.608683
 20
414.231845
 42
-0.000764
  0
VERTEX
  8
0
 10
211.823616
 20
421.541478
 42
-0.004343
  0
VERTEX
  8
0
 10
202.849419
 20
429.164914
 42
-0.004757
  0
VERTEX
  8
0
 10
194.280091
 20
436.717180
 42
0.009176
  0
VERTEX
  8
0
 10
190.614869
 20
439.890292
 42
0.012995
  0
VERTEX
  8
0
 10
187.230941
 20
442.566922
 42
0.009085
  0
VERTEX
  8
0
 10
184.341193
 20
444.652097
 42
0.152898
  0
VERTEX
  8
0
 10
183.230091
 20
445.000000
 42
0.099243
  0
VERTEX
  8
0
 10
181.571951
 20
444.667609
 42
0.104788
  0
VERTEX
  8
0
 10
180.206379
 20
443.724343
 42
0.101683
  0
VERTEX
  8
0
 10
179.312166
 20
442.281516
 42
0.088267
  0
VERTEX
  8
0
 10
179.000000
 20
440.526992
 42
0.132847
  0
VERTEX
  8
0
 10
180.499851
 20
434.981569
 42
0.007238
  0
VERTEX
  8
0
 10
189.924630
 20
419.356932
 42
0.012313
  0
VERTEX
  8
0
 10
200.296803
 20
403.590014
 42
0.023753
  0
VERTEX
  8
0
 10
209.486657
 20
391.601005
 42
0.000032
  0
VERTEX
  8
0
 10
211.620977
 20
389.075034
 42
0.000027
  0
VERTEX
  8
0
 10
213.888655
 20
386.391882
 42
0.000027
  0
VERTEX
  8
0
 10
215.963872
 20
383.936994
 42
0.000075
  0
VERTEX
  8
0
 10
217.432167
 20
382.200785
 42
-0.032577
  0
VERTEX
  8
0
 10
218.982534
 20
380.105412
 42
-0.733198
  0
VERTEX
  8
0
 10
218.666513
 20
379.725189
 42
-0.040082
  0
VERTEX
  8
0
 10
216.478657
 20
380.831299
 42
-0.001249
  0
VERTEX
  8
0
 10
207.913951
 20
386.090744
 42
-0.007881
  0
VERTEX
  8
0
 10
204.034896
 20
388.571465
 42
-0.004126
  0
VERTEX
  8
0
 10
199.281838
 20
391.774478
 42
-0.004102
  0
VERTEX
  8
0
 10
194.461419
 20
395.139540
 42
-0.006276
  0
VERTEX
  8
0
 10
190.343371
 20
398.143304
 42
0.006795
  0
VERTEX
  8
0
 10
186.733928
 20
400.770350
 42
0.009812
  0
VERTEX
  8
0
 10
183.467200
 20
402.985846
 42
0.005967
  0
VERTEX
  8
0
 10
180.684856
 20
404.747288
 42
0.138998
  0
VERTEX
  8
0
 10
179.793371
 20
405.000000
 42
0.121908
  0
VERTEX
  8
0
 10
178.366399
 20
404.646833
 42
0.097530
  0
VERTEX
  8
0
 10
177.130827
 20
403.648322
 42
0.089895
  0
VERTEX
  8
0
 10
176.291375
 20
402.173175
 42
0.084715
  0
VERTEX
  8
0
 10
176.000000
 20
400.465783
 42
0.134263
  0
VERTEX
  8
0
 10
176.712578
 20
397.859944
 42
0.015497
  0
VERTEX
  8
0
 10
179.990044
 20
392.688197
 42
0.017606
  0
VERTEX
  8
0
 10
184.411443
 20
386.637470
 42
0.012988
  0
VERTEX
  8
0
 10
189.707258
 20
380.250000
 42
-0.004358
  0
VERTEX
  8
0
 10
191.765882
 20
377.852461
 42
-0.007731
  0
VERTEX
  8
0
 10
193.414356
 20
375.835938
 42
-0.003182
  0
VERTEX
  8
0
 10
194.731510
 20
374.150962
 42
-0.622750
  0
VERTEX
  8
0
 10
194.657310
 20
374.000000
 42
-0.101314
  0
VERTEX
  8
0
 10
194.279056
 20
374.077440
 42
-0.000792
  0
VERTEX
  8
0
 10
191.410410
 20
375.308801
 42
-0.002865
  0
VERTEX
  8
0
 10
188.124786
 20
376.747697
 42
-0.001832
  0
VERTEX
  8
0
 10
184.322748
 20
378.455493
 42
0.005221
  0
VERTEX
  8
0
 10
178.677954
 20
380.945179
 42
0.036543
  0
VERTEX
  8
0
 10
175.833764
 20
381.925427
 42
0.083030
  0
VERTEX
  8
0
 10
173.997630
 20
382.096993
 42
0.128854
  0
VERTEX
  8
0
 10
172.500000
 20
381.586013
 42
0.107254
  0
VERTEX
  8
0
 10
170.836796
 20
379.877643
 42
0.185616
  0
VERTEX
  8
0
 10
170.465073
 20
377.957822
 42
0.091240
  0
VERTEX
  8
0
 10
171.465506
 20
375.281889
 42
0.015147
  0
VERTEX
  8
0
 10
174.445622
 20
370.632919
 42
-0.007728
  0
VERTEX
  8
0
 10
176.130669
 20
368.088158
 42
-0.014006
  0
VERTEX
  8
0
 10
177.417404
 20
365.948420
 42
-0.009399
  0
VERTEX
  8
0
 10
178.335516
 20
364.246064
 42
-0.561528
  0
VERTEX
  8
0
 10
178.185500
 20
364.000000
 42
-0.064892
  0
VERTEX
  8
0
 10
177.546430
 20
364.083292
 42
-0.000035
  0
VERTEX
  8
0
 10
158.479880
 20
369.140625
 42
-0.000473
  0
VERTEX
  8
0
 10
137.266933
 20
374.790344
 42
-0.000288
  0
VERTEX
  8
0
 10
112.227626
 20
381.500000
 42
0.000899
  0
VERTEX
  8
0
 10
87.070954
 20
388.208200
 42
0.001421
  0
VERTEX
  8
0
 10
65.476263
 20
393.859375
 42
0.000312
  0
VERTEX
  8
0
 10
46.495045
 20
398.756371
 42
0.063049
  0
VERTEX
  8
0
 10
44.570658
 20
399.000000
 42
0.125067
  0
VERTEX
  8
0
 10
42.558457
 20
398.488682
 42
0.128032
  0
VERTEX
  8
0
 10
41.055155
 20
397.081564
 42
0.131104
  0
VERTEX
  8
0
 10
40.450792
 20
395.148622
 42
0.134225
  0
VERTEX
  8
0
 10
40.897989
 20
393.190609
 42
0.085372
  0
VERTEX
  8
0
 10
44.529578
 20
388.528011
 42
0.007895
  0
VERTEX
  8
0
 10
55.537715
 20
378.815535
 42
0.009987
  0
VERTEX
  8
0
 10
66.834431
 20
369.545258
 42
0.047848
  0
VERTEX
  8
0
 10
73.835646
 20
365.041977
 42
-0.699800
  0
VERTEX
  8
0
 10
73.719430
 20
364.127114
 42
-0.109582
  0
VERTEX
  8
0
 10
70.900686
 20
364.113122
 42
-0.015000
  0
VERTEX
  8
0
 10
60.293900
 20
366.746224
 42
-0.003778
  0
VERTEX
  8
0
 10
43.193455
 20
371.679861
 42
0.000000
  0
VERTEX
  8
0
 10
30.886909
 20
375.331354
 42
0.000000
  0
VERTEX
  8
0
 10
28.769225
 20
373.213670
 42
0.034614
  0
VERTEX
  8
0
 10
27.792971
 20
372.092006
 42
0.090057
  0
VERTEX
  8
0
 10
27.312557
 20
371.140046
 42
0.112040
  0
VERTEX
  8
0
 10
27.252477
 20
370.211153
 42
0.072906
  0
VERTEX
  8
0
 10
27.575771
 20
369.181062
 42
0.107453
  0
VERTEX
  8
0
 10
31.433345
 20
364.248961
 42
0.010311
  0
VERTEX
  8
0
 10
43.430756
 20
354.698230
 42
0.014186
  0
VERTEX
  8
0
 10
56.755142
 20
345.118356
 42
0.023262
  0
VERTEX
  8
0
 10
68.611139
 20
337.874469
 42
-0.002977
  0
VERTEX
  8
0
 10
71.443913
 20
336.297735
 42
-0.004833
  0
VERTEX
  8
0
 10
73.829522
 20
334.920654
 42
-0.001069
  0
VERTEX
  8
0
 10
75.897311
 20
333.694268
 42
-0.264238
  0
VERTEX
  8
0
 10
76.000000
 20
333.513524
 42
-0.483745
  0
VERTEX
  8
0
 10
75.293977
 20
332.954545
 42
-0.000956
  0
VERTEX
  8
0
 10
59.346529
 20
336.745007
 42
-0.005635
  0
VERTEX
  8
0
 10
44.500391
 20
340.481129
 42
-0.014127
  0
VERTEX
  8
0
 10
33.786552
 20
343.632347
 42
0.018095
  0
VERTEX
  8
0
 10
27.481677
 20
345.432553
 42
0.075135
  0
VERTEX
  8
0
 10
23.552514
 20
345.794868
 42
0.163260
  0
VERTEX
  8
0
 10
21.281968
 20
344.883505
 42
0.189790
  0
VERTEX
  8
0
 10
20.192505
 20
342.842520
 42
0.137814
  0
VERTEX
  8
0
 10
20.578218
 20
340.432607
 42
0.089609
  0
VERTEX
  8
0
 10
22.206959
 20
338.108924
 42
0.042048
  0
VERTEX
  8
0
 10
25.678285
 20
335.204836
 42
0.007159
  0
VERTEX
  8
0
 10
32.807666
 20
330.345200
 42
0.011253
  0
VERTEX
  8
0
 10
41.034084
 20
325.170791
 42
0.012189
  0
VERTEX
  8
0
 10
49.271594
 20
320.513315
 42
0.011417
  0
VERTEX
  8
0
 10
58.189456
 20
316.012698
 42
0.007854
  0
VERTEX
  8
0
 10
68.487506
 20
311.304245
 42
-0.004380
  0
VERTEX
  8
0
 10
72.993254
 20
309.281867
 42
-0.008631
  0
VERTEX
  8
0
 10
76.530705
 20
307.582177
 42
-0.007452
  0
VERTEX
  8
0
 10
79.059165
 20
306.265577
 42
-0.775940
  0
VERTEX
  8
0
 10
79.000000
 20
306.027910
 42
-0.031497
  0
VERTEX
  8
0
 10
75.644053
 20
306.215882
 42
-0.001382
  0
VERTEX
  8
0
 10
64.018344
 20
307.637651
 42
-0.002645
  0
VERTEX
  8
0
 10
52.169080
 20
309.183708
 42
-0.005180
  0
VERTEX
  8
0
 10
42.753061
 20
310.562453
 42
0.011160
  0
VERTEX
  8
0
 10
35.088448
 20
311.591279
 42
0.084655
  0
VERTEX
  8
0
 10
31.461100
 20
311.381412
 42
0.213876
  0
VERTEX
  8
0
 10
29.675773
 20
310.029535
 42
0.125983
  0
VERTEX
  8
0
 10
29.000000
 20
307.390100
 42
0.179722
  0
VERTEX
  8
0
 10
29.784397
 20
305.278338
 42
0.061988
  0
VERTEX
  8
0
 10
32.237583
 20
303.057701
 42
0.030876
  0
VERTEX
  8
0
 10
36.891427
 20
300.203552
 42
0.005743
  0
VERTEX
  8
0
 10
45.805479
 20
295.597694
 42
0.012374
  0
VERTEX
  8
0
 10
55.576534
 20
290.989504
 42
0.010847
  0
VERTEX
  8
0
 10
65.999040
 20
286.653474
 42
0.010837
  0
VERTEX
  8
0
 10
76.610805
 20
282.769314
 42
0.012280
  0
VERTEX
  8
0
 10
86.950400
 20
279.518194
 42
0.000000
  0
VERTEX
  8
0
 10
98.400800
 20
276.224504
 42
0.000000
  0
VERTEX
  8
0
 10
85.950400
 20
275.509247
 42
-0.010418
  0
VERTEX
  8
0
 10
80.383379
 20
275.305677
 42
-0.006712
  0
VERTEX
  8
0
 10
73.926481
 20
275.290868
 42
-0.006746
  0
VERTEX
  8
0
 10
67.607640
 20
275.446474
 42
-0.012605
  0
VERTEX
  8
0
 10
62.501449
 20
275.770232
 42
0.004992
  0
VERTEX
  8
0
 10
58.196163
 20
276.109093
 42
0.007098
  0
VERTEX
  8
0
 10
54.363574
 20
276.317664
 42
0.004258
  0
VERTEX
  8
0
 10
51.146255
 20
276.419539
 42
0.097695
  0
VERTEX
  8
0
 10
50.242817
 20
276.262936
 42
0.180797
  0
VERTEX
  8
0
 10
49.038424
 20
275.197753
 42
0.081456
  0
VERTEX
  8
0
 10
48.351783
 20
273.169159
 42
0.079986
  0
VERTEX
  8
0
 10
48.342635
 20
270.987312
 42
0.160828
  0
VERTEX
  8
0
 10
49.120350
 20
269.472681
 42
0.110653
  0
VERTEX
  8
0
 10
54.522693
 20
266.107490
 42
0.012081
  0
VERTEX
  8
0
 10
68.542251
 20
261.577571
 42
0.015422
  0
VERTEX
  8
0
 10
84.566427
 20
257.357269
 42
0.018064
  0
VERTEX
  8
0
 10
100.000000
 20
254.380163
 42
-0.001947
  0
VERTEX
  8
0
 10
106.971950
 20
253.266996
 42
-0.040766
  0
VERTEX
  8
0
 10
109.017465
 20
252.758376
 42
-0.684922
  0
VERTEX
  8
0
 10
109.036814
 20
252.324134
 42
-0.057985
  0
VERTEX
  8
0
 10
107.500000
 20
251.851408
 42
-0.016460
  0
VERTEX
  8
0
 10
105.150196
 20
251.497092
 42
-0.002673
  0
VERTEX
  8
0
 10
100.562500
 20
250.983918
 42
-0.002945
  0
VERTEX
  8
0
 10
95.153291
 20
250.440317
 42
-0.002588
  0
VERTEX
  8
0
 10
89.500000
 20
249.935320
 42
0.005917
  0
VERTEX
  8
0
 10
84.045187
 20
249.411432
 42
0.008584
  0
VERTEX
  8
0
 10
79.245312
 20
248.809526
 42
0.004955
  0
VERTEX
  8
0
 10
75.239509
 20
248.196614
 42
0.129122
  0
VERTEX
  8
0
 10
74.250000
 20
247.756432
 42
0.150486
  0
VERTEX
  8
0
 10
73.280453
 20
246.329106
 42
0.093627
  0
VERTEX
  8
0
 10
73.053984
 20
244.301656
 42
0.094727
  0
VERTEX
  8
0
 10
73.581700
 20
242.352174
 42
0.158978
  0
VERTEX
  8
0
 10
74.750000
 20
241.143866
 42
0.075524
  0
VERTEX
  8
0
 10
79.768749
 20
239.390255
 42
0.007769
  0
VERTEX
  8
0
 10
92.176119
 20
237.262339
 42
0.010239
  0
VERTEX
  8
0
 10
106.154765
 20
235.380230
 42
0.011942
  0
VERTEX
  8
0
 10
119.500000
 20
234.182952
 42
0.000000
  0
VERTEX
  8
0
 10
130.500000
 20
233.460388
 42
0.000000
  0
VERTEX
  8
0
 10
123.493781
 20
231.275457
 42
-0.005118
  0
VERTEX
  8
0
 10
120.362469
 20
230.333995
 42
-0.003348
  0
VERTEX
  8
0
 10
116.734182
 20
229.309765
 42
-0.003367
  0
VERTEX
  8
0
 10
113.184754
 20
228.359076
 42
-0.006445
  0
VERTEX
  8
0
 10
110.320898
 20
227.651941
 42
0.008140
  0
VERTEX
  8
0
 10
105.364640
 20
226.410313
 42
0.071901
  0
VERTEX
  8
0
 10
103.296317
 20
225.522885
 42
0.164856
  0
VERTEX
  8
0
 10
102.337110
 20
224.372839
 42
0.092360
  0
VERTEX
  8
0
 10
102.000000
 20
222.563428
 42
0.139853
  0
VERTEX
  8
0
 10
102.645013
 20
220.302493
 42
0.153007
  0
VERTEX
  8
0
 10
104.369475
 20
218.816278
 42
0.065563
  0
VERTEX
  8
0
 10
107.879940
 20
217.819242
 42
0.010059
  0
VERTEX
  8
0
 10
115.096596
 20
216.907484
 42
0.021620
  0
VERTEX
  8
0
 10
124.464671
 20
216.322863
 42
0.014458
  0
VERTEX
  8
0
 10
135.207667
 20
216.428384
 42
0.014144
  0
VERTEX
  8
0
 10
146.282654
 20
217.171764
 42
0.016791
  0
VERTEX
  8
0
 10
156.677477
 20
218.518983
 42
-0.004146
  0
VERTEX
  8
0
 10
165.574605
 20
219.901648
 42
-0.081488
  0
VERTEX
  8
0
 10
168.335864
 20
219.855430
 42
-0.276753
  0
VERTEX
  8
0
 10
169.582373
 20
218.763602
 42
-0.078023
  0
VERTEX
  8
0
 10
170.000000
 20
216.103592
 42
0.038623
  0
VERTEX
  8
0
 10
170.167065
 20
213.944030
 42
0.080065
  0
VERTEX
  8
0
 10
170.688253
 20
212.340220
 42
0.070069
  0
VERTEX
  8
0
 10
171.737953
 20
210.850741
 42
0.024118
  0
VERTEX
  8
0
 10
173.637064
 20
209.013800
 42
0.023439
  0
VERTEX
  8
0
 10
175.768196
 20
207.312654
 42
0.071362
  0
VERTEX
  8
0
 10
177.403666
 20
206.452225
 42
0.076155
  0
VERTEX
  8
0
 10
179.154676
 20
206.115809
 42
0.029299
  0
VERTEX
  8
0
 10
181.637064
 20
206.167413
 42
0.000000
  0
VERTEX
  8
0
 10
186.000000
 20
206.514412
 42
0.000000
  0
VERTEX
  8
0
 10
186.000000
 20
202.180283
 42
0.030398
  0
VERTEX
  8
0
 10
186.141174
 20
199.860355
 42
0.065430
  0
VERTEX
  8
0
 10
186.587216
 20
198.129620
 42
0.067170
  0
VERTEX
  8
0
 10
187.456370
 20
196.601143
 42
0.033567
  0
VERTEX
  8
0
 10
188.923077
 20
194.923077
 42
0.034127
  0
VERTEX
  8
0
 10
191.000154
 20
193.111709
 42
0.089618
  0
VERTEX
  8
0
 10
192.756061
 20
192.219357
 42
0.070839
  0
VERTEX
  8
0
 10
194.951140
 20
191.887631
 42
0.015812
  0
VERTEX
  8
0
 10
198.750000
 20
191.975301
 42
-0.023529
  0
VERTEX
  8
0
 10
200.664218
 20
191.989936
 42
-0.173255
  0
VERTEX
  8
0
 10
201.499083
 20
191.654049
 42
-0.185663
  0
VERTEX
  8
0
 10
201.900859
 20
190.878598
 42
-0.027730
  0
VERTEX
  8
0
 10
202.000000
 20
189.092394
 42
0.112885
  0
VERTEX
  8
0
 10
202.796327
 20
185.610168
 42
0.090421
  0
VERTEX
  8
0
 10
205.068559
 20
182.493654
 42
0.083647
  0
VERTEX
  8
0
 10
208.480529
 20
180.191554
 42
0.077831
  0
VERTEX
  8
0
 10
212.544534
 20
179.061131
 42
-0.742667
  0
VERTEX
  8
0
 10
212.800211
 20
177.633937
 42
-0.016219
  0
VERTEX
  8
0
 10
203.093077
 20
173.087177
 42
-0.005280
  0
VERTEX
  8
0
 10
181.842425
 20
164.226306
 42
-0.000312
  0
VERTEX
  8
0
 10
117.163183
 20
138.102372
 42
0.000530
  0
VERTEX
  8
0
 10
39.381163
 20
106.646940
 42
0.023158
  0
VERTEX
  8
0
 10
23.358880
 20
99.266460
 42
0.188111
  0
VERTEX
  8
0
 10
18.643864
 20
93.900817
 42
0.242648
  0
VERTEX
  8
0
 10
19.462646
 20
87.489711
 42
0.040354
  0
VERTEX
  8
0
 10
33.953359
 20
69.708346
 42
0.038512
  0
VERTEX
  8
0
 10
51.325782
 20
54.181405
 42
0.040276
  0
VERTEX
  8
0
 10
69.910289
 20
42.220294
 42
0.058973
  0
VERTEX
  8
0
 10
88.000000
 20
35.129971
 42
0.008993
  0
VERTEX
  8
0
 10
97.809374
 20
32.752772
 42
0.105232
  0
VERTEX
  8
0
 10
101.724387
 20
32.713316
 42
0.112056
  0
VERTEX
  8
0
 10
105.224204
 20
34.287993
 42
0.010754
  0
VERTEX
  8
0
 10
112.609240
 20
40.108654
 42
-0.007571
  0
VERTEX
  8
0
 10
126.214582
 20
50.973108
 42
-0.006058
  0
VERTEX
  8
0
 10
141.184926
 20
62.273417
 42
-0.005221
  0
VERTEX
  8
0
 10
158.527822
 20
74.760690
 42
-0.003113
  0
VERTEX
  8
0
 10
179.413345
 20
89.276375
 42
0.000000
  0
VERTEX
  8
0
 10
195.326689
 20
100.190049
 42
0.000000
  0
VERTEX
  8
0
 10
207.913345
 20
98.101331
 42
0.006361
  0
VERTEX
  8
0
 10
218.888597
 20
96.423191
 42
0.007620
  0
VERTEX
  8
0
 10
229.261877
 20
95.132732
 42
0.008298
  0
VERTEX
  8
0
 10
238.380976
 20
94.292040
 42
0.018101
  0
VERTEX
  8
0
 10
245.396736
 20
94.017329
 42
0.000000
  0
VERTEX
  8
0
 10
251.293472
 20
94.000000
 42
0.000000
  0
VERTEX
  8
0
 10
250.701395
 20
86.750000
 42
0.004008
  0
VERTEX
  8
0
 10
250.397846
 20
82.625804
 42
0.000763
  0
VERTEX
  8
0
 10
249.917246
 20
75.118115
 42
0.000814
  0
VERTEX
  8
0
 10
249.383816
 20
66.351266
 42
0.000749
  0
VERTEX
  8
0
 10
248.863378
 20
57.332943
 42
0.002220
  0
VERTEX
  8
0
 10
248.248557
 20
45.453397
 42
0.012531
  0
VERTEX
  8
0
 10
248.107613
 20
39.107746
 42
0.019087
  0
VERTEX
  8
0
 10
248.267326
 20
35.216654
 42
0.154598
  0
VERTEX
  8
0
 10
248.931163
 20
33.582943
 42
0.152846
  0
VERTEX
  8
0
 10
250.775194
 20
32.388641
 42
0.178318
  0
VERTEX
  8
0
 10
252.844629
 20
32.557764
 42
0.074211
  0
VERTEX
  8
0
 10
255.679920
 20
34.425992
 42
0.012171
  0
VERTEX
  8
0
 10
260.476484
 20
38.940454
 42
0.000000
  0
VERTEX
  8
0
 10
267.500000
 20
45.880909
 42
0.000000
  0
VERTEX
  8
0
 10
278.500000
 20
41.116612
 42
0.004689
  0
VERTEX
  8
0
 10
283.660172
 20
38.938890
 42
0.002415
  0
VERTEX
  8
0
 10
290.158016
 20
36.304769
 42
0.002400
  0
VERTEX
  8
0
 10
296.869613
 20
33.658969
 42
0.003628
  0
VERTEX
  8
0
 10
302.740056
 20
31.426158
 42
-0.007398
  0
VERTEX
  8
0
 10
312.722600
 20
27.542922
 42
-0.154038
  0
VERTEX
  8
0
 10
315.164194
 20
25.521794
 42
-0.189648
  0
VERTEX
  8
0
 10
315.751199
 20
22.608363
 42
-0.012334
  0
VERTEX
  8
0
 10
314.000000
 20
14.000000
 42
0.003212
  0
VERTEX
  8
0
 10
312.474947
 20
7.145907
 42
0.044540
  0
VERTEX
  8
0
 10
312.162724
 20
4.630463
 42
0.123747
  0
VERTEX
  8
0
 10
312.498434
 20
3.069001
 42
0.082029
  0
VERTEX
  8
0
 10
313.571429
 20
1.571429
 42
0.179181
  0
VERTEX
  8
0
 10
316.604907
 20
0.177275
 42
0.019052
  0
VERTEX
  8
0
 10
324.500000
 20
-0.123676
 42
0.019052
  0
VERTEX
  8
0
 10
332.395093
 20
0.177275
 42
0.179181
  0
VERTEX
  8
0
 10
335.428571
 20
1.571429
 42
0.146665
  0
VERTEX
  8
0
 10
336.921399
 20
4.342474
 42
0.253498
  0
VERTEX
  8
0
 10
336.183543
 20
6.782574
 42
0.144620
  0
VERTEX
  8
0
 10
333.043592
 20
8.470982
 42
0.051575
  0
VERTEX
  8
0
 10
327.928571
 20
9.000000
 42
-0.017411
  0
VERTEX
  8
0
 10
323.629455
 20
9.149747
 42
-0.275542
  0
VERTEX
  8
0
 10
322.475719
 20
9.951619
 42
-0.164235
  0
VERTEX
  8
0
 10
322.307444
 20
11.626824
 42
-0.005860
  0
VERTEX
  8
0
 10
323.847963
 20
18.000000
 42
0.000000
  0
VERTEX
  8
0
 10
325.500000
 20
24.500000
 42
0.000000
  0
VERTEX
  8
0
 10
331.915545
 20
24.500000
 42
0.000000
  0
VERTEX
  8
0
 10
338.331089
 20
24.500000
 42
0.000000
  0
VERTEX
  8
0
 10
343.000000
 20
18.500000
 42
0.011791
  0
VERTEX
  8
0
 10
345.560451
 20
15.364988
 42
0.048305
  0
VERTEX
  8
0
 10
347.328515
 20
13.664830
 42
0.080520
  0
VERTEX
  8
0
 10
348.880894
 20
12.799360
 42
0.087195
  0
VERTEX
  8
0
 10
350.584455
 20
12.500000
 42
0.036942
  0
VERTEX
  8
0
 10
352.141934
 20
12.615228
 42
0.141337
  0
VERTEX
  8
0
 10
353.017960
 20
13.015416
 42
0.146853
  0
VERTEX
  8
0
 10
353.527474
 20
13.810593
 42
0.040983
  0
VERTEX
  8
0
 10
353.818966
 20
15.276362
 42
0.091923
  0
VERTEX
  8
0
 10
353.703431
 20
16.949434
 42
0.046257
  0
VERTEX
  8
0
 10
352.985638
 20
18.948510
 42
0.032436
  0
VERTEX
  8
0
 10
351.609320
 20
21.455776
 42
0.012259
  0
VERTEX
  8
0
 10
349.379319
 20
24.776362
 42
0.004956
  0
VERTEX
  8
0
 10
347.479322
 20
27.405292
 42
0.006705
  0
VERTEX
  8
0
 10
345.707070
 20
29.740746
 42
0.004682
  0
VERTEX
  8
0
 10
344.181922
 20
31.658275
 42
0.071018
  0
VERTEX
  8
0
 10
343.560353
 20
32.234687
 42
0.117453
  0
VERTEX
  8
0
 10
342.818573
 20
32.524182
 42
0.010631
  0
VERTEX
  8
0
 10
340.828666
 20
32.758058
 42
0.013332
  0
VERTEX
  8
0
 10
338.412608
 20
32.925201
 42
0.010035
  0
VERTEX
  8
0
 10
335.750000
 20
32.984687
 42
-0.010943
  0
VERTEX
  8
0
 10
333.162041
 20
33.047208
 42
-0.018069
  0
VERTEX
  8
0
 10
330.982813
 20
33.226685
 42
-0.012374
  0
VERTEX
  8
0
 10
329.264256
 20
33.474221
 42
-0.365877
  0
VERTEX
  8
0
 10
329.000000
 20
33.787005
 42
-0.260855
  0
VERTEX
  8
0
 10
329.493398
 20
34.668387
 42
-0.003093
  0
VERTEX
  8
0
 10
335.360024
 20
38.216484
 42
-0.004567
  0
VERTEX
  8
0
 10
341.120991
 20
41.581240
 42
-0.143176
  0
VERTEX
  8
0
 10
342.705704
 20
41.960765
 42
-0.197512
  0
VERTEX
  8
0
 10
343.186901
 20
41.734602
 42
-0.004676
  0
VERTEX
  8
0
 10
344.882300
 20
39.848032
 42
-0.009594
  0
VERTEX
  8
0
 10
346.834672
 20
37.546671
 42
-0.006280
  0
VERTEX
  8
0
 10
349.000000
 20
34.823578
 42
0.008934
  0
VERTEX
  8
0
 10
351.272581
 20
31.996535
 42
0.010141
  0
VERTEX
  8
0
 10
353.552839
 20
29.371608
 42
0.009425
  0
VERTEX
  8
0
 10
355.572113
 20
27.223006
 42
0.054161
  0
VERTEX
  8
0
 10
356.775623
 20
26.231015
 42
0.028033
  0
VERTEX
  8
0
 10
358.135076
 20
25.443438
 42
0.135234
  0
VERTEX
  8
0
 10
359.002496
 20
25.267424
 42
0.137979
  0
VERTEX
  8
0
 10
359.828292
 20
25.562203
 42
0.029627
  0
VERTEX
  8
0
 10
361.025623
 20
26.523189
 42
0.036491
  0
VERTEX
  8
0
 10
361.781136
 20
27.314463
 42
0.035653
  0
VERTEX
  8
0
 10
362.420027
 20
28.213071
 42
0.037873
  0
VERTEX
  8
0
 10
362.862977
 20
29.082775
 42
0.099163
  0
VERTEX
  8
0
 10
363.000000
 20
29.766877
 42
0.163919
  0
VERTEX
  8
0
 10
362.246528
 20
32.003424
 42
0.003358
  0
VERTEX
  8
0
 10
354.921197
 20
41.508301
 42
0.003926
  0
VERTEX
  8
0
 10
347.544418
 20
50.796883
 42
0.132100
  0
VERTEX
  8
0
 10
345.276181
 20
52.447514
 42
0.177435
  0
VERTEX
  8
0
 10
344.209576
 20
52.463720
 42
0.016130
  0
VERTEX
  8
0
 10
341.686653
 20
51.490163
 42
0.018317
  0
VERTEX
  8
0
 10
338.553711
 20
50.026067
 42
0.010798
  0
VERTEX
  8
0
 10
334.918357
 20
48.061758
 42
0.000000
  0
VERTEX
  8
0
 10
326.139223
 20
43.070202
 42
0.000000
  0
VERTEX
  8
0
 10
312.076893
 20
49.709049
 42
-0.002852
  0
VERTEX
  8
0
 10
306.709645
 20
52.280477
 42
-0.004835
  0
VERTEX
  8
0
 10
302.249762
 20
54.502124
 42
-0.000998
  0
VERTEX
  8
0
 10
298.405823
 20
56.473242
 42
-0.508084
  0
VERTEX
  8
0
 10
298.369930
 20
56.703264
 42
-0.159275
  0
VERTEX
  8
0
 10
298.693360
 20
56.867353
 42
-0.001682
  0
VERTEX
  8
0
 10
301.212757
 20
57.248748
 42
-0.005140
  0
VERTEX
  8
0
 10
304.141005
 20
57.651250
 42
-0.003294
  0
VERTEX
  8
0
 10
307.548610
 20
58.061205
 42
0.020844
  0
VERTEX
  8
0
 10
316.504685
 20
59.459017
 42
0.285997
  0
VERTEX
  8
0
 10
318.801035
 20
61.613909
 42
0.252613
  0
VERTEX
  8
0
 10
318.025987
 20
64.853512
 42
0.017126
  0
VERTEX
  8
0
 10
311.240432
 20
71.936576
 42
-0.014261
  0
VERTEX
  8
0
 10
307.800312
 20
75.486587
 42
-0.016204
  0
VERTEX
  8
0
 10
304.717037
 20
79.082811
 42
-0.017539
  0
VERTEX
  8
0
 10
302.164514
 20
82.502003
 42
-0.031452
  0
VERTEX
  8
0
 10
300.353875
 20
85.500000
 42
-0.009706
  0
VERTEX
  8
0
 10
296.807760
 20
92.638976
 42
-0.240820
  0
VERTEX
  8
0
 10
296.873922
 20
94.770781
 42
-0.212712
  0
VERTEX
  8
0
 10
298.648007
 20
96.113731
 42
-0.007532
  0
VERTEX
  8
0
 10
307.229080
 20
97.976063
 42
0.000314
  0
VERTEX
  8
0
 10
311.717243
 20
98.882482
 42
0.000393
  0
VERTEX
  8
0
 10
315.880522
 20
99.729417
 42
0.000316
  0
VERTEX
  8
0
 10
319.373998
 20
100.445253
 42
0.003059
  0
VERTEX
  8
0
 10
320.853549
 20
100.758843
 42
0.000000
  0
VERTEX
  8
0
 10
323.207098
 20
101.272744
 42
0.000000
  0
VERTEX
  8
0
 10
322.568901
 20
91.386372
 42
-0.001631
  0
VERTEX
  8
0
 10
322.284009
 20
87.186238
 42
-0.001374
  0
VERTEX
  8
0
 10
321.955635
 20
82.740902
 42
-0.001385
  0
VERTEX
  8
0
 10
321.633567
 20
78.685709
 42
-0.003848
  0
VERTEX
  8
0
 10
321.377376
 20
75.837976
 42
0.013549
  0
VERTEX
  8
0
 10
321.154596
 20
72.675168
 42
0.059750
  0
VERTEX
  8
0
 10
321.296472
 20
70.815208
 42
0.090401
  0
VERTEX
  8
0
 10
321.838918
 20
69.440372
 42
0.057384
  0
VERTEX
  8
0
 10
322.912024
 20
68.087976
 42
0.022970
  0
VERTEX
  8
0
 10
323.788297
 20
67.288717
 42
0.026535
  0
VERTEX
  8
0
 10
324.694492
 20
66.613343
 42
0.027035
  0
VERTEX
  8
0
 10
325.511108
 20
66.131177
 42
0.120404
  0
VERTEX
  8
0
 10
326.047948
 20
66.000000
 42
0.181185
  0
VERTEX
  8
0
 10
326.696152
 20
66.242862
 42
0.005957
  0
VERTEX
  8
0
 10
328.793185
 20
68.115292
 42
0.010684
  0
VERTEX
  8
0
 10
331.230195
 20
70.441584
 42
0.007151
  0
VERTEX
  8
0
 10
333.921848
 20
73.200994
 42
0.000000
  0
VERTEX
  8
0
 10
340.747799
 20
80.401989
 42
0.000000
  0
VERTEX
  8
0
 10
353.123900
 20
75.209864
 42
0.002875
  0
VERTEX
  8
0
 10
358.722537
 20
72.898843
 42
0.001762
  0
VERTEX
  8
0
 10
365.347799
 20
70.235689
 42
0.001766
  0
VERTEX
  8
0
 10
371.924913
 20
67.645647
 42
0.003147
  0
VERTEX
  8
0
 10
377.357969
 20
65.567568
 42
-0.001983
  0
VERTEX
  8
0
 10
381.936212
 20
63.828659
 42
-0.003085
  0
VERTEX
  8
0
 10
385.867641
 20
62.289652
 42
-0.000915
  0
VERTEX
  8
0
 10
389.268773
 20
60.926760
 42
-0.100952
  0
VERTEX
  8
0
 10
389.675449
 20
60.657885
 42
-0.237838
  0
VERTEX
  8
0
 10
389.811874
 20
60.243989
 42
-0.002858
  0
VERTEX
  8
0
 10
389.362967
 20
57.358129
 42
-0.007795
  0
VERTEX
  8
0
 10
388.764499
 20
53.985566
 42
-0.004927
  0
VERTEX
  8
0
 10
387.966411
 20
50.069944
 42
0.009951
  0
VERTEX
  8
0
 10
387.181476
 20
46.010852
 42
0.012209
  0
VERTEX
  8
0
 10
386.617034
 20
42.190956
 42
0.010711
  0
VERTEX
  8
0
 10
386.292069
 20
38.980102
 42
0.081517
  0
VERTEX
  8
0
 10
386.417983
 20
37.470757
 42
0.116563
  0
VERTEX
  8
0
 10
387.156299
 20
36.045578
 42
0.164016
  0
VERTEX
  8
0
 10
388.377917
 20
35.320595
 42
0.049441
  0
VERTEX
  8
0
 10
390.826706
 20
35.046020
 42
0.003215
  0
VERTEX
  8
0
 10
397.983868
 20
35.000000
 42
0.004784
  0
VERTEX
  8
0
 10
404.107566
 20
35.058598
 42
0.031842
  0
VERTEX
  8
0
 10
407.147872
 20
35.310914
 42
0.071803
  0
VERTEX
  8
0
 10
408.876074
 20
35.826302
 42
0.165214
  0
VERTEX
  8
0
 10
409.846650
 20
36.750000
 42
0.071702
  0
VERTEX
  8
0
 10
410.145662
 20
37.596613
 42
0.044905
  0
VERTEX
  8
0
 10
410.257655
 20
38.643214
 42
0.043367
  0
VERTEX
  8
0
 10
410.180770
 20
39.742459
 42
0.051180
  0
VERTEX
  8
0
 10
409.914058
 20
40.750000
 42
0.092456
  0
VERTEX
  8
0
 10
409.176748
 20
41.964980
 42
0.137128
  0
VERTEX
  8
0
 10
408.133440
 20
42.631372
 42
0.065120
  0
VERTEX
  8
0
 10
406.336934
 20
42.931994
 42
0.008936
  0
VERTEX
  8
0
 10
402.532224
 20
43.000000
 42
-0.016479
  0
VERTEX
  8
0
 10
397.872247
 20
43.153622
 42
-0.210031
  0
VERTEX
  8
0
 10
396.355290
 20
43.943274
 42
-0.217540
  0
VERTEX
  8
0
 10
395.940614
 20
45.578204
 42
-0.017746
  0
VERTEX
  8
0
 10
396.908526
 20
50.000000
 42
0.001971
  0
VERTEX
  8
0
 10
397.297101
 20
51.540768
 42
0.001380
  0
VERTEX
  8
0
 10
397.723275
 20
53.279688
 42
0.001392
  0
VERTEX
  8
0
 10
398.122329
 20
54.947900
 42
0.002904
  0
VERTEX
  8
0
 10
398.422001
 20
56.250000
 42
-0.063781
  0
VERTEX
  8
0
 10
399.004211
 20
57.855998
 42
-0.187306
  0
VERTEX
  8
0
 10
399.869066
 20
58.622681
 42
-0.083061
  0
VERTEX
  8
0
 10
401.481488
 20
58.931503
 42
-0.006862
  0
VERTEX
  8
0
 10
405.769052
 20
58.973398
 42
0.000000
  0
VERTEX
  8
0
 10
412.500000
 20
58.946796
 42
0.000000
  0
VERTEX
  8
0
 10
416.777862
 20
52.931321
 42
0.015969
  0
VERTEX
  8
0
 10
419.900558
 20
48.824474
 42
0.072181
  0
VERTEX
  8
0
 10
422.108966
 20
46.789095
 42
0.144189
  0
VERTEX
  8
0
 10
423.992528
 20
46.177142
 42
0.147923
  0
VERTEX
  8
0
 10
425.885923
 20
46.692980
 42
0.156224
  0
VERTEX
  8
0
 10
427.396647
 20
48.482386
 42
0.149067
  0
VERTEX
  8
0
 10
427.623186
 20
50.853420
 42
0.080557
  0
VERTEX
  8
0
 10
426.386696
 20
54.123869
 42
0.022281
  0
VERTEX
  8
0
 10
423.428668
 20
58.771580
 42
0.006124
  0
VERTEX
  8
0
 10
421.509574
 20
61.439416
 42
0.007431
  0
VERTEX
  8
0
 10
419.643375
 20
63.890714
 42
0.006391
  0
VERTEX
  8
0
 10
418.019810
 20
65.905247
 42
0.050090
  0
VERTEX
  8
0
 10
417.165159
 20
66.750000
 42
0.108786
  0
VERTEX
  8
0
 10
416.175927
 20
67.243516
 42
0.022067
  0
VERTEX
  8
0
 10
414.243195
 20
67.639147
 42
0.021932
  0
VERTEX
  8
0
 10
411.875892
 20
67.910025
 42
0.017520
  0
VERTEX
  8
0
 10
409.308870
 20
68.000000
 42
-0.011159
  0
VERTEX
  8
0
 10
406.890505
 20
68.053980
 42
-0.018456
  0
VERTEX
  8
0
 10
404.855196
 20
68.220313
 42
-0.012883
  0
VERTEX
  8
0
 10
403.255060
 20
68.452689
 42
-0.367789
  0
VERTEX
  8
0
 10
403.006690
 20
68.750000
 42
-0.243848
  0
VERTEX
  8
0
 10
403.228778
 20
69.169114
 42
-0.006535
  0
VERTEX
  8
0
 10
405.016950
 20
70.371807
 42
-0.012209
  0
VERTEX
  8
0
 10
407.223538
 20
71.738685
 42
-0.007883
  0
VERTEX
  8
0
 10
409.840734
 20
73.217854
 42
0.000000
  0
VERTEX
  8
0
 10
416.668089
 20
76.935707
 42
0.000000
  0
VERTEX
  8
0
 10
423.323624
 20
68.467854
 42
0.013847
  0
VERTEX
  8
0
 10
427.910064
 20
62.953885
 42
0.083046
  0
VERTEX
  8
0
 10
430.794199
 20
60.604527
 42
0.191054
  0
VERTEX
  8
0
 10
433.119976
 20
60.276065
 42
0.137899
  0
VERTEX
  8
0
 10
435.428571
 20
61.571429
 42
0.014561
  0
VERTEX
  8
0
 10
436.030378
 20
62.209346
 42
0.019212
  0
VERTEX
  8
0
 10
436.538393
 20
62.826454
 42
0.016910
  0
VERTEX
  8
0
 10
436.917176
 20
63.360974
 42
0.146710
  0
VERTEX
  8
0
 10
437.000000
 20
63.637170
 42
0.165211
  0
VERTEX
  8
0
 10
435.921676
 20
66.811568
 42
0.006822
  0
VERTEX
  8
0
 10
428.368095
 20
76.373893
 42
0.005746
  0
VERTEX
  8
0
 10
420.473655
 20
85.867149
 42
0.219843
  0
VERTEX
  8
0
 10
418.021674
 20
87.000000
 42
0.100682
  0
VERTEX
  8
0
 10
416.941462
 20
86.780257
 42
0.008773
  0
VERTEX
  8
0
 10
414.369187
 20
85.634875
 42
0.011246
  0
VERTEX
  8
0
 10
411.329137
 20
84.132626
 42
0.008505
  0
VERTEX
  8
0
 10
408.059172
 20
82.352768
 42
0.000000
  0
VERTEX
  8
0
 10
399.856675
 20
77.705535
 42
0.000000
  0
VERTEX
  8
0
 10
386.178337
 20
84.033982
 42
-0.001789
  0
VERTEX
  8
0
 10
380.875889
 20
86.510292
 42
-0.002692
  0
VERTEX
  8
0
 10
376.272156
 20
88.710759
 42
-0.001074
  0
VERTEX
  8
0
 10
372.338756
 20
90.627347
 42
-0.061326
  0
VERTEX
  8
0
 10
371.663044
 20
91.068170
 42
-0.620430
  0
VERTEX
  8
0
 10
371.739194
 20
91.378856
 42
-0.012511
  0
VERTEX
  8
0
 10
373.775103
 20
91.780547
 42
-0.014865
  0
VERTEX
  8
0
 10
376.556054
 20
92.172594
 42
-0.007836
  0
VERTEX
  8
0
 10
380.028331
 20
92.502242
 42
0.008941
  0
VERTEX
  8
0
 10
384.640975
 20
92.950445
 42
0.029187
  0
VERTEX
  8
0
 10
387.661310
 20
93.478562
 42
0.045068
  0
VERTEX
  8
0
 10
389.721502
 20
94.164804
 42
0.093720
  0
VERTEX
  8
0
 10
391.115287
 20
95.115287
 42
0.091910
  0
VERTEX
  8
0
 10
392.558068
 20
97.214754
 42
0.222827
  0
VERTEX
  8
0
 10
392.521890
 20
99.050680
 42
0.102057
  0
VERTEX
  8
0
 10
390.858732
 20
101.186556
 42
0.013015
  0
VERTEX
  8
0
 10
386.306104
 20
104.866243
 42
-0.039981
  0
VERTEX
  8
0
 10
382.967092
 20
107.876374
 42
-0.018418
  0
VERTEX
  8
0
 10
379.103401
 20
112.278051
 42
-0.012827
  0
VERTEX
  8
0
 10
375.656715
 20
116.738207
 42
-0.159396
  0
VERTEX
  8
0
 10
375.000000
 20
118.745882
 42
-0.318428
  0
VERTEX
  8
0
 10
375.295545
 20
119.162897
 42
-0.019476
  0
VERTEX
  8
0
 10
376.835938
 20
119.637280
 42
-0.023214
  0
VERTEX
  8
0
 10
378.854316
 20
120.074616
 42
-0.014514
  0
VERTEX
  8
0
 10
381.250000
 20
120.407167
 42
0.000743
  0
VERTEX
  8
0
 10
384.179650
 20
120.731896
 42
0.000377
  0
VERTEX
  8
0
 10
387.867188
 20
121.148995
 42
0.000374
  0
VERTEX
  8
0
 10
391.673052
 20
121.585269
 42
0.000558
  0
VERTEX
  8
0
 10
395.000000
 20
121.972932
 42
-0.042908
  0
VERTEX
  8
0
 10
406.163115
 20
122.323041
 42
-0.045595
  0
VERTEX
  8
0
 10
416.990641
 20
120.736001
 42
-0.043168
  0
VERTEX
  8
0
 10
427.849009
 20
117.102087
 42
-0.032065
  0
VERTEX
  8
0
 10
439.111102
 20
111.333953
 42
0.010904
  0
VERTEX
  8
0
 10
447.781969
 20
106.419449
 42
0.026916
  0
VERTEX
  8
0
 10
454.395468
 20
103.305860
 42
0.033993
  0
VERTEX
  8
0
 10
459.311873
 20
101.686256
 42
0.187572
  0
VERTEX
  8
0
 10
462.028794
 20
102.015410
 42
0.208714
  0
VERTEX
  8
0
 10
463.618371
 20
104.030577
 42
0.186693
  0
VERTEX
  8
0
 10
463.316948
 20
106.691918
 42
0.064313
  0
VERTEX
  8
0
 10
460.478007
 20
110.750663
 42
0.010100
  0
VERTEX
  8
0
 10
453.750000
 20
117.843386
 42
-0.001833
  0
VERTEX
  8
0
 10
447.089069
 20
124.636817
 42
-0.042295
  0
VERTEX
  8
0
 10
445.367553
 20
126.733966
 42
-0.478429
  0
VERTEX
  8
0
 10
445.592949
 20
127.490170
 42
-0.138411
  0
VERTEX
  8
0
 10
447.000000
 20
127.650642
 42
0.007043
  0
VERTEX
  8
0
 10
448.783256
 20
127.385813
 42
0.002395
  0
VERTEX
  8
0
 10
451.381250
 20
127.049979
 42
0.002381
  0
VERTEX
  8
0
 10
454.254791
 20
126.706400
 42
0.002740
  0
VERTEX
  8
0
 10
457.000000
 20
126.406650
 42
-0.032951
  0
VERTEX
  8
0
 10
463.803876
 20
125.244622
 42
-0.116655
  0
VERTEX
  8
0
 10
467.732216
 20
123.262513
 42
-0.157556
  0
VERTEX
  8
0
 10
469.700870
 20
120.113361
 42
-0.076964
  0
VERTEX
  8
0
 10
470.143233
 20
115.346271
 42
0.081180
  0
VERTEX
  8
0
 10
470.378880
 20
113.018996
 42
0.086443
  0
VERTEX
  8
0
 10
471.344500
 20
110.943029
 42
0.097878
  0
VERTEX
  8
0
 10
472.829916
 20
109.508910
 42
0.144160
  0
VERTEX
  8
0
 10
474.558318
 20
109.000000
 42
0.182310
  0
VERTEX
  8
0
 10
477.138952
 20
109.973298
 42
0.006898
  0
VERTEX
  8
0
 10
484.913052
 20
117.002368
 42
0.009857
  0
VERTEX
  8
0
 10
492.252088
 20
124.099177
 42
0.096973
  0
VERTEX
  8
0
 10
494.630588
 20
127.658300
 42
0.074147
  0
VERTEX
  8
0
 10
495.915226
 20
132.736867
 42
0.083298
  0
VERTEX
  8
0
 10
495.580749
 20
137.760765
 42
0.085359
  0
VERTEX
  8
0
 10
493.644313
 20
142.302892
 42
0.082934
  0
VERTEX
  8
0
 10
490.286446
 20
145.989322
 42
0.032008
  0
VERTEX
  8
0
 10
488.756402
 20
147.041755
 42
0.008687
  0
VERTEX
  8
0
 10
486.207253
 20
148.505209
 42
0.008753
  0
VERTEX
  8
0
 10
483.250368
 20
150.068253
 42
0.008989
  0
VERTEX
  8
0
 10
480.266467
 20
151.512549
 42
-0.009135
  0
VERTEX
  8
0
 10
476.288261
 20
153.439547
 42
-0.052075
  0
VERTEX
  8
0
 10
474.317355
 20
154.712326
 42
-0.106433
  0
VERTEX
  8
0
 10
473.346039
 20
155.910355
 42
-0.117841
  0
VERTEX
  8
0
 10
473.000000
 20
157.358207
 42
0.138168
  0
VERTEX
  8
0
 10
472.018997
 20
160.840464
 42
0.092696
  0
VERTEX
  8
0
 10
469.231685
 20
163.929730
 42
0.055137
  0
VERTEX
  8
0
 10
464.133689
 20
166.997476
 42
0.016285
  0
VERTEX
  8
0
 10
455.723007
 20
170.543343
 42
-0.007843
  0
VERTEX
  8
0
 10
430.737635
 20
180.583676
 42
-0.008067
  0
VERTEX
  8
0
 10
406.314567
 20
191.312712
 42
-0.002901
  0
VERTEX
  8
0
 10
384.094773
 20
201.661098
 42
-0.193028
  0
VERTEX
  8
0
 10
381.290891
 20
204.684332
 42
-0.170335
  0
VERTEX
  8
0
 10
381.219743
 20
207.139081
 42
-0.034080
  0
VERTEX
  8
0
 10
382.855130
 20
211.274441
 42
-0.034628
  0
VERTEX
  8
0
 10
385.395547
 20
215.774265
 42
-0.037300
  0
VERTEX
  8
0
 10
388.476902
 20
219.763085
 42
-0.028239
  0
VERTEX
  8
0
 10
390.623296
 20
221.895039
 42
-0.020537
  0
VERTEX
  8
0
 10
393.231165
 20
224.023362
 42
-0.020535
  0
VERTEX
  8
0
 10
396.005395
 20
225.930935
 42
-0.028196
  0
VERTEX
  8
0
 10
398.654925
 20
227.395344
 42
0.000092
  0
VERTEX
  8
0
 10
401.217262
 20
228.629063
 42
0.000065
  0
VERTEX
  8
0
 10
404.087928
 20
230.012350
 42
0.000066
  0
VERTEX
  8
0
 10
406.826243
 20
231.332746
 42
0.000141
  0
VERTEX
  8
0
 10
408.942277
 20
232.354161
 42
0.033433
  0
VERTEX
  8
0
 10
411.010303
 20
233.529561
 42
0.014450
  0
VERTEX
  8
0
 10
413.603465
 20
235.351925
 42
0.014223
  0
VERTEX
  8
0
 10
416.260717
 20
237.456782
 42
0.018305
  0
VERTEX
  8
0
 10
418.572061
 20
239.546009
 42
0.075206
  0
VERTEX
  8
0
 10
426.259492
 20
249.677337
 42
0.071831
  0
VERTEX
  8
0
 10
430.756174
 20
261.786898
 42
0.072451
  0
VERTEX
  8
0
 10
431.620656
 20
274.576755
 42
0.078830
  0
VERTEX
  8
0
 10
428.726343
 20
286.692411
 42
0.040873
  0
VERTEX
  8
0
 10
423.819654
 20
296.267988
 42
0.000452
  0
VERTEX
  8
0
 10
385.272330
 20
358.283034
 42
0.000190
  0
VERTEX
  8
0
 10
345.227120
 20
422.523806
 42
0.103047
  0
VERTEX
  8
0
 10
342.070562
 20
425.823917
 42
0.047013
  0
VERTEX
  8
0
 10
341.041296
 20
426.397355
 42
0.088966
  0
VERTEX
  8
0
 10
340.121130
 20
426.619496
 42
0.089647
  0
VERTEX
  8
0
 10
339.185858
 20
426.507292
 42
0.048333
  0
VERTEX
  8
0
 10
338.111096
 20
426.059457
 42
0.117333
  0
VERTEX
  8
0
 10
337.029405
 20
425.101138
 42
0.093594
  0
VERTEX
  8
0
 10
336.384181
 20
423.677605
 42
0.044111
  0
VERTEX
  8
0
 10
336.018472
 20
421.270051
 42
0.007104
  0
VERTEX
  8
0
 10
335.788722
 20
416.524541
 42
0.000000
  0
VERTEX
  8
0
 10
335.500000
 20
408.078002
 42
0.000000
  0
VERTEX
  8
0
 10
289.133248
 20
460.039001
 42
0.001398
  0
VERTEX
  8
0
 10
269.092093
 20
482.372142
 42
0.003497
  0
VERTEX
  8
0
 10
254.299528
 20
498.535290
 42
0.000864
  0
VERTEX
  8
0
 10
242.337949
 20
511.378445
 42
0.207711
  0
VERTEX
  8
0
 10
240.906301
 20
512.000000
 42
0.098563
  0
VERTEX
  8
0
 10
240.086459
 20
511.836803
 42
0.050343
  0
VERTEX
  8
0
 10
239.158489
 20
511.337557
 42
0.047280
  0
VERTEX
  8
0
 10
238.271597
 20
510.607552
 42
0.051946
  0
SEQEND
  0
POLYLINE
  8
0
 66
1
 70
1
  0
VERTEX
  8
0
 10
292.499934
 20
443.000000
 42
0.000430
  0
VERTEX
  8
0
 10
307.304880
 20
426.372618
 42
0.000607
  0
VERTEX
  8
0
 10
320.523173
 20
411.589063
 42
0.000346
  0
VERTEX
  8
0
 10
331.707744
 20
399.127941
 42
0.008600
  0
VERTEX
  8
0
 10
334.850551
 20
395.750000
 42
0.055430
  0
VERTEX
  8
0
 10
339.831475
 20
391.609698
 42
0.252723
  0
VERTEX
  8
0
 10
343.457264
 20
391.291005
 42
0.269515
  0
VERTEX
  8
0
 10
345.546310
 20
394.115231
 42
0.060575
  0
VERTEX
  8
0
 10
345.480025
 20
400.337190
 42
-0.010661
  0
VERTEX
  8
0
 10
345.239218
 20
402.510851
 42
-0.038815
  0
VERTEX
  8
0
 10
345.223367
 20
403.898487
 42
-0.134040
  0
VERTEX
  8
0
 10
345.421605
 20
404.472261
 42
-0.476199
  0
VERTEX
  8
0
 10
345.755871
 20
404.500000
 42
-0.050881
  0
VERTEX
  8
0
 10
346.434838
 20
403.630675
 42
-0.000088
  0
VERTEX
  8
0
 10
356.462830
 20
387.678879
 42
-0.000670
  0
VERTEX
  8
0
 10
367.699241
 20
369.744557
 42
-0.000415
  0
VERTEX
  8
0
 10
380.857692
 20
348.640865
 42
0.000000
  0
VERTEX
  8
0
 10
415.000000
 20
293.781730
 42
0.000000
  0
VERTEX
  8
0
 10
415.000000
 20
288.049796
 42
-0.034567
  0
VERTEX
  8
0
 10
414.635682
 20
282.786407
 42
-0.037030
  0
VERTEX
  8
0
 10
413.549609
 20
277.746285
 42
-0.039172
  0
VERTEX
  8
0
 10
411.817160
 20
273.206669
 42
-0.052230
  0
VERTEX
  8
0
 10
409.522289
 20
269.440335
 42
-0.066867
  0
VERTEX
  8
0
 10
406.605209
 20
266.521734
 42
-0.040602
  0
VERTEX
  8
0
 10
402.492531
 20
263.880033
 42
-0.030351
  0
VERTEX
  8
0
 10
396.825455
 20
261.287006
 42
-0.013100
  0
VERTEX
  8
0
 10
389.000000
 20
258.499099
 42
0.031876
  0
VERTEX
  8
0
 10
375.458628
 20
253.094034
 42
0.069946
  0
VERTEX
  8
0
 10
366.166039
 20
246.963631
 42
0.080312
  0
VERTEX
  8
0
 10
359.712366
 20
239.107164
 42
0.054368
  0
VERTEX
  8
0
 10
354.991091
 20
228.500000
 42
-0.019590
  0
VERTEX
  8
0
 10
354.374000
 20
226.805898
 42
-0.015447
  0
VERTEX
  8
0
 10
353.579109
 20
225.022978
 42
-0.015713
  0
VERTEX
  8
0
 10
352.736488
 20
223.411155
 42
-0.036872
  0
VERTEX
  8
0
 10
351.984524
 20
222.280349
 42
0.078311
  0
VERTEX
  8
0
 10
351.211577
 20
220.879634
 42
0.013418
  0
VERTEX
  8
0
 10
350.249312
 20
217.986618
 42
0.014337
  0
VERTEX
  8
0
 10
349.299803
 20
214.496115
 42
0.012359
  0
VERTEX
  8
0
 10
348.499223
 20
210.780349
 42
-0.006457
  0
VERTEX
  8
0
 10
347.763368
 20
207.157830
 42
-0.009135
  0
VERTEX
  8
0
 10
347.007988
 20
203.954634
 42
-0.005833
  0
VERTEX
  8
0
 10
346.298044
 20
201.302177
 42
-0.117173
  0
VERTEX
  8
0
 10
345.895123
 20
200.575852
 42
-0.355422
  0
VERTEX
  8
0
 10
344.296037
 20
200.337370
 42
-0.022667
  0
VERTEX
  8
0
 10
340.050796
 20
203.120388
 42
-0.029670
  0
VERTEX
  8
0
 10
335.640549
 20
206.722854
 42
-0.043530
  0
VERTEX
  8
0
 10
332.267244
 20
210.420636
 42
-0.039329
  0
VERTEX
  8
0
 10
329.360901
 20
214.916045
 42
-0.045934
  0
VERTEX
  8
0
 10
327.365785
 20
219.589260
 42
-0.044218
  0
VERTEX
  8
0
 10
326.205611
 20
224.697727
 42
-0.032386
  0
VERTEX
  8
0
 10
325.797667
 20
230.500000
 42
-0.036590
  0
VERTEX
  8
0
 10
326.170813
 20
236.002934
 42
-0.048530
  0
VERTEX
  8
0
 10
327.352540
 20
240.877539
 42
-0.040896
  0
VERTEX
  8
0
 10
329.630580
 20
246.026100
 42
-0.017697
  0
VERTEX
  8
0
 10
333.446065
 20
252.483140
 42
0.031278
  0
VERTEX
  8
0
 10
337.172067
 20
259.198460
 42
0.045741
  0
VERTEX
  8
0
 10
339.505614
 20
265.539876
 42
0.045462
  0
VERTEX
  8
0
 10
340.656121
 20
272.229174
 42
0.030410
  0
VERTEX
  8
0
 10
340.801158
 20
280.000000
 42
0.010896
  0
VERTEX
  8
0
 10
340.454850
 20
285.409651
 42
0.033903
  0
VERTEX
  8
0
 10
339.896623
 20
289.017677
 42
0.038843
  0
VERTEX
  8
0
 10
338.901479
 20
292.246961
 42
0.018079
  0
VERTEX
  8
0
 10
337.142120
 20
296.264873
 42
0.042464
  0
VERTEX
  8
0
 10
333.015302
 20
303.247921
 42
0.049490
  0
VERTEX
  8
0
 10
327.949303
 20
309.052805
 42
0.046073
  0
VERTEX
  8
0
 10
321.528688
 20
314.059404
 42
0.029987
  0
VERTEX
  8
0
 10
313.316866
 20
318.655414
 42
-0.005104
  0
VERTEX
  8
0
 10
307.925006
 20
321.330154
 42
-0.036206
  0
VERTEX
  8
0
 10
305.426462
 20
322.838355
 42
-0.114809
  0
VERTEX
  8
0
 10
304.483462
 20
323.899077
 42
-0.341836
  0
VERTEX
  8
0
 10
304.629201
 20
324.798335
 42
0.074290
  0
VERTEX
  8
0
 10
305.154617
 20
325.459991
 42
0.040801
  0
VERTEX
  8
0
 10
305.597328
 20
326.397292
 42
0.039585
  0
VERTEX
  8
0
 10
305.899003
 20
327.444117
 42
0.050405
  0
VERTEX
  8
0
 10
306.000000
 20
328.443419
 42
0.186887
  0
VERTEX
  8
0
 10
305.395532
 20
330.004142
 42
0.062920
  0
VERTEX
  8
0
 10
303.505376
 20
331.616010
 42
0.027413
  0
VERTEX
  8
0
 10
299.762638
 20
333.786944
 42
0.003828
  0
VERTEX
  8
0
 10
291.750000
 20
337.788223
 42
-0.018139
  0
VERTEX
  8
0
 10
275.100320
 20
346.706677
 42
-0.022890
  0
VERTEX
  8
0
 10
260.425105
 20
356.192071
 42
-0.022555
  0
VERTEX
  8
0
 10
246.507226
 20
367.098628
 42
-0.016784
  0
VERTEX
  8
0
 10
232.135495
 20
380.309867
 42
-0.016816
  0
VERTEX
  8
0
 10
222.585734
 20
390.352391
 42
-0.010440
  0
VERTEX
  8
0
 10
212.034419
 20
402.734283
 42
-0.004664
  0
VERTEX
  8
0
 10
202.173230
 20
415.040624
 42
-0.168110
  0
VERTEX
  8
0
 10
201.000000
 20
418.431473
 42
-0.617700
  0
VERTEX
  8
0
 10
201.176201
 20
418.519679
 42
-0.001548
  0
VERTEX
  8
0
 10
204.010938
 20
416.384179
 42
-0.005466
  0
VERTEX
  8
0
 10
207.318571
 20
413.818918
 42
-0.003144
  0
VERTEX
  8
0
 10
211.250000
 20
410.659961
 42
0.004360
  0
VERTEX
  8
0
 10
216.135848
 20
406.753629
 42
0.002107
  0
VERTEX
  8
0
 10
222.454687
 20
401.834201
 42
0.002089
  0
VERTEX
  8
0
 10
229.083104
 20
396.762519
 42
0.003000
  0
VERTEX
  8
0
 10
235.000000
 20
392.330005
 42
-0.006271
  0
VERTEX
  8
0
 10
240.790813
 20
387.932513
 42
-0.004764
  0
VERTEX
  8
0
 10
247.031250
 20
382.972698
 42
-0.004817
  0
VERTEX
  8
0
 10
252.796753
 20
378.207286
 42
-0.011211
  0
VERTEX
  8
0
 10
257.000000
 20
374.500095
 42
0.013696
  0
VERTEX
  8
0
 10
264.921693
 20
367.582962
 42
0.011124
  0
VERTEX
  8
0
 10
273.770789
 20
360.598588
 42
0.011315
  0
VERTEX
  8
0
 10
282.686575
 20
354.189104
 42
0.016825
  0
VERTEX
  8
0
 10
290.794344
 20
349.026337
 42
0.007695
  0
VERTEX
  8
0
 10
294.971111
 20
346.646074
 42
0.046675
  0
VERTEX
  8
0
 10
297.253435
 20
345.655985
 42
0.093054
  0
VERTEX
  8
0
 10
298.917019
 20
345.437731
 42
0.093370
  0
VERTEX
  8
0
 10
300.544344
 20
345.838251
 42
0.101942
  0
VERTEX
  8
0
 10
302.110472
 20
346.981836
 42
0.137831
  0
VERTEX
  8
0
 10
302.889555
 20
348.542642
 42
0.131449
  0
VERTEX
  8
0
 10
302.759395
 20
350.338150
 42
0.088660
  0
VERTEX
  8
0
 10
301.750000
 20
352.140075
 42
0.063388
  0
VERTEX
  8
0
 10
300.861488
 20
352.979016
 42
0.006609
  0
VERTEX
  8
0
 10
298.517187
 20
354.641634
 42
0.008117
  0
VERTEX
  8
0
 10
295.654936
 20
356.547449
 42
0.006415
  0
VERTEX
  8
0
 10
292.500000
 20
358.518272
 42
-0.024979
  0
VERTEX
  8
0
 10
279.490065
 20
367.332876
 42
-0.018728
  0
VERTEX
  8
0
 10
266.064997
 20
378.253395
 42
-0.018258
  0
VERTEX
  8
0
 10
253.083996
 20
390.513587
 42
-0.019829
  0
VERTEX
  8
0
 10
241.399856
 20
403.366994
 42
-0.013736
  0
VERTEX
  8
0
 10
234.412768
 20
412.174301
 42
-0.008064
  0
VERTEX
  8
0
 10
226.519804
 20
423.066784
 42
-0.008051
  0
VERTEX
  8
0
 10
219.174715
 20
433.923004
 42
-0.017707
  0
VERTEX
  8
0
 10
213.994592
 20
442.500000
 42
0.000000
  0
VERTEX
  8
0
 10
210.654860
 20
448.500000
 42
0.000000
  0
VERTEX
  8
0
 10
224.077430
 20
435.471411
 42
0.004869
  0
VERTEX
  8
0
 10
230.055169
 20
429.781132
 42
0.003351
  0
VERTEX
  8
0
 10
236.935245
 20
423.444206
 42
0.003378
  0
VERTEX
  8
0
 10
243.638266
 20
417.435071
 42
0.006879
  0
VERTEX
  8
0
 10
249.000000
 20
412.823202
 42
-0.005306
  0
VERTEX
  8
0
 10
253.842735
 20
408.684179
 42
-0.004469
  0
VERTEX
  8
0
 10
258.884375
 20
404.201681
 42
-0.004509
  0
VERTEX
  8
0
 10
263.412559
 20
400.027733
 42
-0.012454
  0
VERTEX
  8
0
 10
266.500000
 20
396.981745
 42
0.023895
  0
VERTEX
  8
0
 10
276.598124
 20
387.465021
 42
0.018293
  0
VERTEX
  8
0
 10
288.478375
 20
378.025696
 42
0.011028
  0
VERTEX
  8
0
 10
299.848479
 20
370.032019
 42
0.228361
  0
VERTEX
  8
0
 10
303.869189
 20
369.458482
 42
0.159382
  0
VERTEX
  8
0
 10
306.161698
 20
371.107047
 42
0.202849
  0
VERTEX
  8
0
 10
306.752426
 20
373.618787
 42
0.140431
  0
VERTEX
  8
0
 10
305.344092
 20
376.546850
 42
0.072595
  0
VERTEX
  8
0
 10
302.207525
 20
379.180759
 42
-0.048869
  0
VERTEX
  8
0
 10
280.030690
 20
396.082912
 42
-0.035167
  0
VERTEX
  8
0
 10
258.761758
 20
418.840548
 42
-0.035052
  0
VERTEX
  8
0
 10
240.804126
 20
444.467568
 42
-0.047206
  0
VERTEX
  8
0
 10
228.571229
 20
470.000000
 42
-0.035213
  0
VERTEX
  8
0
 10
227.899388
 20
472.318406
 42
-0.687670
  0
VERTEX
  8
0
 10
228.340000
 20
472.605606
 42
-0.048059
  0
VERTEX
  8
0
 10
229.934541
 20
471.198044
 42
-0.001357
  0
VERTEX
  8
0
 10
236.159937
 20
464.500000
 42
0.002579
  0
VERTEX
  8
0
 10
240.627786
 20
459.716429
 42
0.001156
  0
VERTEX
  8
0
 10
246.548146
 20
453.471875
 42
0.001144
  0
VERTEX
  8
0
 10
252.836744
 20
446.899737
 42
0.001556
  0
VERTEX
  8
0
 10
258.543294
 20
441.000000
 42
-0.004345
  0
VERTEX
  8
0
 10
263.907989
 20
435.391403
 42
-0.004375
  0
VERTEX
  8
0
 10
269.162016
 20
429.703125
 42
-0.004273
  0
VERTEX
  8
0
 10
273.654563
 20
424.667240
 42
-0.017555
  0
VERTEX
  8
0
 10
276.240945
 20
421.500000
 42
0.018900
  0
VERTEX
  8
0
 10
284.315147
 20
411.666531
 42
0.012682
  0
VERTEX
  8
0
 10
294.237176
 20
401.029364
 42
0.006101
  0
VERTEX
  8
0
 10
304.071718
 20
391.249612
 42
0.195018
  0
VERTEX
  8
0
 10
307.153705
 20
390.000000
 42
0.117743
  0
VERTEX
  8
0
 10
308.582226
 20
390.341124
 42
0.094349
  0
VERTEX
  8
0
 10
309.838058
 20
391.309666
 42
0.089536
  0
VERTEX
  8
0
 10
310.699763
 20
392.724317
 42
0.092389
  0
VERTEX
  8
0
 10
311.000000
 20
394.335297
 42
0.163922
  0
VERTEX
  8
0
 10
310.593187
 20
395.542827
 42
0.008770
  0
VERTEX
  8
0
 10
308.054379
 20
398.764227
 42
0.012682
  0
VERTEX
  8
0
 10
304.760581
 20
402.593630
 42
0.008085
  0
VERTEX
  8
0
 10
300.747394
 20
406.885297
 42
-0.016555
  0
VERTEX
  8
0
 10
288.510254
 20
420.424134
 42
-0.019384
  0
VERTEX
  8
0
 10
277.853464
 20
434.068545
 42
-0.020009
  0
VERTEX
  8
0
 10
268.579690
 20
448.091605
 42
-0.020215
  0
VERTEX
  8
0
 10
260.490238
 20
462.764456
 42
-0.011437
  0
VERTEX
  8
0
 10
256.887697
 20
470.405598
 42
-0.007178
  0
VERTEX
  8
0
 10
253.010216
 20
479.492138
 42
-0.003590
  0
VERTEX
  8
0
 10
249.473411
 20
488.301167
 42
-0.093929
  0
VERTEX
  8
0
 10
249.000000
 20
490.798988
 42
-0.682280
  0
VERTEX
  8
0
 10
249.489519
 20
490.990732
 42
-0.002078
  0
VERTEX
  8
0
 10
255.743301
 20
484.176008
 42
-0.002695
  0
VERTEX
  8
0
 10
266.181845
 20
472.580898
 42
-0.000235
  0
SEQEND
  0
POLYLINE
  8
0
 66
1
 70
1
  0
VERTEX
  8
0
 10
126.193996
 20
368.549621
 42
0.000894
  0
VERTEX
  8
0
 10
150.012950
 20
362.205717
 42
0.001413
  0
VERTEX
  8
0
 10
170.457457
 20
356.861451
 42
0.000309
  0
VERTEX
  8
0
 10
188.430139
 20
352.229412
 42
0.062988
  0
VERTEX
  8
0
 10
190.243996
 20
352.000000
 42
0.076906
  0
VERTEX
  8
0
 10
192.016478
 20
352.274252
 42
0.083726
  0
VERTEX
  8
0
 10
193.566712
 20
353.069697
 42
0.094771
  0
VERTEX
  8
0
 10
194.625988
 20
354.228228
 42
0.138806
  0
VERTEX
  8
0
 10
195.000000
 20
355.549519
 42
0.110429
  0
VERTEX
  8
0
 10
194.849070
 20
356.224568
 42
0.012232
  0
VERTEX
  8
0
 10
194.136423
 20
357.647202
 42
0.014430
  0
VERTEX
  8
0
 10
193.185974
 20
359.316032
 42
0.011212
  0
VERTEX
  8
0
 10
192.060164
 20
361.076350
 42
-0.008615
  0
VERTEX
  8
0
 10
190.958341
 20
362.779607
 42
-0.013902
  0
VERTEX
  8
0
 10
190.086524
 20
364.270445
 42
-0.007601
  0
VERTEX
  8
0
 10
189.425125
 20
365.522019
 42
-0.324839
  0
VERTEX
  8
0
 10
189.469671
 20
365.803004
 42
-0.315200
  0
VERTEX
  8
0
 10
190.670579
 20
366.014978
 42
-0.000067
  0
VERTEX
  8
0
 10
247.231736
 20
339.655522
 42
-0.000279
  0
VERTEX
  8
0
 10
301.862257
 20
314.149823
 42
-0.055905
  0
VERTEX
  8
0
 10
306.971659
 20
311.023889
 42
-0.067420
  0
VERTEX
  8
0
 10
310.365063
 20
307.562042
 42
-0.051758
  0
VERTEX
  8
0
 10
313.078425
 20
303.008186
 42
-0.048662
  0
VERTEX
  8
0
 10
314.939919
 20
297.689748
 42
-0.044761
  0
VERTEX
  8
0
 10
315.805774
 20
291.959614
 42
-0.042567
  0
VERTEX
  8
0
 10
315.664416
 20
286.208546
 42
-0.076803
  0
VERTEX
  8
0
 10
314.441879
 20
281.667097
 42
-0.048667
  0
VERTEX
  8
0
 10
311.509978
 20
276.468630
 42
-0.008833
  0
VERTEX
  8
0
 10
304.992142
 20
267.500000
 42
0.012071
  0
VERTEX
  8
0
 10
297.738106
 20
257.381208
 42
0.045889
  0
VERTEX
  8
0
 10
293.972394
 20
250.587207
 42
0.063775
  0
VERTEX
  8
0
 10
292.156290
 20
244.434568
 42
0.040894
  0
VERTEX
  8
0
 10
291.575941
 20
237.000000
 42
0.036584
  0
VERTEX
  8
0
 10
292.131633
 20
229.795109
 42
0.035078
  0
VERTEX
  8
0
 10
293.732663
 20
222.643421
 42
0.033427
  0
VERTEX
  8
0
 10
296.408983
 20
215.472142
 42
0.027371
  0
VERTEX
  8
0
 10
300.179214
 20
208.208015
 42
0.040839
  0
VERTEX
  8
0
 10
304.381060
 20
202.261021
 42
0.024013
  0
VERTEX
  8
0
 10
310.286461
 20
195.854995
 42
0.024077
  0
VERTEX
  8
0
 10
316.661082
 20
190.151638
 42
0.048375
  0
VERTEX
  8
0
 10
322.284116
 20
186.426810
 42
0.000000
  0
VERTEX
  8
0
 10
328.068231
 20
183.353620
 42
0.000000
  0
VERTEX
  8
0
 10
312.741535
 20
166.426810
 42
-0.003766
  0
VERTEX
  8
0
 10
306.776976
 20
159.938448
 42
-0.005943
  0
VERTEX
  8
0
 10
301.552640
 20
154.472250
 42
-0.001892
  0
VERTEX
  8
0
 10
296.979406
 20
149.834993
 42
-0.199736
  0
VERTEX
  8
0
 10
296.174272
 20
149.500000
 42
-0.149825
  0
VERTEX
  8
0
 10
295.611444
 20
149.672525
 42
-0.048549
  0
VERTEX
  8
0
 10
294.933318
 20
150.234375
 42
-0.043356
  0
VERTEX
  8
0
 10
294.258566
 20
151.043287
 42
-0.036895
  0
VERTEX
  8
0
 10
293.691820
 20
152.000000
 42
0.112467
  0
VERTEX
  8
0
 10
292.160945
 20
153.873705
 42
0.137499
  0
VERTEX
  8
0
 10
290.074539
 20
154.727626
 42
0.108817
  0
VERTEX
  8
0
 10
287.459397
 20
154.461048
 42
0.053721
  0
VERTEX
  8
0
 10
284.402309
 20
153.074862
 42
-0.024921
  0
VERTEX
  8
0
 10
281.448983
 20
151.525250
 42
-0.108411
  0
VERTEX
  8
0
 10
279.530718
 20
151.101518
 42
-0.244905
  0
VERTEX
  8
0
 10
278.441483
 20
151.667108
 42
-0.154079
  0
VERTEX
  8
0
 10
278.000000
 20
153.065741
 42
0.068778
  0
VERTEX
  8
0
 10
277.686050
 20
155.337273
 42
0.085439
  0
VERTEX
  8
0
 10
276.768975
 20
157.259539
 42
0.100298
  0
VERTEX
  8
0
 10
275.405593
 20
158.543128
 42
0.139733
  0
VERTEX
  8
0
 10
273.802708
 20
159.000000
 42
0.045102
  0
VERTEX
  8
0
 10
272.647272
 20
158.895562
 42
0.010392
  0
VERTEX
  8
0
 10
270.728681
 20
158.504506
 42
0.010654
  0
VERTEX
  8
0
 10
268.529344
 20
157.958921
 42
0.010225
  0
VERTEX
  8
0
 10
266.324679
 20
157.313213
 42
-0.025019
  0
VERTEX
  8
0
 10
262.046472
 20
156.196462
 42
-0.202464
  0
VERTEX
  8
0
 10
260.099257
 20
156.579479
 42
-0.303476
  0
VERTEX
  8
0
 10
259.486136
 20
158.080602
 42
-0.048602
  0
VERTEX
  8
0
 10
260.467115
 20
161.267053
 42
0.092524
  0
VERTEX
  8
0
 10
261.371296
 20
165.483188
 42
0.261703
  0
VERTEX
  8
0
 10
260.016236
 20
168.053364
 42
0.193688
  0
VERTEX
  8
0
 10
256.631122
 20
168.708053
 42
0.056279
  0
VERTEX
  8
0
 10
251.461748
 20
167.086104
 42
-0.013203
  0
VERTEX
  8
0
 10
247.283097
 20
165.368123
 42
-0.105911
  0
VERTEX
  8
0
 10
245.238920
 20
165.053680
 42
-0.332162
  0
VERTEX
  8
0
 10
244.372946
 20
165.782784
 42
-0.118401
  0
VERTEX
  8
0
 10
244.383423
 20
167.500000
 42
0.000009
  0
VERTEX
  8
0
 10
244.664182
 20
168.638470
 42
0.000006
  0
VERTEX
  8
0
 10
245.000323
 20
170.001688
 42
0.000006
  0
VERTEX
  8
0
 10
245.336566
 20
171.365452
 42
0.000009
  0
VERTEX
  8
0
 10
245.617676
 20
172.505746
 42
0.095903
  0
VERTEX
  8
0
 10
245.724303
 20
174.616853
 42
0.125251
  0
VERTEX
  8
0
 10
244.992067
 20
176.398415
 42
0.128951
  0
VERTEX
  8
0
 10
243.518195
 20
177.578495
 42
0.105049
  0
VERTEX
  8
0
 10
241.534106
 20
178.000000
 42
0.049962
  0
VERTEX
  8
0
 10
240.319223
 20
177.878301
 42
0.010965
  0
VERTEX
  8
0
 10
238.269445
 20
177.416464
 42
0.011308
  0
VERTEX
  8
0
 10
235.912640
 20
176.773943
 42
0.010649
  0
VERTEX
  8
0
 10
233.539224
 20
176.013495
 42
-0.017985
  0
VERTEX
  8
0
 10
228.033086
 20
174.337972
 42
-0.303163
  0
VERTEX
  8
0
 10
226.320657
 20
174.923145
 42
-0.293014
  0
VERTEX
  8
0
 10
226.168625
 20
176.756562
 42
-0.017211
  0
VERTEX
  8
0
 10
229.088059
 20
181.834756
 42
0.012654
  0
VERTEX
  8
0
 10
230.694594
 20
184.571223
 42
0.058658
  0
VERTEX
  8
0
 10
231.387770
 20
186.265359
 42
0.101699
  0
VERTEX
  8
0
 10
231.478349
 20
187.585645
 42
0.089537
  0
VERTEX
  8
0
 10
231.052875
 20
188.901201
 42
0.150918
  0
VERTEX
  8
0
 10
229.611693
 20
190.326407
 42
0.107662
  0
VERTEX
  8
0
 10
227.407626
 20
190.926330
 42
0.065111
  0
VERTEX
  8
0
 10
224.193301
 20
190.672562
 42
0.021431
  0
VERTEX
  8
0
 10
219.591069
 20
189.489176
 42
-0.020030
  0
VERTEX
  8
0
 10
213.689524
 20
187.954056
 42
-0.230756
  0
VERTEX
  8
0
 10
211.427104
 20
188.505661
 42
-0.347066
  0
VERTEX
  8
0
 10
211.031787
 20
190.360740
 42
-0.034532
  0
VERTEX
  8
0
 10
213.477916
 20
194.562596
 42
0.019425
  0
VERTEX
  8
0
 10
214.685244
 20
196.499541
 42
0.067050
  0
VERTEX
  8
0
 10
215.239026
 20
197.867554
 42
0.100864
  0
VERTEX
  8
0
 10
215.295936
 20
199.011743
 42
0.085217
  0
VERTEX
  8
0
 10
214.912502
 20
200.163492
 42
0.097242
  0
VERTEX
  8
0
 10
213.527564
 20
201.857774
 42
0.140606
  0
VERTEX
  8
0
 10
211.766096
 20
202.628120
 42
0.072374
  0
VERTEX
  8
0
 10
209.011113
 20
202.596144
 42
0.012191
  0
VERTEX
  8
0
 10
203.811696
 20
201.647419
 42
-0.007927
  0
VERTEX
  8
0
 10
199.974222
 20
200.913341
 42
-0.035594
  0
VERTEX
  8
0
 10
197.701082
 20
200.680683
 42
-0.065596
  0
VERTEX
  8
0
 10
196.223571
 20
200.829178
 42
-0.136599
  0
VERTEX
  8
0
 10
195.217507
 20
201.382312
 42
-0.159275
  0
VERTEX
  8
0
 10
194.769934
 20
202.240565
 42
-0.135859
  0
VERTEX
  8
0
 10
194.877618
 20
203.259751
 42
-0.062291
  0
VERTEX
  8
0
 10
195.660434
 20
204.693530
 42
-0.011861
  0
VERTEX
  8
0
 10
197.457801
 20
207.068208
 42
0.021749
  0
VERTEX
  8
0
 10
199.752560
 20
210.227952
 42
0.080817
  0
VERTEX
  8
0
 10
200.760059
 20
212.463865
 42
0.138595
  0
VERTEX
  8
0
 10
200.736487
 20
214.227378
 42
0.124791
  0
VERTEX
  8
0
 10
199.800000
 20
215.800000
 42
0.146271
  0
VERTEX
  8
0
 10
198.194696
 20
216.666415
 42
0.050726
  0
VERTEX
  8
0
 10
195.549570
 20
216.940015
 42
0.034095
  0
VERTEX
  8
0
 10
191.753047
 20
216.687323
 42
0.011898
  0
VERTEX
  8
0
 10
186.342373
 20
215.822924
 42
-0.019784
  0
VERTEX
  8
0
 10
181.240921
 20
215.090219
 42
-0.164413
  0
VERTEX
  8
0
 10
178.993684
 20
215.599405
 42
-0.335679
  0
VERTEX
  8
0
 10
178.407008
 20
217.092713
 42
-0.065139
  0
VERTEX
  8
0
 10
179.619503
 20
219.933016
 42
-0.047487
  0
VERTEX
  8
0
 10
180.697305
 20
221.416021
 42
-0.058839
  0
VERTEX
  8
0
 10
181.968342
 20
222.553230
 42
-0.055585
  0
VERTEX
  8
0
 10
183.529454
 20
223.408678
 42
-0.036479
  0
VERTEX
  8
0
 10
185.479314
 20
224.049011
 42
0.012061
  0
VERTEX
  8
0
 10
193.879359
 20
226.360219
 42
0.003747
  0
VERTEX
  8
0
 10
206.388699
 20
230.231365
 42
0.003436
  0
VERTEX
  8
0
 10
218.676213
 20
234.228149
 42
0.017458
  0
VERTEX
  8
0
 10
225.419959
 20
236.737778
 42
0.019406
  0
VERTEX
  8
0
 10
230.311147
 20
238.980876
 42
0.080245
  0
VERTEX
  8
0
 10
232.932933
 20
240.888190
 42
0.167864
  0
VERTEX
  8
0
 10
233.831810
 20
242.753348
 42
0.172768
  0
VERTEX
  8
0
 10
233.373360
 20
244.750000
 42
0.215003
  0
VERTEX
  8
0
 10
231.290668
 20
246.112677
 42
0.076992
  0
VERTEX
  8
0
 10
227.659181
 20
246.120465
 42
0.039657
  0
VERTEX
  8
0
 10
221.912623
 20
244.770048
 42
0.009176
  0
VERTEX
  8
0
 10
212.500000
 20
241.562492
 42
-0.012855
  0
VERTEX
  8
0
 10
199.980474
 20
237.398745
 42
-0.010880
  0
VERTEX
  8
0
 10
186.549950
 20
233.629541
 42
-0.010909
  0
VERTEX
  8
0
 10
173.013762
 20
230.459700
 42
-0.013180
  0
VERTEX
  8
0
 10
160.177398
 20
228.099288
 42
-0.006043
  0
VERTEX
  8
0
 10
151.324019
 20
226.820870
 42
-0.007036
  0
VERTEX
  8
0
 10
142.879892
 20
225.826240
 42
-0.002663
  0
VERTEX
  8
0
 10
135.375050
 20
225.089531
 42
-0.702169
  0
VERTEX
  8
0
 10
135.177325
 20
225.510658
 42
-0.111094
  0
VERTEX
  8
0
 10
137.394715
 20
226.913603
 42
-0.002894
  0
VERTEX
  8
0
 10
148.520650
 20
230.812362
 42
-0.005124
  0
VERTEX
  8
0
 10
159.231431
 20
234.373868
 42
-0.046733
  0
VERTEX
  8
0
 10
164.026431
 20
235.432884
 42
0.023857
  0
VERTEX
  8
0
 10
180.344528
 20
238.262146
 42
0.020849
  0
VERTEX
  8
0
 10
197.081911
 20
242.733860
 42
0.014589
  0
VERTEX
  8
0
 10
211.603394
 20
247.739307
 42
0.213998
  0
VERTEX
  8
0
 10
215.347787
 20
251.463934
 42
0.129714
  0
VERTEX
  8
0
 10
215.548866
 20
253.311300
 42
0.108818
  0
VERTEX
  8
0
 10
214.840989
 20
255.156309
 42
0.110566
  0
VERTEX
  8
0
 10
213.436013
 20
256.511666
 42
0.137656
  0
VERTEX
  8
0
 10
211.695880
 20
257.000000
 42
0.066144
  0
VERTEX
  8
0
 10
210.424036
 20
256.831010
 42
0.011074
  0
VERTEX
  8
0
 10
208.058149
 20
256.134420
 42
0.011962
  0
VERTEX
  8
0
 10
205.297731
 20
255.181469
 42
0.010357
  0
VERTEX
  8
0
 10
202.448875
 20
254.053344
 42
-0.042240
  0
VERTEX
  8
0
 10
185.472938
 20
248.553079
 42
-0.022485
  0
VERTEX
  8
0
 10
163.745691
 20
244.510923
 42
-0.022362
  0
VERTEX
  8
0
 10
141.301194
 20
242.389051
 42
-0.035441
  0
VERTEX
  8
0
 10
122.000000
 20
242.800414
 42
0.000000
  0
VERTEX
  8
0
 10
113.500000
 20
243.586007
 42
0.000000
  0
VERTEX
  8
0
 10
119.500000
 20
244.890741
 42
0.008027
  0
VERTEX
  8
0
 10
122.331576
 20
245.554260
 42
0.003862
  0
VERTEX
  8
0
 10
125.940625
 20
246.491018
 42
0.003828
  0
VERTEX
  8
0
 10
129.690564
 20
247.526163
 42
0.005472
  0
VERTEX
  8
0
 10
133.000000
 20
248.506310
 42
-0.023466
  0
VERTEX
  8
0
 10
137.363516
 20
249.629609
 42
-0.015298
  0
VERTEX
  8
0
 10
142.486843
 20
250.532514
 42
-0.012430
  0
VERTEX
  8
0
 10
148.710767
 20
251.276618
 42
-0.006479
  0
VERTEX
  8
0
 10
156.500000
 20
251.910289
 42
0.008066
  0
VERTEX
  8
0
 10
168.726773
 20
252.944030
 42
0.012198
  0
VERTEX
  8
0
 10
179.323989
 20
254.274249
 42
0.013421
  0
VERTEX
  8
0
 10
189.020161
 20
255.999688
 42
0.013883
  0
VERTEX
  8
0
 10
198.500000
 20
258.226459
 42
0.008541
  0
VERTEX
  8
0
 10
204.481741
 20
259.917813
 42
0.061559
  0
VERTEX
  8
0
 10
207.217311
 20
261.125044
 42
0.140989
  0
VERTEX
  8
0
 10
208.524416
 20
262.522229
 42
0.118543
  0
VERTEX
  8
0
 10
209.000000
 20
264.500000
 42
0.131180
  0
VERTEX
  8
0
 10
208.303653
 20
267.108492
 42
0.227220
  0
VERTEX
  8
0
 10
206.492801
 20
268.353228
 42
0.086502
  0
VERTEX
  8
0
 10
202.845943
 20
268.290408
 42
0.011407
  0
VERTEX
  8
0
 10
195.257390
 20
266.652250
 42
-0.022935
  0
VERTEX
  8
0
 10
171.020780
 20
262.002120
 42
-0.028066
  0
VERTEX
  8
0
 10
148.042390
 20
259.984468
 42
-0.027062
  0
VERTEX
  8
0
 10
124.305651
 20
260.522110
 42
-0.019005
  0
VERTEX
  8
0
 10
97.750000
 20
263.583160
 42
-0.006175
  0
VERTEX
  8
0
 10
93.628466
 20
264.269954
 42
-0.010113
  0
VERTEX
  8
0
 10
90.157813
 20
264.965164
 42
-0.004086
  0
VERTEX
  8
0
 10
87.262434
 20
265.631171
 42
-0.347150
  0
VERTEX
  8
0
 10
87.000000
 20
265.963603
 42
-0.382694
  0
VERTEX
  8
0
 10
87.274274
 20
266.269467
 42
-0.002671
  0
VERTEX
  8
0
 10
91.039062
 20
266.660357
 42
-0.008183
  0
VERTEX
  8
0
 10
95.477810
 20
267.024035
 42
-0.004933
  0
VERTEX
  8
0
 10
100.750000
 20
267.317037
 42
0.004275
  0
VERTEX
  8
0
 10
106.564207
 20
267.632483
 42
0.003692
  0
VERTEX
  8
0
 10
112.664062
 20
268.060994
 42
0.003717
  0
VERTEX
  8
0
 10
118.188791
 20
268.531463
 42
0.010775
  0
VERTEX
  8
0
 10
122.000000
 20
268.967587
 42
-0.018963
  0
VERTEX
  8
0
 10
126.294230
 20
269.387885
 42
-0.003539
  0
VERTEX
  8
0
 10
134.200000
 20
269.803834
 42
-0.003786
  0
VERTEX
  8
0
 10
143.453028
 20
270.154834
 42
-0.003452
  0
VERTEX
  8
0
 10
153.000000
 20
270.378662
 42
0.007596
  0
VERTEX
  8
0
 10
167.849284
 20
270.849962
 42
0.012412
  0
VERTEX
  8
0
 10
180.411412
 20
271.752745
 42
0.013737
  0
VERTEX
  8
0
 10
190.362328
 20
272.993401
 42
0.053776
  0
VERTEX
  8
0
 10
196.339586
 20
274.576817
 42
0.135138
  0
VERTEX
  8
0
 10
197.855333
 20
275.693754
 42
0.132391
  0
VERTEX
  8
0
 10
198.600594
 20
277.437768
 42
0.123449
  0
VERTEX
  8
0
 10
198.391704
 20
279.418574
 42
0.109098
  0
VERTEX
  8
0
 10
197.272879
 20
281.171565
 42
0.079507
  0
VERTEX
  8
0
 10
195.811104
 20
282.230038
 42
0.111022
  0
VERTEX
  8
0
 10
194.251443
 20
282.623140
 42
0.043482
  0
VERTEX
  8
0
 10
191.752062
 20
282.470120
 42
0.003733
  0
VERTEX
  8
0
 10
185.418188
 20
281.477037
 42
-0.037087
  0
VERTEX
  8
0
 10
158.270413
 20
279.058625
 42
-0.030345
  0
VERTEX
  8
0
 10
129.150401
 20
280.398029
 42
-0.029865
  0
VERTEX
  8
0
 10
99.880686
 20
285.312375
 42
-0.032618
  0
VERTEX
  8
0
 10
72.277650
 20
293.587713
 42
-0.002816
  0
VERTEX
  8
0
 10
63.698639
 20
296.837617
 42
-0.057307
  0
VERTEX
  8
0
 10
61.241801
 20
298.123667
 42
-0.737563
  0
VERTEX
  8
0
 10
61.421849
 20
298.712134
 42
-0.026640
  0
VERTEX
  8
0
 10
65.000000
 20
298.531728
 42
0.002833
  0
VERTEX
  8
0
 10
75.486746
 20
297.500952
 42
0.003484
  0
VERTEX
  8
0
 10
85.284407
 20
296.662743
 42
0.003646
  0
VERTEX
  8
0
 10
94.691076
 20
295.992957
 42
0.003773
  0
VERTEX
  8
0
 10
104.000000
 20
295.468818
 42
-0.008943
  0
VERTEX
  8
0
 10
109.970678
 20
295.070673
 42
-0.006036
  0
VERTEX
  8
0
 10
116.765625
 20
294.412631
 42
-0.006082
  0
VERTEX
  8
0
 10
123.322553
 20
293.616828
 42
-0.012028
  0
VERTEX
  8
0
 10
128.500000
 20
292.797250
 42
0.026976
  0
VERTEX
  8
0
 10
140.928676
 20
291.208863
 42
0.009464
  0
VERTEX
  8
0
 10
158.906386
 20
290.232696
 42
0.004881
  0
VERTEX
  8
0
 10
177.111462
 20
289.767317
 42
0.127482
  0
VERTEX
  8
0
 10
181.836854
 20
290.912687
 42
0.132919
  0
VERTEX
  8
0
 10
183.248110
 20
292.242476
 42
0.106573
  0
VERTEX
  8
0
 10
183.943804
 20
294.218743
 42
0.108769
  0
VERTEX
  8
0
 10
183.757318
 20
296.272524
 42
0.143685
  0
VERTEX
  8
0
 10
182.713139
 20
297.823110
 42
0.152648
  0
VERTEX
  8
0
 10
181.569590
 20
298.292861
 42
0.007270
  0
VERTEX
  8
0
 10
177.387155
 20
298.595664
 42
0.010196
  0
VERTEX
  8
0
 10
171.951657
 20
298.798730
 42
0.004877
  0
VERTEX
  8
0
 10
164.963139
 20
298.849025
 42
-0.022435
  0
VERTEX
  8
0
 10
146.240643
 20
299.641572
 42
-0.022797
  0
VERTEX
  8
0
 10
127.765342
 20
302.108762
 42
-0.022040
  0
VERTEX
  8
0
 10
109.023912
 20
306.347250
 42
-0.018276
  0
VERTEX
  8
0
 10
89.500000
 20
312.451705
 42
-0.014146
  0
VERTEX
  8
0
 10
79.871835
 20
316.162572
 42
-0.005805
  0
VERTEX
  8
0
 10
67.019238
 20
321.714709
 42
-0.001053
  0
VERTEX
  8
0
 10
53.415042
 20
327.814285
 42
-0.524621
  0
VERTEX
  8
0
 10
53.270612
 20
328.603946
 42
-0.243944
  0
VERTEX
  8
0
 10
53.541506
 20
328.689782
 42
-0.001560
  0
VERTEX
  8
0
 10
56.105565
 20
328.236946
 42
-0.005735
  0
VERTEX
  8
0
 10
59.059010
 20
327.670791
 42
-0.003570
  0
VERTEX
  8
0
 10
62.509473
 20
326.942542
 42
0.009524
  0
VERTEX
  8
0
 10
71.517135
 20
325.153153
 42
0.004618
  0
VERTEX
  8
0
 10
83.094540
 20
323.191836
 42
0.004576
  0
VERTEX
  8
0
 10
95.204433
 20
321.368693
 42
0.006525
  0
VERTEX
  8
0
 10
105.990722
 20
319.988936
 42
-0.004644
  0
VERTEX
  8
0
 10
109.955017
 20
319.496979
 42
-0.004283
  0
VERTEX
  8
0
 10
114.018145
 20
318.918923
 42
-0.004278
  0
VERTEX
  8
0
 10
117.629617
 20
318.341875
 42
-0.014177
  0
VERTEX
  8
0
 10
119.990722
 20
317.874674
 42
0.020094
  0
VERTEX
  8
0
 10
134.312416
 20
315.216469
 42
0.012727
  0
VERTEX
  8
0
 10
151.177893
 20
313.219066
 42
0.007499
  0
VERTEX
  8
0
 10
167.180953
 20
311.977427
 42
0.139350
  0
VERTEX
  8
0
 10
172.085601
 20
313.045812
 42
0.164657
  0
VERTEX
  8
0
 10
173.382429
 20
314.429475
 42
0.110152
  0
VERTEX
  8
0
 10
173.832792
 20
316.571735
 42
0.110090
  0
VERTEX
  8
0
 10
173.330310
 20
318.703319
 42
0.164336
  0
VERTEX
  8
0
 10
172.000000
 20
320.057345
 42
0.087752
  0
VERTEX
  8
0
 10
170.880443
 20
320.395606
 42
0.003081
  0
VERTEX
  8
0
 10
166.365049
 20
320.904373
 42
0.005640
  0
VERTEX
  8
0
 10
161.000478
 20
321.414236
 42
0.003907
  0
VERTEX
  8
0
 10
154.923570
 20
321.874920
 42
-0.021898
  0
VERTEX
  8
0
 10
134.930651
 20
324.116251
 42
-0.027245
  0
VERTEX
  8
0
 10
116.641185
 20
328.012708
 42
-0.027249
  0
VERTEX
  8
0
 10
98.886180
 20
333.874228
 42
-0.021916
  0
VERTEX
  8
0
 10
80.500000
 20
342.022848
 42
-0.014508
  0
VERTEX
  8
0
 10
70.589331
 20
347.309319
 42
-0.010685
  0
VERTEX
  8
0
 10
59.919142
 20
353.711177
 42
-0.012762
  0
VERTEX
  8
0
 10
52.140501
 20
358.888964
 42
-0.843178
  0
VERTEX
  8
0
 10
52.500000
 20
359.646566
 42
0.008316
  0
VERTEX
  8
0
 10
60.030694
 20
357.670056
 42
0.001106
  0
VERTEX
  8
0
 10
76.014729
 20
353.795281
 42
0.001235
  0
VERTEX
  8
0
 10
92.015413
 20
349.995720
 42
0.006205
  0
VERTEX
  8
0
 10
101.000000
 20
348.002966
 42
-0.007617
  0
VERTEX
  8
0
 10
105.520513
 20
346.986922
 42
-0.005859
  0
VERTEX
  8
0
 10
110.423766
 20
345.745139
 42
-0.005928
  0
VERTEX
  8
0
 10
114.981615
 20
344.475790
 42
-0.014023
  0
VERTEX
  8
0
 10
118.336224
 20
343.395615
 42
0.016523
  0
VERTEX
  8
0
 10
131.827768
 20
339.125702
 42
0.013233
  0
VERTEX
  8
0
 10
146.606375
 20
335.399209
 42
0.007297
  0
VERTEX
  8
0
 10
160.349093
 20
332.528232
 42
0.172365
  0
VERTEX
  8
0
 10
164.208563
 20
333.111619
 42
0.155595
  0
VERTEX
  8
0
 10
165.408447
 20
334.347343
 42
0.097855
  0
VERTEX
  8
0
 10
165.943780
 20
336.305391
 42
0.095991
  0
VERTEX
  8
0
 10
165.697621
 20
338.353660
 42
0.142725
  0
VERTEX
  8
0
 10
164.692447
 20
339.840284
 42
0.102399
  0
VERTEX
  8
0
 10
163.690754
 20
340.372821
 42
0.005197
  0
VERTEX
  8
0
 10
160.118898
 20
341.377357
 42
0.008132
  0
VERTEX
  8
0
 10
155.814404
 20
342.465009
 42
0.005788
  0
VERTEX
  8
0
 10
150.959058
 20
343.549016
 42
-0.025618
  0
VERTEX
  8
0
 10
128.385467
 20
349.537320
 42
-0.025526
  0
VERTEX
  8
0
 10
106.514946
 20
357.808761
 42
-0.026202
  0
VERTEX
  8
0
 10
86.191038
 20
368.005263
 42
-0.031209
  0
VERTEX
  8
0
 10
68.250000
 20
379.754422
 42
-0.003835
  0
VERTEX
  8
0
 10
63.410863
 20
383.432108
 42
-0.039963
  0
VERTEX
  8
0
 10
61.564246
 20
385.109503
 42
-0.556232
  0
VERTEX
  8
0
 10
61.699326
 20
385.613765
 42
-0.146407
  0
VERTEX
  8
0
 10
62.750000
 20
385.617009
 42
0.006198
  0
VERTEX
  8
0
 10
64.140546
 20
385.224271
 42
0.000019
  0
VERTEX
  8
0
 10
82.108549
 20
380.389885
 42
0.000109
  0
VERTEX
  8
0
 10
102.417423
 20
374.931251
 42
0.000068
  0
SEQEND
  0
POLYLINE
  8
0
 66
1
 70
1
  0
VERTEX
  8
0
 10
236.000000
 20
359.919916
 42
-0.014638
  0
VERTEX
  8
0
 10
245.361742
 20
354.718692
 42
-0.006538
  0
VERTEX
  8
0
 10
257.384678
 20
347.356156
 42
-0.005639
  0
VERTEX
  8
0
 10
267.684767
 20
340.698447
 42
-0.880462
  0
VERTEX
  8
0
 10
267.400481
 20
340.121951
 42
-0.023897
  0
VERTEX
  8
0
 10
266.568058
 20
340.453422
 42
-0.000183
  0
VERTEX
  8
0
 10
259.932686
 20
343.473323
 42
-0.000679
  0
VERTEX
  8
0
 10
252.332586
 20
346.948108
 42
-0.000436
  0
VERTEX
  8
0
 10
243.522206
 20
351.000000
 42
-0.002645
  0
VERTEX
  8
0
 10
228.823715
 20
357.869872
 42
-0.023920
  0
VERTEX
  8
0
 10
222.568080
 20
361.209272
 42
-0.040716
  0
VERTEX
  8
0
 10
217.974463
 20
364.485621
 42
-0.015521
  0
VERTEX
  8
0
 10
212.121725
 20
369.744284
 42
0.000000
  0
VERTEX
  8
0
 10
203.500000
 20
377.988569
 42
0.000000
  0
VERTEX
  8
0
 10
213.000000
 20
372.449902
 42
0.005007
  0
VERTEX
  8
0
 10
217.591500
 20
369.834224
 42
0.002246
  0
VERTEX
  8
0
 10
223.675000
 20
366.484519
 42
0.002223
  0
VERTEX
  8
0
 10
230.136690
 20
363.001473
 42
0.003023
  0
SEQEND
  0
POLYLINE
  8
0
 66
1
 70
1
  0
VERTEX
  8
0
 10
328.987250
 20
292.968275
 42
-0.049193
  0
VERTEX
  8
0
 10
330.755140
 20
288.540972
 42
-0.032870
  0
VERTEX
  8
0
 10
331.925081
 20
283.206341
 42
-0.032678
  0
VERTEX
  8
0
 10
332.392237
 20
277.713481
 42
-0.045740
  0
VERTEX
  8
0
 10
332.038551
 20
272.803147
 42
-0.018903
  0
VERTEX
  8
0
 10
331.072455
 20
268.064559
 42
-0.040200
  0
VERTEX
  8
0
 10
329.898829
 20
264.514475
 42
-0.030009
  0
VERTEX
  8
0
 10
327.964815
 20
260.607345
 42
-0.006651
  0
VERTEX
  8
0
 10
324.170892
 20
254.175543
 42
0.025808
  0
VERTEX
  8
0
 10
320.442295
 20
247.262482
 42
0.046575
  0
VERTEX
  8
0
 10
318.237762
 20
241.222125
 42
0.047690
  0
VERTEX
  8
0
 10
317.219906
 20
234.976666
 42
0.028520
  0
VERTEX
  8
0
 10
317.150456
 20
227.447787
 42
0.063947
  0
VERTEX
  8
0
 10
318.984113
 20
217.108323
 42
0.065995
  0
VERTEX
  8
0
 10
323.362737
 20
207.686594
 42
0.066303
  0
VERTEX
  8
0
 10
330.022985
 20
199.767264
 42
0.065569
  0
VERTEX
  8
0
 10
338.547254
 20
193.832531
 42
-0.048783
  0
VERTEX
  8
0
 10
343.960113
 20
190.326896
 42
-0.653322
  0
VERTEX
  8
0
 10
343.515539
 20
188.647781
 42
-0.123734
  0
VERTEX
  8
0
 10
338.450379
 20
189.113372
 42
-0.025922
  0
VERTEX
  8
0
 10
330.146862
 20
192.523780
 42
-0.060972
  0
VERTEX
  8
0
 10
320.717185
 20
198.479640
 42
-0.050177
  0
VERTEX
  8
0
 10
312.295141
 20
206.901710
 42
-0.049821
  0
VERTEX
  8
0
 10
305.662119
 20
216.903925
 42
-0.057865
  0
VERTEX
  8
0
 10
301.531192
 20
227.541554
 42
-0.050325
  0
VERTEX
  8
0
 10
300.131136
 20
236.546572
 42
-0.091347
  0
VERTEX
  8
0
 10
301.083070
 20
243.913005
 42
-0.066531
  0
VERTEX
  8
0
 10
304.890716
 20
251.926634
 42
-0.016923
  0
VERTEX
  8
0
 10
313.156648
 20
263.746419
 42
0.014917
  0
VERTEX
  8
0
 10
319.681579
 20
272.997418
 42
0.050952
  0
VERTEX
  8
0
 10
323.095789
 20
279.513408
 42
0.067893
  0
VERTEX
  8
0
 10
324.601674
 20
285.530050
 42
0.043467
  0
VERTEX
  8
0
 10
324.766094
 20
292.743082
 42
-0.006894
  0
VERTEX
  8
0
 10
324.485901
 20
298.308877
 42
-0.409305
  0
VERTEX
  8
0
 10
325.107023
 20
298.988446
 42
-0.288965
  0
VERTEX
  8
0
 10
326.074528
 20
298.448143
 42
-0.005165
  0
SEQEND
  0
POLYLINE
  8
0
 66
1
 70
1
  0
VERTEX
  8
0
 10
422.747753
 20
268.446304
 42
-0.048938
  0
VERTEX
  8
0
 10
421.656378
 20
262.376274
 42
-0.039110
  0
VERTEX
  8
0
 10
419.351920
 20
256.138330
 42
-0.039417
  0
VERTEX
  8
0
 10
416.132210
 20
250.393698
 42
-0.052548
  0
VERTEX
  8
0
 10
412.305797
 20
245.801088
 42
-0.041877
  0
VERTEX
  8
0
 10
410.163853
 20
244.042423
 42
-0.012109
  0
VERTEX
  8
0
 10
406.579977
 20
241.696795
 42
-0.012087
  0
VERTEX
  8
0
 10
402.396494
 20
239.239216
 42
-0.012618
  0
VERTEX
  8
0
 10
398.157953
 20
237.023243
 42
0.026486
  0
VERTEX
  8
0
 10
390.080454
 20
232.510759
 42
0.044290
  0
VERTEX
  8
0
 10
383.893710
 20
227.798377
 42
0.049709
  0
VERTEX
  8
0
 10
379.139243
 20
222.506932
 42
0.046545
  0
VERTEX
  8
0
 10
375.402401
 20
216.267791
 42
-0.001228
  0
VERTEX
  8
0
 10
374.324501
 20
214.031052
 42
-0.001849
  0
VERTEX
  8
0
 10
373.372992
 20
212.087264
 42
-0.000720
  0
VERTEX
  8
0
 10
372.547212
 20
210.422047
 42
-0.043048
  0
VERTEX
  8
0
 10
372.372476
 20
210.135662
 42
-0.430471
  0
VERTEX
  8
0
 10
371.376958
 20
210.011663
 42
-0.008187
  0
VERTEX
  8
0
 10
366.970323
 20
213.764542
 42
-0.010214
  0
VERTEX
  8
0
 10
362.745448
 20
217.639677
 42
-0.198417
  0
VERTEX
  8
0
 10
362.042596
 20
219.229001
 42
-0.060240
  0
VERTEX
  8
0
 10
362.141114
 20
220.255265
 42
-0.008196
  0
VERTEX
  8
0
 10
362.638896
 20
222.358203
 42
-0.009336
  0
VERTEX
  8
0
 10
363.319030
 20
224.839890
 42
-0.007757
  0
VERTEX
  8
0
 10
364.132369
 20
227.453646
 42
-0.063191
  0
VERTEX
  8
0
 10
367.836920
 20
235.253531
 42
-0.082055
  0
VERTEX
  8
0
 10
373.125574
 20
241.123316
 42
-0.064549
  0
VERTEX
  8
0
 10
381.025253
 20
245.909966
 42
-0.024988
  0
VERTEX
  8
0
 10
393.000000
 20
250.497908
 42
0.006300
  0
VERTEX
  8
0
 10
396.536587
 20
251.703424
 42
0.005834
  0
VERTEX
  8
0
 10
400.133890
 20
253.027912
 42
0.005830
  0
VERTEX
  8
0
 10
403.308011
 20
254.281419
 42
0.019396
  0
VERTEX
  8
0
 10
405.349413
 20
255.209171
 42
0.045814
  0
VERTEX
  8
0
 10
409.680387
 20
257.905892
 42
0.035198
  0
VERTEX
  8
0
 10
413.875496
 20
261.576721
 42
0.035523
  0
VERTEX
  8
0
 10
417.465421
 20
265.748549
 42
0.050423
  0
VERTEX
  8
0
 10
419.975105
 20
269.946848
 42
-0.007076
  0
VERTEX
  8
0
 10
420.915957
 20
271.883766
 42
-0.011152
  0
VERTEX
  8
0
 10
421.783516
 20
273.515637
 42
-0.005333
  0
VERTEX
  8
0
 10
422.552784
 20
274.854210
 42
-0.265627
  0
VERTEX
  8
0
 10
422.807848
 20
275.000000
 42
-0.411175
  0
VERTEX
  8
0
 10
422.981344
 20
274.828296
 42
-0.004888
  0
VERTEX
  8
0
 10
422.982409
 20
273.074852
 42
-0.011107
  0
VERTEX
  8
0
 10
422.915995
 20
270.959345
 42
-0.006625
  0
SEQEND
  0
POLYLINE
  8
0
 66
1
 70
1
  0
VERTEX
  8
0
 10
374.500000
 20
198.085613
 42
0.019750
  0
VERTEX
  8
0
 10
388.769443
 20
190.106538
 42
0.010102
  0
VERTEX
  8
0
 10
407.244411
 20
181.178483
 42
0.009302
  0
VERTEX
  8
0
 10
428.389762
 20
171.954056
 42
0.007983
  0
VERTEX
  8
0
 10
450.964601
 20
163.021488
 42
-0.005180
  0
VERTEX
  8
0
 10
457.599927
 20
160.438892
 42
-0.027474
  0
VERTEX
  8
0
 10
461.130838
 20
158.791795
 42
-0.053070
  0
VERTEX
  8
0
 10
463.085785
 20
157.461656
 42
-0.181842
  0
VERTEX
  8
0
 10
463.820137
 20
156.141242
 42
-0.065307
  0
VERTEX
  8
0
 10
463.835775
 20
155.241281
 42
-0.078316
  0
VERTEX
  8
0
 10
463.610567
 20
154.425540
 42
-0.086958
  0
VERTEX
  8
0
 10
463.173067
 20
153.784893
 42
-0.108358
  0
VERTEX
  8
0
 10
462.572458
 20
153.389431
 42
-0.172743
  0
VERTEX
  8
0
 10
461.390267
 20
153.360701
 42
-0.002467
  0
VERTEX
  8
0
 10
454.581332
 20
155.637885
 42
-0.006492
  0
VERTEX
  8
0
 10
446.665436
 20
158.443956
 42
-0.004194
  0
VERTEX
  8
0
 10
437.570240
 20
161.888580
 42
0.004155
  0
VERTEX
  8
0
 10
428.368527
 20
165.374362
 42
0.006712
  0
VERTEX
  8
0
 10
420.474257
 20
168.170245
 42
0.002692
  0
VERTEX
  8
0
 10
413.758165
 20
170.407620
 42
0.172325
  0
VERTEX
  8
0
 10
412.540139
 20
170.377029
 42
0.062263
  0
VERTEX
  8
0
 10
411.859365
 20
170.013236
 42
0.034934
  0
VERTEX
  8
0
 10
411.131850
 20
169.418910
 42
0.034287
  0
VERTEX
  8
0
 10
410.470402
 20
168.705231
 42
0.046907
  0
VERTEX
  8
0
 10
409.986734
 20
167.975211
 42
0.222050
  0
VERTEX
  8
0
 10
409.867114
 20
165.777944
 42
0.126805
  0
VERTEX
  8
0
 10
411.475327
 20
163.594735
 42
0.062270
  0
VERTEX
  8
0
 10
415.172286
 20
161.280717
 42
0.017326
  0
VERTEX
  8
0
 10
421.478642
 20
158.612685
 42
0.000000
  0
VERTEX
  8
0
 10
430.457283
 20
155.175713
 42
0.000000
  0
VERTEX
  8
0
 10
431.752799
 20
149.837857
 42
0.027447
  0
VERTEX
  8
0
 10
432.577542
 20
147.103857
 42
0.044386
  0
VERTEX
  8
0
 10
433.604202
 20
144.903578
 42
0.045509
  0
VERTEX
  8
0
 10
434.982618
 20
142.957362
 42
0.030709
  0
VERTEX
  8
0
 10
436.875288
 20
141.000000
 42
0.000000
  0
VERTEX
  8
0
 10
440.702262
 20
137.500000
 42
0.000000
  0
VERTEX
  8
0
 10
435.317462
 20
137.844502
 42
0.045692
  0
VERTEX
  8
0
 10
429.697374
 20
137.690294
 42
0.260115
  0
VERTEX
  8
0
 10
427.364842
 20
135.997798
 42
0.255601
  0
VERTEX
  8
0
 10
427.557669
 20
133.095674
 42
0.044499
  0
VERTEX
  8
0
 10
431.025722
 20
128.587921
 42
0.000000
  0
VERTEX
  8
0
 10
435.051444
 20
124.220529
 42
0.000000
  0
VERTEX
  8
0
 10
426.275722
 20
127.271986
 42
0.014686
  0
VERTEX
  8
0
 10
421.370175
 20
128.817813
 42
0.024145
  0
VERTEX
  8
0
 10
417.131882
 20
129.799536
 42
0.022705
  0
VERTEX
  8
0
 10
412.639424
 20
130.404860
 42
0.011279
  0
VERTEX
  8
0
 10
406.903699
 20
130.783840
 42
0.024179
  0
VERTEX
  8
0
 10
397.733834
 20
130.738658
 42
0.012310
  0
VERTEX
  8
0
 10
386.239778
 20
129.841524
 42
0.012248
  0
VERTEX
  8
0
 10
374.503719
 20
128.342894
 42
0.019122
  0
VERTEX
  8
0
 10
364.500000
 20
126.421656
 42
-0.002059
  0
VERTEX
  8
0
 10
362.152750
 20
125.887232
 42
-0.002947
  0
VERTEX
  8
0
 10
360.066483
 20
125.434148
 42
-0.001604
  0
VERTEX
  8
0
 10
358.299497
 20
125.067209
 42
-0.044880
  0
VERTEX
  8
0
 10
357.832708
 20
125.014781
 42
-0.269893
  0
VERTEX
  8
0
 10
357.501984
 20
125.197643
 42
-0.015489
  0
VERTEX
  8
0
 10
356.915217
 20
126.252779
 42
-0.020185
  0
VERTEX
  8
0
 10
356.276837
 20
127.622337
 42
-0.013137
  0
VERTEX
  8
0
 10
355.646384
 20
129.250000
 42
-0.023191
  0
VERTEX
  8
0
 10
353.546836
 20
136.112643
 42
-0.030530
  0
VERTEX
  8
0
 10
352.314088
 20
142.540487
 42
-0.024149
  0
VERTEX
  8
0
 10
351.703812
 20
150.138104
 42
-0.008661
  0
VERTEX
  8
0
 10
351.545830
 20
161.000000
 42
-0.008555
  0
VERTEX
  8
0
 10
351.763943
 20
171.966467
 42
-0.016085
  0
VERTEX
  8
0
 10
352.376183
 20
180.804565
 42
-0.015239
  0
VERTEX
  8
0
 10
353.581012
 20
189.892635
 42
-0.006854
  0
VERTEX
  8
0
 10
355.688691
 20
201.745158
 42
0.000000
  0
VERTEX
  8
0
 10
357.271771
 20
209.990315
 42
0.000000
  0
VERTEX
  8
0
 10
361.885886
 20
206.486824
 42
0.011149
  0
VERTEX
  8
0
 10
364.207712
 20
204.804135
 42
0.004320
  0
VERTEX
  8
0
 10
367.494604
 20
202.573778
 42
0.004274
  0
VERTEX
  8
0
 10
371.099015
 20
200.217406
 42
0.005276
  0
SEQEND
  0
POLYLINE
  8
0
 66
1
 70
1
  0
VERTEX
  8
0
 10
342.627756
 20
163.000000
 42
0.012760
  0
VERTEX
  8
0
 10
343.024293
 20
151.082216
 42
0.017891
  0
VERTEX
  8
0
 10
344.029610
 20
140.481953
 42
0.020278
  0
VERTEX
  8
0
 10
345.560677
 20
131.609628
 42
0.046119
  0
VERTEX
  8
0
 10
347.592323
 20
125.124797
 42
-0.024229
  0
VERTEX
  8
0
 10
348.092647
 20
123.742710
 42
-0.034185
  0
VERTEX
  8
0
 10
348.391857
 20
122.467907
 42
-0.036458
  0
VERTEX
  8
0
 10
348.483716
 20
121.442122
 42
-0.219762
  0
VERTEX
  8
0
 10
348.272950
 20
120.965325
 42
-0.084285
  0
VERTEX
  8
0
 10
345.664572
 20
119.352595
 42
-0.004994
  0
VERTEX
  8
0
 10
336.995067
 20
115.934053
 42
-0.008336
  0
VERTEX
  8
0
 10
327.809550
 20
112.592113
 42
-0.014119
  0
VERTEX
  8
0
 10
320.000000
 20
110.141801
 42
-0.010142
  0
VERTEX
  8
0
 10
311.435983
 20
107.904707
 42
-0.011685
  0
VERTEX
  8
0
 10
303.181868
 20
106.129358
 42
-0.005294
  0
VERTEX
  8
0
 10
295.825914
 20
104.806729
 42
-0.242787
  0
VERTEX
  8
0
 10
294.406881
 20
105.259785
 42
-0.149046
  0
VERTEX
  8
0
 10
294.134946
 20
105.770245
 42
-0.002941
  0
VERTEX
  8
0
 10
293.577565
 20
108.705035
 42
-0.006757
  0
VERTEX
  8
0
 10
292.988823
 20
112.170316
 42
-0.004450
  0
VERTEX
  8
0
 10
292.401048
 20
116.170926
 42
0.002746
  0
VERTEX
  8
0
 10
291.241194
 20
124.256836
 42
0.038005
  0
VERTEX
  8
0
 10
290.585563
 20
127.135517
 42
0.108625
  0
VERTEX
  8
0
 10
289.690522
 20
128.712207
 42
0.086890
  0
VERTEX
  8
0
 10
288.149347
 20
129.920072
 42
0.059545
  0
VERTEX
  8
0
 10
287.079504
 20
130.338039
 42
0.106429
  0
VERTEX
  8
0
 10
286.140213
 20
130.376983
 42
0.091767
  0
VERTEX
  8
0
 10
285.174907
 20
130.020628
 42
0.036014
  0
VERTEX
  8
0
 10
284.006377
 20
129.206247
 42
0.000000
  0
VERTEX
  8
0
 10
281.827034
 20
127.441522
 42
0.000000
  0
VERTEX
  8
0
 10
283.987331
 20
112.587114
 42
0.005853
  0
VERTEX
  8
0
 10
284.953114
 20
106.451490
 42
0.005739
  0
VERTEX
  8
0
 10
286.068189
 20
100.299509
 42
0.005661
  0
VERTEX
  8
0
 10
287.169180
 20
94.926302
 42
0.021567
  0
VERTEX
  8
0
 10
288.037496
 20
91.616353
 42
0.032926
  0
VERTEX
  8
0
 10
290.126346
 20
86.158233
 42
0.021362
  0
VERTEX
  8
0
 10
293.212189
 20
80.143846
 42
0.021513
  0
VERTEX
  8
0
 10
296.713493
 20
74.556588
 42
0.040981
  0
VERTEX
  8
0
 10
300.064611
 20
70.452393
 42
-0.008623
  0
VERTEX
  8
0
 10
301.189249
 20
69.243723
 42
-0.012450
  0
VERTEX
  8
0
 10
302.137730
 20
68.134089
 42
-0.008181
  0
VERTEX
  8
0
 10
302.884027
 20
67.184307
 42
-0.163852
  0
VERTEX
  8
0
 10
303.000000
 20
66.839912
 42
-0.368018
  0
VERTEX
  8
0
 10
302.791886
 20
66.595457
 42
-0.003906
  0
VERTEX
  8
0
 10
300.429688
 20
66.232541
 42
-0.009919
  0
VERTEX
  8
0
 10
297.604899
 20
65.878183
 42
-0.006011
  0
VERTEX
  8
0
 10
294.250000
 20
65.565493
 42
0.017996
  0
VERTEX
  8
0
 10
286.876032
 20
64.699519
 42
0.143186
  0
VERTEX
  8
0
 10
283.801482
 20
63.262109
 42
0.199801
  0
VERTEX
  8
0
 10
282.516191
 20
60.632463
 42
0.040600
  0
VERTEX
  8
0
 10
282.627140
 20
55.335098
 42
-0.007528
  0
VERTEX
  8
0
 10
282.839122
 20
52.905852
 42
-0.012656
  0
VERTEX
  8
0
 10
282.934642
 20
50.860935
 42
-0.006321
  0
VERTEX
  8
0
 10
282.949258
 20
49.186004
 42
-0.413067
  0
VERTEX
  8
0
 10
282.762525
 20
49.000000
 42
-0.095650
  0
VERTEX
  8
0
 10
282.398800
 20
49.070223
 42
-0.001971
  0
VERTEX
  8
0
 10
280.674136
 20
49.769863
 42
-0.004545
  0
VERTEX
  8
0
 10
278.662794
 20
50.616487
 42
-0.003034
  0
VERTEX
  8
0
 10
276.374430
 20
51.620812
 42
0.008605
  0
VERTEX
  8
0
 10
269.422034
 20
54.580169
 42
0.086526
  0
VERTEX
  8
0
 10
266.351751
 20
55.242925
 42
0.151915
  0
VERTEX
  8
0
 10
263.957868
 20
54.602133
 42
0.042936
  0
VERTEX
  8
0
 10
260.846038
 20
52.241939
 42
0.000000
  0
VERTEX
  8
0
 10
256.804999
 20
48.591104
 42
0.000000
  0
VERTEX
  8
0
 10
257.396483
 20
54.045552
 42
0.009345
  0
VERTEX
  8
0
 10
257.706455
 20
57.506314
 42
0.000905
  0
VERTEX
  8
0
 10
258.285833
 20
65.910571
 42
0.001149
  0
VERTEX
  8
0
 10
258.935403
 20
75.932995
 42
0.000908
  0
VERTEX
  8
0
 10
259.593464
 20
86.777670
 42
0.002479
  0
VERTEX
  8
0
 10
260.640348
 20
106.206212
 42
0.038452
  0
VERTEX
  8
0
 10
260.453507
 20
112.879202
 42
0.162492
  0
VERTEX
  8
0
 10
259.113783
 20
115.823471
 42
0.208338
  0
VERTEX
  8
0
 10
256.412739
 20
117.000000
 42
0.142633
  0
VERTEX
  8
0
 10
254.455582
 20
116.430096
 42
0.135267
  0
VERTEX
  8
0
 10
253.062290
 20
114.889356
 42
0.085706
  0
VERTEX
  8
0
 10
252.247586
 20
112.211036
 42
0.031084
  0
VERTEX
  8
0
 10
252.000000
 20
108.232408
 42
-0.008466
  0
VERTEX
  8
0
 10
251.967667
 20
106.323022
 42
-0.012315
  0
VERTEX
  8
0
 10
251.869204
 20
104.641641
 42
-0.007903
  0
VERTEX
  8
0
 10
251.731462
 20
103.253856
 42
-0.169255
  0
VERTEX
  8
0
 10
251.554738
 20
102.888071
 42
-0.224418
  0
VERTEX
  8
0
 10
249.646828
 20
102.204840
 42
-0.001191
  0
VERTEX
  8
0
 10
229.485019
 20
104.228341
 42
-0.001453
  0
VERTEX
  8
0
 10
209.532180
 20
106.337509
 42
-0.170930
  0
VERTEX
  8
0
 10
207.222553
 20
107.444114
 42
-0.473411
  0
VERTEX
  8
0
 10
207.275527
 20
107.977976
 42
-0.000328
  0
VERTEX
  8
0
 10
220.907487
 20
117.044913
 42
-0.002851
  0
VERTEX
  8
0
 10
236.236100
 20
127.100336
 42
-0.001769
  0
VERTEX
  8
0
 10
254.339190
 20
138.737935
 42
0.000000
  0
VERTEX
  8
0
 10
269.178380
 20
148.203284
 42
0.000000
  0
VERTEX
  8
0
 10
271.875367
 20
145.619406
 42
0.067431
  0
VERTEX
  8
0
 10
274.598182
 20
143.636975
 42
0.070443
  0
VERTEX
  8
0
 10
277.710960
 20
142.486541
 42
0.072599
  0
VERTEX
  8
0
 10
280.935906
 20
142.265554
 42
0.079208
  0
VERTEX
  8
0
 10
283.988108
 20
142.995074
 42
-0.030291
  0
VERTEX
  8
0
 10
285.701255
 20
143.585962
 42
-0.090644
  0
VERTEX
  8
0
 10
286.930343
 20
143.697846
 42
-0.091517
  0
VERTEX
  8
0
 10
288.112810
 20
143.367355
 42
-0.031254
  0
VERTEX
  8
0
 10
289.667033
 20
142.482513
 42
0.084801
  0
VERTEX
  8
0
 10
292.674617
 20
141.172312
 42
0.066829
  0
VERTEX
  8
0
 10
296.211514
 20
140.788176
 42
0.066866
  0
VERTEX
  8
0
 10
299.722476
 20
141.350480
 42
0.085112
  0
VERTEX
  8
0
 10
302.654124
 20
142.810837
 42
0.043905
  0
VERTEX
  8
0
 10
304.422462
 20
144.360921
 42
0.002726
  0
VERTEX
  8
0
 10
309.217149
 20
149.427144
 42
0.004020
  0
VERTEX
  8
0
 10
314.855513
 20
155.548146
 42
0.002969
  0
VERTEX
  8
0
 10
321.000000
 20
162.408580
 42
-0.002387
  0
VERTEX
  8
0
 10
330.223232
 20
172.730631
 42
-0.021206
  0
VERTEX
  8
0
 10
334.495594
 20
177.080422
 42
-0.051537
  0
VERTEX
  8
0
 10
337.242247
 20
179.164058
 42
-0.155318
  0
VERTEX
  8
0
 10
339.500000
 20
179.711379
 42
0.000000
  0
VERTEX
  8
0
 10
342.500000
 20
179.500000
 42
0.000000
  0
SEQEND
  0
POLYLINE
  8
0
 66
1
 70
1
  0
VERTEX
  8
0
 10
222.544615
 20
166.072189
 42
-0.144112
  0
VERTEX
  8
0
 10
220.579826
 20
164.310435
 42
-0.000377
  0
VERTEX
  8
0
 10
187.200991
 20
148.434470
 42
-0.000215
  0
VERTEX
  8
0
 10
153.316604
 20
132.367194
 42
-0.328409
  0
VERTEX
  8
0
 10
152.058724
 20
132.612079
 42
-0.095125
  0
VERTEX
  8
0
 10
151.227012
 20
133.955884
 42
-0.011374
  0
VERTEX
  8
0
 10
150.050211
 20
137.263794
 42
-0.006259
  0
VERTEX
  8
0
 10
148.945990
 20
140.752602
 42
-0.305275
  0
VERTEX
  8
0
 10
149.150335
 20
141.416563
 42
-0.073511
  0
VERTEX
  8
0
 10
149.461053
 20
141.599827
 42
-0.000040
  0
VERTEX
  8
0
 10
159.677877
 20
145.752475
 42
-0.000536
  0
VERTEX
  8
0
 10
171.054133
 20
150.361133
 42
-0.000327
  0
VERTEX
  8
0
 10
184.497757
 20
155.780331
 42
-0.001173
  0
VERTEX
  8
0
 10
205.596254
 20
164.211750
 42
-0.012342
  0
VERTEX
  8
0
 10
214.317173
 20
167.426296
 42
-0.025266
  0
VERTEX
  8
0
 10
219.205959
 20
168.821218
 42
-0.245509
  0
VERTEX
  8
0
 10
221.224176
 20
168.297124
 42
-0.030868
  0
VERTEX
  8
0
 10
221.856348
 20
167.649749
 42
-0.044077
  0
VERTEX
  8
0
 10
222.325128
 20
166.998227
 42
-0.052290
  0
VERTEX
  8
0
 10
222.585611
 20
166.431934
 42
-0.223675
  0
SEQEND
  0
POLYLINE
  8
0
 66
1
 70
1
  0
VERTEX
  8
0
 10
237.778119
 20
159.736181
 42
0.000000
  0
VERTEX
  8
0
 10
239.904867
 20
157.472362
 42
0.000000
  0
VERTEX
  8
0
 10
208.753020
 20
140.486181
 42
0.000020
  0
VERTEX
  8
0
 10
196.261608
 20
133.674322
 42
0.000024
  0
VERTEX
  8
0
 10
184.491440
 20
127.254407
 42
0.000021
  0
VERTEX
  8
0
 10
174.568592
 20
121.840925
 42
0.000160
  0
VERTEX
  8
0
 10
169.905555
 20
119.294779
 42
0.000000
  0
VERTEX
  8
0
 10
162.209938
 20
115.089558
 42
0.000000
  0
VERTEX
  8
0
 10
159.456416
 20
119.062892
 42
-0.019761
  0
VERTEX
  8
0
 10
158.454283
 20
120.638480
 42
-0.030232
  0
VERTEX
  8
0
 10
157.726272
 20
122.084051
 42
-0.030374
  0
VERTEX
  8
0
 10
157.303403
 20
123.259409
 42
-0.273788
  0
VERTEX
  8
0
 10
157.433214
 20
123.768113
 42
-0.082603
  0
VERTEX
  8
0
 10
158.638393
 20
124.631484
 42
-0.000052
  0
VERTEX
  8
0
 10
196.106637
 20
143.041386
 42
-0.000058
  0
VERTEX
  8
0
 10
233.511404
 20
161.409832
 42
-0.074345
  0
VERTEX
  8
0
 10
235.075686
 20
161.907374
 42
-0.194305
  0
VERTEX
  8
0
 10
235.406769
 20
161.831842
 42
-0.017177
  0
VERTEX
  8
0
 10
236.106996
 20
161.307794
 42
-0.020467
  0
VERTEX
  8
0
 10
236.921516
 20
160.596640
 42
-0.014483
  0
SEQEND
  0
POLYLINE
  8
0
 66
1
 70
1
  0
VERTEX
  8
0
 10
252.970545
 20
151.055037
 42
-0.206717
  0
VERTEX
  8
0
 10
253.081114
 20
149.737175
 42
-0.122991
  0
VERTEX
  8
0
 10
252.218760
 20
148.388046
 42
-0.041434
  0
VERTEX
  8
0
 10
249.893597
 20
146.528903
 42
-0.004685
  0
VERTEX
  8
0
 10
244.255729
 20
142.816653
 42
0.001742
  0
VERTEX
  8
0
 10
238.912574
 20
139.343361
 42
0.000401
  0
VERTEX
  8
0
 10
229.928242
 20
133.448200
 42
0.000415
  0
VERTEX
  8
0
 10
219.589769
 20
126.640347
 42
0.000405
  0
VERTEX
  8
0
 10
209.180840
 20
119.761616
 42
-0.002538
  0
VERTEX
  8
0
 10
199.367957
 20
113.336773
 42
-0.003982
  0
VERTEX
  8
0
 10
190.860382
 20
107.923725
 42
-0.001144
  0
VERTEX
  8
0
 10
183.429027
 20
103.301759
 42
-0.139423
  0
VERTEX
  8
0
 10
182.367890
 20
103.000000
 42
-0.103458
  0
VERTEX
  8
0
 10
180.360174
 20
103.419923
 42
-0.008663
  0
VERTEX
  8
0
 10
175.509990
 20
105.642502
 42
-0.004736
  0
VERTEX
  8
0
 10
170.501841
 20
108.101914
 42
-0.299475
  0
VERTEX
  8
0
 10
170.034754
 20
108.912263
 42
-0.258567
  0
VERTEX
  8
0
 10
170.574763
 20
109.763882
 42
-0.000071
  0
VERTEX
  8
0
 10
209.803619
 20
131.168757
 42
-0.000142
  0
VERTEX
  8
0
 10
248.561282
 20
152.295138
 42
-0.108648
  0
VERTEX
  8
0
 10
250.714816
 20
152.919842
 42
-0.133153
  0
VERTEX
  8
0
 10
251.255414
 20
152.810898
 42
-0.056861
  0
VERTEX
  8
0
 10
251.878548
 20
152.405121
 42
-0.050705
  0
VERTEX
  8
0
 10
252.482340
 20
151.793142
 42
-0.046520
  0
SEQEND
  0
POLYLINE
  8
0
 66
1
 70
1
  0
VERTEX
  8
0
 10
448.209336
 20
147.500000
 42
-0.375339
  0
VERTEX
  8
0
 10
447.751735
 20
146.515932
 42
-0.108848
  0
VERTEX
  8
0
 10
445.971109
 20
146.153954
 42
-0.078104
  0
VERTEX
  8
0
 10
443.740761
 20
146.541815
 42
-0.154039
  0
VERTEX
  8
0
 10
442.306028
 20
147.596160
 42
-0.018382
  0
VERTEX
  8
0
 10
441.806073
 20
148.335459
 42
-0.020838
  0
VERTEX
  8
0
 10
441.383646
 20
149.079821
 42
-0.020573
  0
VERTEX
  8
0
 10
441.080015
 20
149.736026
 42
-0.098373
  0
VERTEX
  8
0
 10
441.000000
 20
150.138782
 42
-0.494186
  0
VERTEX
  8
0
 10
441.592776
 20
150.592061
 42
-0.021436
  0
VERTEX
  8
0
 10
444.473230
 20
149.675681
 42
-0.021356
  0
VERTEX
  8
0
 10
447.378384
 20
148.469320
 42
-0.216186
  0
SEQEND
  0
POLYLINE
  8
0
 66
1
 70
1
  0
VERTEX
  8
0
 10
476.197537
 20
143.606191
 42
-0.009243
  0
VERTEX
  8
0
 10
479.171759
 20
142.183828
 42
-0.010677
  0
VERTEX
  8
0
 10
481.949940
 20
140.716512
 42
-0.009816
  0
VERTEX
  8
0
 10
484.244710
 20
139.381497
 42
-0.059787
  0
VERTEX
  8
0
 10
485.322381
 20
138.534762
 42
-0.120302
  0
VERTEX
  8
0
 10
486.782722
 20
136.131060
 42
-0.137471
  0
VERTEX
  8
0
 10
486.871949
 20
133.449331
 42
-0.098266
  0
VERTEX
  8
0
 10
485.463286
 20
130.424820
 42
-0.040771
  0
VERTEX
  8
0
 10
482.500000
 20
127.000000
 42
-0.012500
  0
VERTEX
  8
0
 10
480.772091
 20
125.386970
 42
-0.025397
  0
VERTEX
  8
0
 10
479.321875
 20
124.225596
 42
-0.034958
  0
VERTEX
  8
0
 10
478.286337
 20
123.584166
 42
-0.564452
  0
VERTEX
  8
0
 10
478.000000
 20
123.756996
 42
0.168898
  0
VERTEX
  8
0
 10
477.373741
 20
125.558070
 42
0.023720
  0
VERTEX
  8
0
 10
474.748921
 20
128.570757
 42
0.027663
  0
VERTEX
  8
0
 10
471.731744
 20
131.389159
 42
0.076926
  0
VERTEX
  8
0
 10
469.254602
 20
132.882420
 42
0.040551
  0
VERTEX
  8
0
 10
467.630994
 20
133.398712
 42
0.007246
  0
VERTEX
  8
0
 10
464.518539
 20
134.069689
 42
0.007787
  0
VERTEX
  8
0
 10
460.839076
 20
134.747849
 42
0.006959
  0
VERTEX
  8
0
 10
457.000000
 20
135.338963
 42
-0.002661
  0
VERTEX
  8
0
 10
451.163629
 20
136.186319
 42
-0.052035
  0
VERTEX
  8
0
 10
449.404841
 20
136.641930
 42
-0.549149
  0
VERTEX
  8
0
 10
449.295344
 20
137.158276
 42
-0.095924
  0
VERTEX
  8
0
 10
450.318334
 20
137.834547
 42
0.025424
  0
VERTEX
  8
0
 10
451.630530
 20
138.458234
 42
0.011776
  0
VERTEX
  8
0
 10
453.271124
 20
139.393399
 42
0.011630
  0
VERTEX
  8
0
 10
454.952432
 20
140.458985
 42
0.015864
  0
VERTEX
  8
0
 10
456.412725
 20
141.501230
 42
-0.024914
  0
VERTEX
  8
0
 10
457.806890
 20
142.458690
 42
-0.025088
  0
VERTEX
  8
0
 10
459.286213
 20
143.270317
 42
-0.025875
  0
VERTEX
  8
0
 10
460.642324
 20
143.843512
 42
-0.085312
  0
VERTEX
  8
0
 10
461.594391
 20
144.014742
 42
0.075997
  0
VERTEX
  8
0
 10
462.962028
 20
144.234661
 42
0.019632
  0
VERTEX
  8
0
 10
465.065913
 20
145.003589
 42
0.020727
  0
VERTEX
  8
0
 10
467.165304
 20
145.969223
 42
0.048034
  0
VERTEX
  8
0
 10
468.625156
 20
146.901952
 42
-0.275081
  0
VERTEX
  8
0
 10
468.733856
 20
146.915904
 42
-0.000321
  0
VERTEX
  8
0
 10
470.901170
 20
145.974267
 42
-0.002657
  0
VERTEX
  8
0
 10
473.333141
 20
144.900381
 42
-0.001615
  0
SEQEND
  0
POLYLINE
  8
0
 66
1
 70
1
  0
VERTEX
  8
0
 10
142.420405
 20
132.951282
 42
-0.008687
  0
VERTEX
  8
0
 10
143.088078
 20
130.988084
 42
-0.013501
  0
VERTEX
  8
0
 10
143.588190
 20
129.271218
 42
-0.007675
  0
VERTEX
  8
0
 10
143.940225
 20
127.839505
 42
-0.258313
  0
VERTEX
  8
0
 10
143.846427
 20
127.513094
 42
-0.082647
  0
VERTEX
  8
0
 10
143.486641
 20
127.255979
 42
-0.000029
  0
VERTEX
  8
0
 10
128.321393
 20
119.827137
 42
-0.000481
  0
VERTEX
  8
0
 10
111.475234
 20
111.596152
 42
-0.000292
  0
VERTEX
  8
0
 10
91.542164
 20
101.895052
 42
0.000000
  0
VERTEX
  8
0
 10
39.627372
 20
76.666481
 42
0.000000
  0
VERTEX
  8
0
 10
36.219912
 20
80.583241
 42
-0.003159
  0
VERTEX
  8
0
 10
34.698767
 20
82.354216
 42
-0.001971
  0
VERTEX
  8
0
 10
32.937886
 20
84.447378
 42
-0.001978
  0
VERTEX
  8
0
 10
31.218484
 20
86.524317
 42
-0.003594
  0
VERTEX
  8
0
 10
29.832002
 20
88.237620
 42
0.000000
  0
VERTEX
  8
0
 10
26.851552
 20
91.975240
 42
0.000000
  0
VERTEX
  8
0
 10
29.175776
 20
93.007130
 42
-0.008216
  0
VERTEX
  8
0
 10
34.520698
 20
95.275745
 42
-0.000046
  0
VERTEX
  8
0
 10
85.790469
 20
116.044028
 42
-0.000007
  0
VERTEX
  8
0
 10
139.176233
 20
137.662918
 42
-0.055482
  0
VERTEX
  8
0
 10
140.052456
 20
137.909111
 42
-0.323376
  0
VERTEX
  8
0
 10
140.336399
 20
137.767558
 42
-0.009306
  0
VERTEX
  8
0
 10
140.975929
 20
136.490240
 42
-0.015480
  0
VERTEX
  8
0
 10
141.684600
 20
134.880140
 42
-0.009618
  0
SEQEND
  0
POLYLINE
  8
0
 66
1
 70
1
  0
VERTEX
  8
0
 10
151.512552
 20
114.981887
 42
-0.009960
  0
VERTEX
  8
0
 10
152.551365
 20
113.417203
 42
-0.016232
  0
VERTEX
  8
0
 10
153.362069
 20
112.045260
 42
-0.010106
  0
VERTEX
  8
0
 10
153.956433
 20
110.906493
 42
-0.345464
  0
VERTEX
  8
0
 10
153.898553
 20
110.627316
 42
-0.050121
  0
VERTEX
  8
0
 10
153.550271
 20
110.388554
 42
-0.000018
  0
VERTEX
  8
0
 10
139.825817
 20
102.877292
 42
-0.000302
  0
VERTEX
  8
0
 10
124.580685
 20
94.546460
 42
-0.000184
  0
VERTEX
  8
0
 10
106.551037
 20
84.716727
 42
-0.001465
  0
VERTEX
  8
0
 10
84.191558
 20
72.621840
 42
-0.005418
  0
VERTEX
  8
0
 10
69.974560
 20
65.182569
 42
-0.002436
  0
VERTEX
  8
0
 10
59.617068
 20
59.968408
 42
-0.246962
  0
VERTEX
  8
0
 10
58.051037
 20
60.004005
 42
-0.054970
  0
VERTEX
  8
0
 10
55.208781
 20
62.019380
 42
-0.015143
  0
VERTEX
  8
0
 10
51.218470
 20
65.788525
 42
-0.007540
  0
VERTEX
  8
0
 10
47.350840
 20
69.788887
 42
-0.506016
  0
VERTEX
  8
0
 10
47.500000
 20
70.592840
 42
0.000868
  0
VERTEX
  8
0
 10
48.300638
 20
70.981756
 42
0.000001
  0
VERTEX
  8
0
 10
62.600000
 20
77.958543
 42
0.000011
  0
VERTEX
  8
0
 10
78.642455
 20
85.786291
 42
0.000007
  0
VERTEX
  8
0
 10
97.500000
 20
94.988459
 42
-0.000762
  0
VERTEX
  8
0
 10
116.366005
 20
104.159500
 42
-0.001236
  0
VERTEX
  8
0
 10
132.433487
 20
111.890932
 42
-0.000155
  0
VERTEX
  8
0
 10
146.764621
 20
118.737852
 42
-0.100524
  0
VERTEX
  8
0
 10
147.613999
 20
118.950232
 42
-0.188971
  0
VERTEX
  8
0
 10
148.201237
 20
118.749815
 42
-0.022964
  0
VERTEX
  8
0
 10
149.218724
 20
117.805060
 42
-0.024665
  0
VERTEX
  8
0
 10
150.364775
 20
116.517215
 42
-0.017970
  0
SEQEND
  0
POLYLINE
  8
0
 66
1
 70
1
  0
VERTEX
  8
0
 10
367.520158
 20
113.375390
 42
0.015499
  0
VERTEX
  8
0
 10
368.806328
 20
111.328858
 42
0.009487
  0
VERTEX
  8
0
 10
370.442084
 20
108.993695
 42
0.009507
  0
VERTEX
  8
0
 10
372.151320
 20
106.740827
 42
0.016666
  0
VERTEX
  8
0
 10
373.661325
 20
104.953112
 42
0.000000
  0
VERTEX
  8
0
 10
377.092291
 20
101.155444
 42
0.000000
  0
VERTEX
  8
0
 10
371.296145
 20
100.526715
 42
0.008377
  0
VERTEX
  8
0
 10
360.918909
 20
99.224827
 42
0.124667
  0
VERTEX
  8
0
 10
357.560585
 20
97.845899
 42
0.226845
  0
VERTEX
  8
0
 10
356.213233
 20
95.301478
 42
0.035753
  0
VERTEX
  8
0
 10
356.391443
 20
89.483522
 42
0.000000
  0
VERTEX
  8
0
 10
357.055636
 20
83.000615
 42
0.000000
  0
VERTEX
  8
0
 10
351.277818
 20
85.588675
 42
0.006576
  0
VERTEX
  8
0
 10
343.140684
 20
89.105790
 42
0.083941
  0
VERTEX
  8
0
 10
339.911993
 20
89.852704
 42
0.167466
  0
VERTEX
  8
0
 10
337.494971
 20
89.178558
 42
0.045417
  0
VERTEX
  8
0
 10
334.400000
 20
86.600000
 42
0.000000
  0
VERTEX
  8
0
 10
331.000000
 20
83.200000
 42
0.000000
  0
VERTEX
  8
0
 10
331.000000
 20
85.949122
 42
-0.012894
  0
VERTEX
  8
0
 10
331.039604
 20
87.484612
 42
-0.002695
  0
VERTEX
  8
0
 10
331.192870
 20
90.172342
 42
-0.002826
  0
VERTEX
  8
0
 10
331.405228
 20
93.290246
 42
-0.002669
  0
VERTEX
  8
0
 10
331.656580
 20
96.465572
 42
-0.006650
  0
VERTEX
  8
0
 10
332.155105
 20
101.555642
 42
-0.080323
  0
VERTEX
  8
0
 10
332.680373
 20
103.444532
 42
-0.149685
  0
VERTEX
  8
0
 10
333.698885
 20
104.585631
 42
-0.039640
  0
VERTEX
  8
0
 10
335.906580
 20
105.695145
 42
0.006838
  0
VERTEX
  8
0
 10
337.926268
 20
106.549380
 42
0.001344
  0
VERTEX
  8
0
 10
341.528808
 20
108.143074
 42
0.001425
  0
VERTEX
  8
0
 10
345.716555
 20
110.023454
 42
0.001322
  0
VERTEX
  8
0
 10
350.000000
 20
111.975155
 42
-0.003121
  0
VERTEX
  8
0
 10
354.167374
 20
113.855889
 42
-0.004077
  0
VERTEX
  8
0
 10
358.003125
 20
115.520916
 42
-0.003035
  0
VERTEX
  8
0
 10
361.233997
 20
116.869089
 42
-0.037551
  0
VERTEX
  8
0
 10
362.500000
 20
117.280458
 42
0.003438
  0
VERTEX
  8
0
 10
363.277591
 20
117.475686
 42
0.005053
  0
VERTEX
  8
0
 10
363.958025
 20
117.658858
 42
0.002493
  0
VERTEX
  8
0
 10
364.532282
 20
117.822781
 42
0.090117
  0
VERTEX
  8
0
 10
364.654978
 20
117.883999
 42
-0.435252
  0
VERTEX
  8
0
 10
364.756396
 20
117.865700
 42
-0.001285
  0
VERTEX
  8
0
 10
365.560553
 20
116.607446
 42
-0.005641
  0
VERTEX
  8
0
 10
366.469768
 20
115.140417
 42
-0.003364
  0
SEQEND
  0
POLYLINE
  8
0
 66
1
 70
1
  0
VERTEX
  8
0
 10
165.630363
 20
101.231803
 42
0.001547
  0
VERTEX
  8
0
 10
167.348818
 20
100.102851
 42
0.001488
  0
VERTEX
  8
0
 10
169.096638
 20
98.969732
 42
0.001471
  0
VERTEX
  8
0
 10
170.643193
 20
97.980041
 42
0.005404
  0
VERTEX
  8
0
 10
171.630363
 20
97.367284
 42
-0.028727
  0
VERTEX
  8
0
 10
172.311254
 20
96.899312
 42
-0.050907
  0
VERTEX
  8
0
 10
172.803919
 20
96.429826
 42
-0.074849
  0
VERTEX
  8
0
 10
173.054448
 20
96.028746
 42
-0.316845
  0
VERTEX
  8
0
 10
173.000000
 20
95.766559
 42
-0.032389
  0
VERTEX
  8
0
 10
172.578560
 20
95.420422
 42
-0.000065
  0
VERTEX
  8
0
 10
165.596875
 20
90.407410
 42
-0.000464
  0
VERTEX
  8
0
 10
157.736875
 20
84.776346
 42
-0.000288
  0
VERTEX
  8
0
 10
148.500000
 20
78.179850
 42
0.002519
  0
VERTEX
  8
0
 10
138.515357
 20
70.981830
 42
0.002345
  0
VERTEX
  8
0
 10
128.361290
 20
63.510475
 42
0.002336
  0
VERTEX
  8
0
 10
119.397550
 20
56.784698
 42
0.007937
  0
VERTEX
  8
0
 10
113.644816
 20
52.280575
 42
-0.000848
  0
VERTEX
  8
0
 10
109.366943
 20
48.832265
 42
-0.001154
  0
VERTEX
  8
0
 10
105.495178
 20
45.736805
 42
-0.000759
  0
VERTEX
  8
0
 10
102.233602
 20
43.149584
 42
-0.013113
  0
VERTEX
  8
0
 10
101.144816
 20
42.334080
 42
-0.117334
  0
VERTEX
  8
0
 10
99.963687
 20
41.858156
 42
-0.057258
  0
VERTEX
  8
0
 10
98.330567
 20
41.800894
 42
-0.034210
  0
VERTEX
  8
0
 10
95.958147
 20
42.153955
 42
-0.009098
  0
VERTEX
  8
0
 10
92.236327
 20
43.042385
 42
-0.028282
  0
VERTEX
  8
0
 10
85.532418
 20
45.182952
 42
-0.012610
  0
VERTEX
  8
0
 10
76.959632
 20
48.715238
 42
-0.004864
  0
VERTEX
  8
0
 10
68.477374
 20
52.562188
 42
-0.520828
  0
VERTEX
  8
0
 10
68.289845
 20
53.623178
 42
-0.071599
  0
VERTEX
  8
0
 10
70.083449
 20
54.965419
 42
-0.000071
  0
VERTEX
  8
0
 10
114.419943
 20
79.148961
 42
-0.000047
  0
VERTEX
  8
0
 10
159.076573
 20
103.493433
 42
-0.109976
  0
VERTEX
  8
0
 10
160.500000
 20
103.902659
 42
-0.123602
  0
VERTEX
  8
0
 10
161.097777
 20
103.790738
 42
-0.012237
  0
VERTEX
  8
0
 10
162.419544
 20
103.143235
 42
-0.014840
  0
VERTEX
  8
0
 10
163.975491
 20
102.273582
 42
-0.011250
  0
SEQEND
  0
POLYLINE
  8
0
 66
1
 70
1
  0
VERTEX
  8
0
 10
393.409292
 20
69.853231
 42
-0.286628
  0
VERTEX
  8
0
 10
392.973301
 20
69.637799
 42
-0.024317
  0
VERTEX
  8
0
 10
391.679938
 20
69.830601
 42
-0.026400
  0
VERTEX
  8
0
 10
390.050185
 20
70.245693
 42
-0.017012
  0
VERTEX
  8
0
 10
388.209795
 20
70.888857
 42
0.001472
  0
VERTEX
  8
0
 10
385.810298
 20
71.812035
 42
0.000499
  0
VERTEX
  8
0
 10
382.313190
 20
73.141702
 42
0.000496
  0
VERTEX
  8
0
 10
378.445346
 20
74.603530
 42
0.000570
  0
VERTEX
  8
0
 10
374.750000
 20
75.991168
 42
-0.007016
  0
VERTEX
  8
0
 10
369.901730
 20
77.883408
 42
-0.045054
  0
VERTEX
  8
0
 10
367.563975
 20
79.089165
 42
-0.102813
  0
VERTEX
  8
0
 10
366.412065
 20
80.208690
 42
-0.149793
  0
VERTEX
  8
0
 10
366.000000
 20
81.553280
 42
-0.298251
  0
VERTEX
  8
0
 10
366.615213
 20
82.492903
 42
-0.179660
  0
VERTEX
  8
0
 10
367.995326
 20
82.570080
 42
-0.033362
  0
VERTEX
  8
0
 10
371.134126
 20
81.365766
 42
-0.002182
  0
VERTEX
  8
0
 10
379.949496
 20
77.243321
 42
-0.005625
  0
VERTEX
  8
0
 10
385.263440
 20
74.656418
 42
-0.009455
  0
VERTEX
  8
0
 10
389.657478
 20
72.350915
 42
-0.003576
  0
VERTEX
  8
0
 10
393.289132
 20
70.323023
 42
-0.425139
  0
SEQEND
  0
POLYLINE
  8
0
 66
1
 70
1
  0
VERTEX
  8
0
 10
306.873512
 20
42.500000
 42
-0.004902
  0
VERTEX
  8
0
 10
314.371400
 20
38.969582
 42
-0.024967
  0
VERTEX
  8
0
 10
318.417540
 20
36.760277
 42
-0.132386
  0
VERTEX
  8
0
 10
319.489054
 20
35.628022
 42
-0.567725
  0
VERTEX
  8
0
 10
319.114222
 20
35.000000
 42
-0.083870
  0
VERTEX
  8
0
 10
318.467284
 20
35.109286
 42
-0.001171
  0
VERTEX
  8
0
 10
314.709776
 20
36.425947
 42
-0.003239
  0
VERTEX
  8
0
 10
310.358515
 20
37.993887
 42
-0.002123
  0
VERTEX
  8
0
 10
305.364222
 20
39.854287
 42
-0.004768
  0
VERTEX
  8
0
 10
298.362006
 20
42.573112
 42
-0.028586
  0
VERTEX
  8
0
 10
294.820760
 20
44.227535
 42
-0.059739
  0
VERTEX
  8
0
 10
292.914831
 20
45.569710
 42
-0.174473
  0
VERTEX
  8
0
 10
292.165853
 20
46.965670
 42
-0.039068
  0
VERTEX
  8
0
 10
292.107893
 20
47.805800
 42
-0.080430
  0
VERTEX
  8
0
 10
292.218911
 20
48.453587
 42
-0.145766
  0
VERTEX
  8
0
 10
292.471562
 20
48.807680
 42
-0.258948
  0
VERTEX
  8
0
 10
292.815703
 20
48.861382
 42
-0.017928
  0
VERTEX
  8
0
 10
293.535733
 20
48.567243
 42
-0.000318
  0
VERTEX
  8
0
 10
297.351083
 20
46.843656
 42
-0.000797
  0
VERTEX
  8
0
 10
301.792148
 20
44.825470
 42
-0.000531
  0
SEQEND
  0
ENDSEC
  0
EOF
