  0
SECTION
  2
HEADER
  9
$ACADVER
  1
AC1006
  9
$EXTMIN
 10
0.000000
 20
0.000000
 30
0.000000
  9
$EXTMAX
 10
512.000000
 20
512.000000
 30
0.000000
  0
ENDSEC
  0
SECTION
  2
ENTITIES
  0
POLYLINE
  8
0
 66
1
 70
1
  0
VERTEX
  8
0
 10
475.500000
 20
430.613997
 42
0.058363
  0
VERTEX
  8
0
 10
467.161095
 20
427.521346
 42
0.054873
  0
VERTEX
  8
0
 10
459.572335
 20
422.534508
 42
0.054333
  0
VERTEX
  8
0
 10
453.184117
 20
415.962617
 42
0.054940
  0
VERTEX
  8
0
 10
448.389008
 20
408.192212
 42
0.031868
  0
VERTEX
  8
0
 10
447.181265
 20
405.163248
 42
0.009757
  0
VERTEX
  8
0
 10
445.742335
 20
400.447900
 42
0.009722
  0
VERTEX
  8
0
 10
444.333785
 20
395.093264
 42
0.010493
  0
VERTEX
  8
0
 10
443.172735
 20
389.821917
 42
-0.007047
  0
VERTEX
  8
0
 10
441.264881
 20
380.866605
 42
-0.094797
  0
VERTEX
  8
0
 10
439.924545
 20
377.808115
 42
-0.195325
  0
VERTEX
  8
0
 10
437.842230
 20
376.435056
 42
-0.048114
  0
VERTEX
  8
0
 10
433.684259
 20
376.013655
 42
0.053461
  0
VERTEX
  8
0
 10
430.978791
 20
375.710275
 42
0.086767
  0
VERTEX
  8
0
 10
428.846083
 20
374.829650
 42
0.111144
  0
VERTEX
  8
0
 10
427.489683
 20
373.471430
 42
0.141775
  0
VERTEX
  8
0
 10
427.000000
 20
371.779173
 42
0.107902
  0
VERTEX
  8
0
 10
427.245461
 20
370.654994
 42
0.023545
  0
VERTEX
  8
0
 10
428.161048
 20
368.883476
 42
0.023487
  0
VERTEX
  8
0
 10
429.439501
 20
366.893621
 42
0.020628
  0
VERTEX
  8
0
 10
430.952505
 20
364.941277
 42
0.000000
  0
VERTEX
  8
0
 10
434.905010
 20
360.253840
 42
0.000000
  0
VERTEX
  8
0
 10
432.202505
 20
356.078138
 42
-0.022774
  0
VERTEX
  8
0
 10
430.972095
 20
354.354449
 42
-0.044863
  0
VERTEX
  8
0
 10
429.819414
 20
353.129835
 42
-0.060535
  0
VERTEX
  8
0
 10
428.802105
 20
352.426274
 42
-0.195589
  0
VERTEX
  8
0
 10
428.000000
 20
352.347547
 42
-0.012598
  0
VERTEX
  8
0
 10
427.140888
 20
352.626213
 42
-0.002197
  0
VERTEX
  8
0
 10
425.536751
 20
353.199520
 42
-0.002384
  0
VERTEX
  8
0
 10
423.660559
 20
353.889508
 42
-0.002136
  0
VERTEX
  8
0
 10
421.720856
 20
354.622830
 42
0.040937
  0
VERTEX
  8
0
 10
417.241279
 20
355.929859
 42
0.243244
  0
VERTEX
  8
0
 10
414.968558
 20
355.288236
 42
0.191827
  0
VERTEX
  8
0
 10
413.844984
 20
352.897726
 42
0.025429
  0
VERTEX
  8
0
 10
413.790993
 20
347.200163
 42
0.000000
  0
VERTEX
  8
0
 10
414.081985
 20
340.170357
 42
0.000000
  0
VERTEX
  8
0
 10
408.790993
 20
338.147979
 42
0.000000
  0
VERTEX
  8
0
 10
403.500000
 20
336.125602
 42
0.000000
  0
VERTEX
  8
0
 10
399.159966
 20
341.062801
 42
0.038240
  0
VERTEX
  8
0
 10
394.944168
 20
345.177280
 42
0.234123
  0
VERTEX
  8
0
 10
392.074779
 20
345.869839
 42
0.216575
  0
VERTEX
  8
0
 10
389.633879
 20
344.015437
 42
0.032949
  0
VERTEX
  8
0
 10
387.026251
 20
338.309556
 42
-0.018676
  0
VERTEX
  8
0
 10
385.820616
 20
335.459069
 42
-0.100514
  0
VERTEX
  8
0
 10
384.822999
 20
334.113114
 42
-0.113887
  0
VERTEX
  8
0
 10
383.438186
 20
333.346125
 42
-0.027077
  0
VERTEX
  8
0
 10
380.851148
 20
332.754391
 42
-0.045954
  0
VERTEX
  8
0
 10
377.702941
 20
332.505549
 42
-0.165187
  0
VERTEX
  8
0
 10
375.829668
 20
333.168999
 42
-0.097023
  0
VERTEX
  8
0
 10
374.199571
 20
335.067196
 42
-0.010498
  0
VERTEX
  8
0
 10
371.440851
 20
340.176068
 42
0.055307
  0
VERTEX
  8
0
 10
368.411287
 20
344.753799
 42
0.256206
  0
VERTEX
  8
0
 10
365.560831
 20
345.872667
 42
0.203420
  0
VERTEX
  8
0
 10
362.583291
 20
344.132306
 42
0.036420
  0
VERTEX
  8
0
 10
359.046516
 20
338.586193
 42
-0.011666
  0
VERTEX
  8
0
 10
356.986264
 20
334.972867
 42
-0.061409
  0
VERTEX
  8
0
 10
355.581158
 20
333.178020
 42
-0.098462
  0
VERTEX
  8
0
 10
354.106433
 20
332.195638
 42
-0.056905
  0
VERTEX
  8
0
 10
352.049104
 20
331.609247
 42
-0.022321
  0
VERTEX
  8
0
 10
346.794524
 20
330.979170
 42
-0.130076
  0
VERTEX
  8
0
 10
344.078124
 20
331.484687
 42
-0.120888
  0
VERTEX
  8
0
 10
341.869140
 20
333.283098
 42
-0.018176
  0
VERTEX
  8
0
 10
338.568621
 20
338.000000
 42
0.010324
  0
VERTEX
  8
0
 10
336.139452
 20
341.590342
 42
0.042741
  0
VERTEX
  8
0
 10
334.451860
 20
343.590208
 42
0.075853
  0
VERTEX
  8
0
 10
333.021121
 20
344.640046
 42
0.120990
  0
VERTEX
  8
0
 10
331.555356
 20
345.000000
 42
0.066271
  0
VERTEX
  8
0
 10
330.478047
 20
344.856582
 42
0.063291
  0
VERTEX
  8
0
 10
329.457557
 20
344.435779
 42
0.064736
  0
VERTEX
  8
0
 10
328.595254
 20
343.784573
 42
0.075968
  0
VERTEX
  8
0
 10
327.981534
 20
342.965496
 42
0.096389
  0
VERTEX
  8
0
 10
327.584457
 20
341.678269
 42
0.091111
  0
VERTEX
  8
0
 10
327.686939
 20
340.308717
 42
0.053253
  0
VERTEX
  8
0
 10
328.367469
 20
338.516053
 42
0.012617
  0
VERTEX
  8
0
 10
329.887103
 20
335.697324
 42
0.007600
  0
VERTEX
  8
0
 10
331.258979
 20
333.381901
 42
0.004922
  0
VERTEX
  8
0
 10
332.912778
 20
330.743614
 42
0.004948
  0
VERTEX
  8
0
 10
334.579593
 20
328.197655
 42
0.009338
  0
VERTEX
  8
0
 10
335.982368
 20
326.183038
 42
0.000000
  0
VERTEX
  8
0
 10
339.083231
 20
321.902421
 42
0.000000
  0
VERTEX
  8
0
 10
347.791615
 20
322.510054
 42
0.006003
  0
VERTEX
  8
0
 10
355.970730
 20
323.179528
 42
0.063462
  0
VERTEX
  8
0
 10
359.232735
 20
323.910447
 42
0.132596
  0
VERTEX
  8
0
 10
361.209372
 20
325.294420
 42
0.056199
  0
VERTEX
  8
0
 10
363.008162
 20
328.016000
 42
-0.006462
  0
VERTEX
  8
0
 10
363.812278
 20
329.543117
 42
-0.010194
  0
VERTEX
  8
0
 10
364.545475
 20
330.829700
 42
-0.004553
  0
VERTEX
  8
0
 10
365.193107
 20
331.892035
 42
-0.259132
  0
VERTEX
  8
0
 10
365.387438
 20
332.000000
 42
-0.232453
  0
VERTEX
  8
0
 10
365.594161
 20
331.898403
 42
-0.003672
  0
VERTEX
  8
0
 10
366.409936
 20
330.825000
 42
-0.008841
  0
VERTEX
  8
0
 10
367.341627
 20
329.533205
 42
-0.005638
  0
VERTEX
  8
0
 10
368.381302
 20
328.000000
 42
0.000000
  0
VERTEX
  8
0
 10
371.028377
 20
324.000000
 42
0.000000
  0
VERTEX
  8
0
 10
378.949089
 20
324.000000
 42
0.016326
  0
VERTEX
  8
0
 10
385.551373
 20
324.215641
 42
0.077503
  0
VERTEX
  8
0
 10
389.230090
 20
325.038257
 42
0.131675
  0
VERTEX
  8
0
 10
391.481328
 20
326.702309
 42
0.088642
  0
VERTEX
  8
0
 10
393.009788
 20
329.529658
 42
0.000000
  0
VERTEX
  8
0
 10
394.215615
 20
333.183351
 42
0.000000
  0
VERTEX
  8
0
 10
397.509638
 20
329.990658
 42
0.068904
  0
VERTEX
  8
0
 10
400.250384
 20
327.983142
 42
0.129292
  0
VERTEX
  8
0
 10
402.901534
 20
327.341549
 42
0.078703
  0
VERTEX
  8
0
 10
406.390059
 20
327.964827
 42
0.014608
  0
VERTEX
  8
0
 10
412.500000
 20
330.286258
 42
0.016692
  0
VERTEX
  8
0
 10
418.175400
 20
332.859586
 42
0.078923
  0
VERTEX
  8
0
 10
421.080862
 20
334.918917
 42
0.125936
  0
VERTEX
  8
0
 10
422.511924
 20
337.273444
 42
0.074029
  0
VERTEX
  8
0
 10
423.000000
 20
340.551916
 42
0.000000
  0
VERTEX
  8
0
 10
423.000000
 20
344.967643
 42
0.000000
  0
VERTEX
  8
0
 10
426.508205
 20
343.294696
 42
0.017235
  0
VERTEX
  8
0
 10
428.709745
 20
342.336519
 42
0.109217
  0
VERTEX
  8
0
 10
429.908494
 20
342.144952
 42
0.122130
  0
VERTEX
  8
0
 10
431.013634
 20
342.489432
 42
0.023782
  0
VERTEX
  8
0
 10
432.758205
 20
343.664541
 42
0.067288
  0
VERTEX
  8
0
 10
435.925659
 20
346.764959
 42
0.020771
  0
VERTEX
  8
0
 10
439.814972
 20
352.210763
 42
0.017701
  0
VERTEX
  8
0
 10
443.211412
 20
357.835384
 42
0.127649
  0
VERTEX
  8
0
 10
444.000000
 20
360.873951
 42
0.066361
  0
VERTEX
  8
0
 10
443.851298
 20
361.989415
 42
0.037204
  0
VERTEX
  8
0
 10
443.395078
 20
363.281471
 42
0.036401
  0
VERTEX
  8
0
 10
442.729009
 20
364.540588
 42
0.048749
  0
VERTEX
  8
0
 10
441.940691
 20
365.563131
 42
0.000000
  0
VERTEX
  8
0
 10
439.881382
 20
367.755165
 42
0.000000
  0
VERTEX
  8
0
 10
443.428538
 20
368.420616
 42
0.081511
  0
VERTEX
  8
0
 10
446.163983
 20
369.413268
 42
0.147597
  0
VERTEX
  8
0
 10
447.802349
 20
371.113230
 42
0.067871
  0
VERTEX
  8
0
 10
448.946065
 20
374.363640
 42
0.007794
  0
VERTEX
  8
0
 10
450.392666
 20
382.000000
 42
-0.020237
  0
VERTEX
  8
0
 10
453.554529
 20
396.683226
 42
-0.054353
  0
VERTEX
  8
0
 10
457.325760
 20
406.666995
 42
-0.074391
  0
VERTEX
  8
0
 10
462.316755
 20
413.683655
 42
-0.074751
  0
VERTEX
  8
0
 10
469.135326
 20
418.918881
 42
-0.003661
  0
VERTEX
  8
0
 10
471.617498
 20
420.269237
 42
-0.077811
  0
VERTEX
  8
0
 10
472.406682
 20
420.544510
 42
-0.656660
  0
VERTEX
  8
0
 10
472.549143
 20
420.331286
 42
-0.032834
  0
VERTEX
  8
0
 10
471.870589
 20
419.417472
 42
0.054429
  0
VERTEX
  8
0
 10
468.821650
 20
414.918589
 42
0.078928
  0
VERTEX
  8
0
 10
467.272624
 20
410.386284
 42
0.037741
  0
VERTEX
  8
0
 10
466.609495
 20
403.525304
 42
0.004331
  0
VERTEX
  8
0
 10
466.419373
 20
388.000000
 42
-0.005163
  0
VERTEX
  8
0
 10
466.207831
 20
372.791552
 42
-0.023390
  0
VERTEX
  8
0
 10
465.578762
 20
363.946912
 42
-0.028689
  0
VERTEX
  8
0
 10
464.182959
 20
356.058855
 42
-0.010540
  0
VERTEX
  8
0
 10
461.343642
 20
345.102949
 42
0.014093
  0
VERTEX
  8
0
 10
459.667893
 20
338.442301
 42
0.089603
  0
VERTEX
  8
0
 10
459.530459
 20
334.970139
 42
0.222213
  0
VERTEX
  8
0
 10
460.686026
 20
333.192784
 42
0.140154
  0
VERTEX
  8
0
 10
463.108986
 20
332.500000
 42
0.202393
  0
VERTEX
  8
0
 10
465.305408
 20
333.427054
 42
0.078100
  0
VERTEX
  8
0
 10
467.255310
 20
336.180823
 42
0.042182
  0
VERTEX
  8
0
 10
469.211211
 20
341.136164
 42
0.010798
  0
VERTEX
  8
0
 10
471.512727
 20
349.451327
 42
0.024287
  0
VERTEX
  8
0
 10
473.619868
 20
359.853304
 42
0.019259
  0
VERTEX
  8
0
 10
474.910772
 20
371.249965
 42
0.019139
  0
VERTEX
  8
0
 10
475.326884
 20
382.802896
 42
0.022903
  0
VERTEX
  8
0
 10
474.803743
 20
393.677555
 42
-0.004924
  0
VERTEX
  8
0
 10
474.219110
 20
400.619521
 42
-0.037049
  0
VERTEX
  8
0
 10
474.218760
 20
403.913954
 42
-0.063668
  0
VERTEX
  8
0
 10
474.728179
 20
406.412569
 42
-0.030647
  0
VERTEX
  8
0
 10
475.971772
 20
409.441690
 42
-0.033130
  0
VERTEX
  8
0
 10
477.239925
 20
411.671659
 42
-0.040847
  0
VERTEX
  8
0
 10
478.715468
 20
413.553526
 42
-0.040767
  0
VERTEX
  8
0
 10
480.479873
 20
415.173341
 42
-0.032792
  0
VERTEX
  8
0
 10
482.612760
 20
416.618950
 42
0.043856
  0
VERTEX
  8
0
 10
487.275466
 20
419.931865
 42
0.125872
  0
VERTEX
  8
0
 10
489.549390
 20
423.151181
 42
0.179382
  0
VERTEX
  8
0
 10
489.579845
 20
426.339271
 42
0.110436
  0
VERTEX
  8
0
 10
487.545455
 20
429.545455
 42
0.070462
  0
VERTEX
  8
0
 10
485.467201
 20
431.108062
 42
0.104260
  0
VERTEX
  8
0
 10
483.293648
 20
431.771491
 42
0.066618
  0
VERTEX
  8
0
 10
480.363420
 20
431.640827
 42
0.015239
  0
SEQEND
  0
POLYLINE
  8
0
 66
1
 70
1
  0
VERTEX
  8
0
 10
290.664547
 20
337.750000
 42
0.029236
  0
VERTEX
  8
0
 10
289.988688
 20
336.489619
 42
0.007122
  0
VERTEX
  8
0
 10
289.027328
 20
334.334054
 42
0.007276
  0
VERTEX
  8
0
 10
287.994613
 20
331.826832
 42
0.007191
  0
VERTEX
  8
0
 10
287.031096
 20
329.280822
 42
-0.010741
  0
VERTEX
  8
0
 10
286.085430
 20
326.834595
 42
-0.013775
  0
VERTEX
  8
0
 10
285.105939
 20
324.628909
 42
-0.011638
  0
VERTEX
  8
0
 10
284.201468
 20
322.842770
 42
-0.105168
  0
VERTEX
  8
0
 10
283.639601
 20
322.177836
 42
-0.077885
  0
VERTEX
  8
0
 10
282.864590
 20
321.750217
 42
-0.008421
  0
VERTEX
  8
0
 10
280.925383
 20
321.081880
 42
-0.010173
  0
VERTEX
  8
0
 10
278.572440
 20
320.367647
 42
-0.008034
  0
VERTEX
  8
0
 10
276.000000
 20
319.688014
 42
0.000000
  0
VERTEX
  8
0
 10
269.500000
 20
318.081999
 42
0.000000
  0
VERTEX
  8
0
 10
263.473095
 20
324.040999
 42
0.021419
  0
VERTEX
  8
0
 10
259.401697
 20
327.735487
 42
0.075164
  0
VERTEX
  8
0
 10
256.380759
 20
329.562898
 42
0.143375
  0
VERTEX
  8
0
 10
254.059347
 20
329.817341
 42
0.177436
  0
VERTEX
  8
0
 10
252.191614
 20
328.730881
 42
0.082931
  0
VERTEX
  8
0
 10
251.690664
 20
327.870461
 42
0.009860
  0
VERTEX
  8
0
 10
250.947792
 20
325.783932
 42
0.011553
  0
VERTEX
  8
0
 10
250.165169
 20
323.246873
 42
0.009244
  0
VERTEX
  8
0
 10
249.436392
 20
320.480881
 42
-0.010510
  0
VERTEX
  8
0
 10
248.702957
 20
317.725556
 42
-0.013411
  0
VERTEX
  8
0
 10
247.906208
 20
315.220987
 42
-0.011357
  0
VERTEX
  8
0
 10
247.142374
 20
313.176372
 42
-0.101075
  0
VERTEX
  8
0
 10
246.617222
 20
312.377798
 42
-0.103365
  0
VERTEX
  8
0
 10
244.387588
 20
310.911836
 42
-0.026849
  0
VERTEX
  8
0
 10
240.292739
 20
309.546031
 42
-0.023880
  0
VERTEX
  8
0
 10
236.141017
 20
308.615441
 42
-0.170419
  0
VERTEX
  8
0
 10
234.140536
 20
308.948229
 42
-0.051007
  0
VERTEX
  8
0
 10
233.228161
 20
309.578281
 42
-0.007340
  0
VERTEX
  8
0
 10
231.524200
 20
311.075695
 42
-0.008266
  0
VERTEX
  8
0
 10
229.557798
 20
312.915611
 42
-0.006980
  0
VERTEX
  8
0
 10
227.537592
 20
314.924829
 42
0.015171
  0
VERTEX
  8
0
 10
225.036685
 20
317.331955
 42
0.039428
  0
VERTEX
  8
0
 10
223.059103
 20
318.857721
 42
0.055904
  0
VERTEX
  8
0
 10
221.360266
 20
319.713489
 42
0.088969
  0
VERTEX
  8
0
 10
219.762841
 20
320.000000
 42
0.132294
  0
VERTEX
  8
0
 10
217.650778
 20
319.431218
 42
0.156818
  0
VERTEX
  8
0
 10
216.272867
 20
317.902538
 42
0.060516
  0
VERTEX
  8
0
 10
215.264044
 20
314.659523
 42
0.007169
  0
VERTEX
  8
0
 10
214.013102
 20
307.209723
 42
-0.006698
  0
VERTEX
  8
0
 10
213.132746
 20
301.936456
 42
-0.068657
  0
VERTEX
  8
0
 10
212.447092
 20
299.838780
 42
-0.132803
  0
VERTEX
  8
0
 10
211.357180
 20
298.588746
 42
-0.048508
  0
VERTEX
  8
0
 10
209.271519
 20
297.468981
 42
-0.047614
  0
VERTEX
  8
0
 10
206.970335
 20
296.755569
 42
-0.133388
  0
VERTEX
  8
0
 10
205.299847
 20
296.855488
 42
-0.064632
  0
VERTEX
  8
0
 10
203.264284
 20
297.848940
 42
-0.005434
  0
VERTEX
  8
0
 10
198.407378
 20
301.129080
 42
0.005007
  0
VERTEX
  8
0
 10
193.629351
 20
304.361901
 42
0.062060
  0
VERTEX
  8
0
 10
191.668814
 20
305.335386
 42
0.155057
  0
VERTEX
  8
0
 10
190.214149
 20
305.377949
 42
0.075550
  0
VERTEX
  8
0
 10
188.507343
 20
304.596769
 42
0.053759
  0
VERTEX
  8
0
 10
187.237212
 20
303.553906
 42
0.095014
  0
VERTEX
  8
0
 10
186.489212
 20
302.428165
 42
0.075362
  0
VERTEX
  8
0
 10
186.111076
 20
300.925765
 42
0.024036
  0
VERTEX
  8
0
 10
186.000000
 20
298.616518
 42
-0.011153
  0
VERTEX
  8
0
 10
185.955669
 20
296.629306
 42
-0.006311
  0
VERTEX
  8
0
 10
185.817898
 20
294.224665
 42
-0.006297
  0
VERTEX
  8
0
 10
185.617752
 20
291.802626
 42
-0.010294
  0
VERTEX
  8
0
 10
185.380077
 20
289.756312
 42
-0.026962
  0
VERTEX
  8
0
 10
184.885596
 20
287.186946
 42
-0.089067
  0
VERTEX
  8
0
 10
184.182654
 20
285.620046
 42
-0.088588
  0
VERTEX
  8
0
 10
182.976300
 20
284.391010
 42
-0.026497
  0
VERTEX
  8
0
 10
180.750276
 20
282.979803
 42
0.000000
  0
VERTEX
  8
0
 10
176.740397
 20
280.726125
 42
0.000000
  0
VERTEX
  8
0
 10
168.902682
 20
284.547448
 42
0.004818
  0
VERTEX
  8
0
 10
163.898999
 20
286.927628
 42
0.057600
  0
VERTEX
  8
0
 10
161.869698
 20
287.598541
 42
0.149727
  0
VERTEX
  8
0
 10
160.499984
 20
287.470765
 42
0.086540
  0
VERTEX
  8
0
 10
159.088521
 20
286.580110
 42
0.083345
  0
VERTEX
  8
0
 10
158.043958
 20
285.258729
 42
0.092004
  0
VERTEX
  8
0
 10
157.533070
 20
283.712572
 42
0.044957
  0
VERTEX
  8
0
 10
157.422765
 20
281.305130
 42
0.006597
  0
VERTEX
  8
0
 10
157.702529
 20
276.424640
 42
-0.025550
  0
VERTEX
  8
0
 10
157.823665
 20
270.169815
 42
-0.142525
  0
VERTEX
  8
0
 10
156.795665
 20
267.013566
 42
-0.116812
  0
VERTEX
  8
0
 10
154.137865
 20
264.585703
 42
-0.014729
  0
VERTEX
  8
0
 10
147.181385
 20
260.980068
 42
0.000000
  0
VERTEX
  8
0
 10
140.862771
 20
257.937684
 42
0.000000
  0
VERTEX
  8
0
 10
137.989869
 20
260.355071
 42
0.045361
  0
VERTEX
  8
0
 10
136.538656
 20
261.366860
 42
0.021530
  0
VERTEX
  8
0
 10
134.510258
 20
262.410350
 42
0.021136
  0
VERTEX
  8
0
 10
132.279822
 20
263.326698
 42
0.028033
  0
VERTEX
  8
0
 10
130.178673
 20
263.957137
 42
0.109580
  0
VERTEX
  8
0
 10
121.248035
 20
264.110388
 42
0.107136
  0
VERTEX
  8
0
 10
113.008563
 20
260.484233
 42
0.100103
  0
VERTEX
  8
0
 10
106.598563
 20
253.509237
 42
0.084105
  0
VERTEX
  8
0
 10
102.907057
 20
244.154593
 42
-0.019846
  0
VERTEX
  8
0
 10
102.285301
 20
241.696337
 42
-0.013929
  0
VERTEX
  8
0
 10
101.399989
 20
238.981920
 42
-0.014082
  0
VERTEX
  8
0
 10
100.405081
 20
236.426605
 42
-0.028368
  0
VERTEX
  8
0
 10
99.452835
 20
234.485985
 42
-0.087065
  0
VERTEX
  8
0
 10
91.708475
 20
225.037186
 42
-0.036609
  0
VERTEX
  8
0
 10
78.457537
 20
215.226132
 42
-0.036657
  0
VERTEX
  8
0
 10
63.686114
 20
207.330816
 42
-0.074536
  0
VERTEX
  8
0
 10
51.023590
 20
203.842882
 42
0.020403
  0
VERTEX
  8
0
 10
43.719308
 20
202.658186
 42
0.038999
  0
VERTEX
  8
0
 10
38.010319
 20
201.019316
 42
0.046747
  0
VERTEX
  8
0
 10
33.364727
 20
198.769871
 42
0.050129
  0
VERTEX
  8
0
 10
29.334421
 20
195.740610
 42
0.048391
  0
VERTEX
  8
0
 10
25.780788
 20
191.764719
 42
0.091191
  0
VERTEX
  8
0
 10
23.911814
 20
187.903440
 42
0.101138
  0
VERTEX
  8
0
 10
23.642536
 20
183.909609
 42
0.070668
  0
VERTEX
  8
0
 10
24.873413
 20
179.553267
 42
0.035699
  0
VERTEX
  8
0
 10
25.919096
 20
177.582575
 42
0.031997
  0
VERTEX
  8
0
 10
27.269722
 20
175.703372
 42
0.032802
  0
VERTEX
  8
0
 10
28.805014
 20
174.064358
 42
0.044415
  0
VERTEX
  8
0
 10
30.402700
 20
172.814860
 42
-0.027170
  0
VERTEX
  8
0
 10
32.292105
 20
171.439389
 42
-0.085804
  0
VERTEX
  8
0
 10
33.316442
 20
170.262044
 42
-0.096118
  0
VERTEX
  8
0
 10
33.823275
 20
168.887152
 42
-0.039544
  0
VERTEX
  8
0
 10
33.987621
 20
166.899223
 42
0.056985
  0
VERTEX
  8
0
 10
34.624441
 20
161.494426
 42
0.120246
  0
VERTEX
  8
0
 10
36.526390
 20
157.754571
 42
0.210495
  0
VERTEX
  8
0
 10
39.183468
 20
156.483988
 42
0.194051
  0
VERTEX
  8
0
 10
42.035745
 20
157.532349
 42
0.065104
  0
VERTEX
  8
0
 10
42.953127
 20
158.610062
 42
0.091774
  0
VERTEX
  8
0
 10
43.434148
 20
159.773166
 42
0.066323
  0
VERTEX
  8
0
 10
43.551597
 20
161.302227
 42
0.020109
  0
VERTEX
  8
0
 10
43.328158
 20
163.622482
 42
0.000000
  0
VERTEX
  8
0
 10
42.728152
 20
168.000000
 42
0.000000
  0
VERTEX
  8
0
 10
46.080643
 20
168.000000
 42
-0.035343
  0
VERTEX
  8
0
 10
47.661101
 20
167.888143
 42
-0.016794
  0
VERTEX
  8
0
 10
49.671378
 20
167.532918
 42
-0.016552
  0
VERTEX
  8
0
 10
51.757397
 20
167.018931
 42
-0.022535
  0
VERTEX
  8
0
 10
53.596667
 20
166.409933
 42
-0.023565
  0
VERTEX
  8
0
 10
56.050269
 20
165.337884
 42
-0.115095
  0
VERTEX
  8
0
 10
57.212654
 20
164.381971
 42
-0.113275
  0
VERTEX
  8
0
 10
57.841493
 20
163.002791
 42
-0.022495
  0
VERTEX
  8
0
 10
58.268879
 20
160.306867
 42
0.042919
  0
VERTEX
  8
0
 10
58.983877
 20
156.743573
 42
0.109277
  0
VERTEX
  8
0
 10
60.244354
 20
154.444501
 42
0.155424
  0
VERTEX
  8
0
 10
62.043210
 20
153.358316
 42
0.120769
  0
VERTEX
  8
0
 10
64.342172
 20
153.371032
 42
0.101160
  0
VERTEX
  8
0
 10
66.070014
 20
154.200437
 42
0.140056
  0
VERTEX
  8
0
 10
67.095539
 20
155.568317
 42
0.117563
  0
VERTEX
  8
0
 10
67.345531
 20
157.466192
 42
0.059359
  0
VERTEX
  8
0
 10
66.811924
 20
159.833916
 42
-0.064932
  0
VERTEX
  8
0
 10
66.361141
 20
161.943035
 42
-0.236814
  0
VERTEX
  8
0
 10
66.859131
 20
163.174869
 42
-0.155555
  0
VERTEX
  8
0
 10
68.363273
 20
163.833843
 42
-0.026077
  0
VERTEX
  8
0
 10
71.547059
 20
164.000000
 42
0.042369
  0
VERTEX
  8
0
 10
73.876186
 20
164.197720
 42
0.011608
  0
VERTEX
  8
0
 10
77.495831
 20
164.903574
 42
0.011648
  0
VERTEX
  8
0
 10
81.577430
 20
165.898513
 42
0.011902
  0
VERTEX
  8
0
 10
85.578713
 20
167.075996
 42
-0.005286
  0
VERTEX
  8
0
 10
89.292439
 20
168.222464
 42
-0.008423
  0
VERTEX
  8
0
 10
92.493631
 20
169.115356
 42
-0.003150
  0
VERTEX
  8
0
 10
95.231449
 20
169.811127
 42
-0.262802
  0
VERTEX
  8
0
 10
95.634318
 20
169.699015
 42
-0.437617
  0
VERTEX
  8
0
 10
95.603166
 20
168.913120
 42
-0.002824
  0
VERTEX
  8
0
 10
89.684751
 20
163.922909
 42
-0.009881
  0
VERTEX
  8
0
 10
83.567706
 20
159.025633
 42
-0.014798
  0
VERTEX
  8
0
 10
78.021193
 20
155.017599
 42
-0.011865
  0
VERTEX
  8
0
 10
75.389213
 20
153.321563
 42
-0.005966
  0
VERTEX
  8
0
 10
71.992163
 20
151.300186
 42
-0.005921
  0
VERTEX
  8
0
 10
68.428518
 20
149.292819
 42
-0.008734
  0
VERTEX
  8
0
 10
65.250000
 20
147.623146
 42
0.000000
  0
VERTEX
  8
0
 10
58.000000
 20
143.974857
 42
0.000000
  0
VERTEX
  8
0
 10
58.000000
 20
147.053170
 42
0.050147
  0
VERTEX
  8
0
 10
57.708634
 20
149.950967
 42
0.091628
  0
VERTEX
  8
0
 10
56.823245
 20
152.147474
 42
0.119764
  0
VERTEX
  8
0
 10
55.411540
 20
153.506783
 42
0.132797
  0
VERTEX
  8
0
 10
53.587261
 20
154.000000
 42
0.112291
  0
VERTEX
  8
0
 10
51.196907
 20
153.456312
 42
0.177266
  0
VERTEX
  8
0
 10
49.745153
 20
151.966970
 42
0.104897
  0
VERTEX
  8
0
 10
49.151202
 20
149.216811
 42
0.026449
  0
VERTEX
  8
0
 10
49.377730
 20
144.617366
 42
-0.010862
  0
VERTEX
  8
0
 10
49.641051
 20
141.348206
 42
-0.042174
  0
VERTEX
  8
0
 10
49.588993
 20
139.318919
 42
-0.072651
  0
VERTEX
  8
0
 10
49.237942
 20
137.972165
 42
-0.120081
  0
VERTEX
  8
0
 10
48.540568
 20
137.033668
 42
0.125974
  0
VERTEX
  8
0
 10
47.126410
 20
135.083667
 42
0.067843
  0
VERTEX
  8
0
 10
46.412256
 20
132.182200
 42
0.064325
  0
VERTEX
  8
0
 10
46.484206
 20
129.001107
 42
0.081722
  0
VERTEX
  8
0
 10
47.390639
 20
126.211480
 42
0.106758
  0
VERTEX
  8
0
 10
52.099844
 20
120.505205
 42
0.069227
  0
VERTEX
  8
0
 10
59.510291
 20
116.164348
 42
0.058182
  0
VERTEX
  8
0
 10
69.158294
 20
113.437714
 42
0.040009
  0
VERTEX
  8
0
 10
80.500000
 20
112.537353
 42
0.021344
  0
VERTEX
  8
0
 10
89.277876
 20
112.918903
 42
0.040191
  0
VERTEX
  8
0
 10
96.269010
 20
114.093520
 42
0.036149
  0
VERTEX
  8
0
 10
103.450506
 20
116.465950
 42
0.014105
  0
VERTEX
  8
0
 10
113.000000
 20
120.725232
 42
-0.009896
  0
VERTEX
  8
0
 10
118.537860
 20
123.251331
 42
-0.004591
  0
VERTEX
  8
0
 10
125.821875
 20
126.322246
 42
-0.004546
  0
VERTEX
  8
0
 10
133.533738
 20
129.408819
 42
-0.006317
  0
VERTEX
  8
0
 10
140.500000
 20
132.022880
 42
0.002459
  0
VERTEX
  8
0
 10
153.874230
 20
136.924125
 42
0.006039
  0
VERTEX
  8
0
 10
163.641079
 20
140.692859
 42
0.007853
  0
VERTEX
  8
0
 10
171.564746
 20
144.006103
 42
0.009191
  0
VERTEX
  8
0
 10
178.971788
 20
147.404360
 42
-0.013852
  0
VERTEX
  8
0
 10
182.834380
 20
149.133072
 42
-0.029022
  0
VERTEX
  8
0
 10
185.941580
 20
150.215058
 42
-0.035047
  0
VERTEX
  8
0
 10
188.740448
 20
150.802829
 42
-0.034246
  0
VERTEX
  8
0
 10
191.615834
 20
151.000000
 42
0.012734
  0
VERTEX
  8
0
 10
194.292274
 20
151.068174
 42
0.003952
  0
VERTEX
  8
0
 10
198.310802
 20
151.304885
 42
0.003948
  0
VERTEX
  8
0
 10
202.799868
 20
151.640563
 42
0.004339
  0
VERTEX
  8
0
 10
207.144045
 20
152.037908
 42
0.013596
  0
VERTEX
  8
0
 10
223.814384
 20
154.167854
 42
0.020183
  0
VERTEX
  8
0
 10
238.255772
 20
157.014646
 42
0.023075
  0
VERTEX
  8
0
 10
250.662761
 20
160.597573
 42
0.033835
  0
VERTEX
  8
0
 10
261.144200
 20
164.966424
 42
-0.010448
  0
VERTEX
  8
0
 10
265.406356
 20
166.981662
 42
-0.038658
  0
VERTEX
  8
0
 10
268.205813
 20
167.982962
 42
-0.054734
  0
VERTEX
  8
0
 10
270.588812
 20
168.359857
 42
-0.039957
  0
VERTEX
  8
0
 10
273.269974
 20
168.273038
 42
0.000000
  0
VERTEX
  8
0
 10
277.751548
 20
167.767899
 42
0.000000
  0
VERTEX
  8
0
 10
269.082569
 20
159.133950
 42
0.008105
  0
VERTEX
  8
0
 10
265.406941
 20
155.352532
 42
0.006306
  0
VERTEX
  8
0
 10
261.529950
 20
151.126848
 42
0.006381
  0
VERTEX
  8
0
 10
258.015336
 20
147.095410
 42
0.015347
  0
VERTEX
  8
0
 10
255.544985
 20
144.000000
 42
-0.000643
  0
VERTEX
  8
0
 10
253.635170
 20
141.457062
 42
-0.000908
  0
VERTEX
  8
0
 10
251.926230
 20
139.196229
 42
-0.000520
  0
VERTEX
  8
0
 10
250.478302
 20
137.292030
 42
-0.012740
  0
VERTEX
  8
0
 10
250.062585
 20
136.774396
 42
-0.139060
  0
VERTEX
  8
0
 10
249.518989
 20
136.408587
 42
-0.003940
  0
VERTEX
  8
0
 10
246.815243
 20
135.548146
 42
-0.007738
  0
VERTEX
  8
0
 10
243.584840
 20
134.602597
 42
-0.005211
  0
VERTEX
  8
0
 10
239.869728
 20
133.618863
 42
0.021646
  0
VERTEX
  8
0
 10
226.839663
 20
129.706157
 42
0.166688
  0
VERTEX
  8
0
 10
221.897302
 20
125.827889
 42
0.366227
  0
VERTEX
  8
0
 10
222.423049
 20
121.710402
 42
0.069680
  0
VERTEX
  8
0
 10
229.150731
 20
117.082543
 42
0.008017
  0
VERTEX
  8
0
 10
231.611084
 20
115.902004
 42
0.010452
  0
VERTEX
  8
0
 10
233.901091
 20
114.905497
 42
0.008279
  0
VERTEX
  8
0
 10
235.836031
 20
114.148365
 42
0.089342
  0
VERTEX
  8
0
 10
236.659722
 20
114.000000
 42
-0.203226
  0
VERTEX
  8
0
 10
237.573160
 20
113.612738
 42
-0.236324
  0
VERTEX
  8
0
 10
237.853554
 20
112.721107
 42
-0.062201
  0
VERTEX
  8
0
 10
237.313480
 20
110.868728
 42
-0.006939
  0
VERTEX
  8
0
 10
235.509769
 20
106.849297
 42
0.050135
  0
VERTEX
  8
0
 10
232.880746
 20
99.309470
 42
0.270240
  0
VERTEX
  8
0
 10
234.084080
 20
95.314310
 42
0.229020
  0
VERTEX
  8
0
 10
238.427837
 20
93.970176
 42
0.038415
  0
VERTEX
  8
0
 10
247.160906
 20
95.987099
 42
-0.000293
  0
VERTEX
  8
0
 10
249.599230
 20
96.749864
 42
-0.000477
  0
VERTEX
  8
0
 10
251.670412
 20
97.394277
 42
-0.000049
  0
VERTEX
  8
0
 10
253.523244
 20
97.968616
 42
-0.046153
  0
VERTEX
  8
0
 10
253.610709
 20
97.987099
 42
-0.406056
  0
VERTEX
  8
0
 10
253.661212
 20
97.948272
 42
-0.000534
  0
VERTEX
  8
0
 10
253.855038
 20
96.600898
 42
-0.003640
  0
VERTEX
  8
0
 10
254.062175
 20
95.070454
 42
-0.002183
  0
VERTEX
  8
0
 10
254.287003
 20
93.250000
 42
0.051310
  0
VERTEX
  8
0
 10
256.034327
 20
85.474272
 42
0.290650
  0
VERTEX
  8
0
 10
259.182264
 20
82.920798
 42
0.222866
  0
VERTEX
  8
0
 10
263.593847
 20
84.396332
 42
0.034005
  0
VERTEX
  8
0
 10
270.025577
 20
91.419394
 42
0.000000
  0
VERTEX
  8
0
 10
274.292830
 20
96.767119
 42
0.000000
  0
VERTEX
  8
0
 10
280.301451
 20
92.883559
 42
0.029317
  0
VERTEX
  8
0
 10
285.123013
 20
90.153725
 42
0.086060
  0
VERTEX
  8
0
 10
288.771775
 20
89.085282
 42
0.149385
  0
VERTEX
  8
0
 10
291.389035
 20
89.570783
 42
0.167356
  0
VERTEX
  8
0
 10
293.147177
 20
91.423674
 42
0.135433
  0
VERTEX
  8
0
 10
293.693894
 20
94.848477
 42
0.028292
  0
VERTEX
  8
0
 10
292.670704
 20
100.899940
 42
0.029176
  0
VERTEX
  8
0
 10
290.703673
 20
107.679172
 42
0.031696
  0
VERTEX
  8
0
 10
288.004017
 20
113.992043
 42
-0.016226
  0
VERTEX
  8
0
 10
286.869626
 20
116.433053
 42
-0.023531
  0
VERTEX
  8
0
 10
286.042510
 20
118.660656
 42
-0.021568
  0
VERTEX
  8
0
 10
285.545161
 20
120.490816
 42
-0.196351
  0
VERTEX
  8
0
 10
285.678648
 20
121.289740
 42
-0.030750
  0
VERTEX
  8
0
 10
286.250716
 20
122.099931
 42
-0.001257
  0
VERTEX
  8
0
 10
288.494013
 20
124.880856
 42
-0.002189
  0
VERTEX
  8
0
 10
291.175547
 20
128.158559
 42
-0.001550
  0
VERTEX
  8
0
 10
294.213104
 20
131.815301
 42
0.006709
  0
VERTEX
  8
0
 10
297.196767
 20
135.483523
 42
0.009842
  0
VERTEX
  8
0
 10
299.712599
 20
138.794693
 42
0.005675
  0
VERTEX
  8
0
 10
301.727752
 20
141.625107
 42
0.153018
  0
VERTEX
  8
0
 10
302.000000
 20
142.493872
 42
0.137635
  0
VERTEX
  8
0
 10
301.621602
 20
143.842481
 42
0.054824
  0
VERTEX
  8
0
 10
300.438483
 20
145.377534
 42
0.054912
  0
VERTEX
  8
0
 10
298.964245
 20
146.606480
 42
0.150671
  0
VERTEX
  8
0
 10
297.678571
 20
146.984687
 42
0.138821
  0
VERTEX
  8
0
 10
296.106027
 20
146.517352
 42
0.053698
  0
VERTEX
  8
0
 10
294.310278
 20
145.088681
 42
0.021774
  0
VERTEX
  8
0
 10
291.577139
 20
142.142595
 42
0.002409
  0
VERTEX
  8
0
 10
285.658668
 20
135.109660
 42
0.016286
  0
VERTEX
  8
0
 10
279.600503
 20
127.338697
 42
0.086090
  0
VERTEX
  8
0
 10
277.222234
 20
122.512352
 42
0.131214
  0
VERTEX
  8
0
 10
277.113299
 20
118.182317
 42
0.059058
  0
VERTEX
  8
0
 10
279.098255
 20
112.807405
 42
-0.009548
  0
VERTEX
  8
0
 10
280.001810
 20
110.949487
 42
-0.006101
  0
VERTEX
  8
0
 10
280.983933
 20
108.758206
 42
-0.006129
  0
VERTEX
  8
0
 10
281.894286
 20
106.586227
 42
-0.011363
  0
VERTEX
  8
0
 10
282.571098
 20
104.798486
 42
0.000000
  0
VERTEX
  8
0
 10
283.945687
 20
100.902486
 42
0.000000
  0
VERTEX
  8
0
 10
281.134030
 20
102.904563
 42
-0.012901
  0
VERTEX
  8
0
 10
279.963444
 20
103.784471
 42
-0.010911
  0
VERTEX
  8
0
 10
278.771230
 20
104.772867
 42
-0.011055
  0
VERTEX
  8
0
 10
277.723678
 20
105.721971
 42
-0.029967
  0
VERTEX
  8
0
 10
277.038741
 20
106.453320
 42
0.134879
  0
VERTEX
  8
0
 10
274.956668
 20
107.908308
 42
0.186182
  0
VERTEX
  8
0
 10
272.699367
 20
107.848798
 42
0.114465
  0
VERTEX
  8
0
 10
270.235955
 20
106.081043
 42
0.037848
  0
VERTEX
  8
0
 10
267.543150
 20
102.500000
 42
-0.007853
  0
VERTEX
  8
0
 10
266.147636
 20
100.392133
 42
-0.012043
  0
VERTEX
  8
0
 10
264.867023
 20
98.615625
 42
-0.006570
  0
VERTEX
  8
0
 10
263.748956
 20
97.180389
 42
-0.227782
  0
VERTEX
  8
0
 10
263.373532
 20
97.000000
 42
-0.395496
  0
VERTEX
  8
0
 10
263.135061
 20
97.223605
 42
-0.011322
  0
VERTEX
  8
0
 10
263.071660
 20
98.743722
 42
-0.017153
  0
VERTEX
  8
0
 10
263.100905
 20
100.659919
 42
-0.010217
  0
VERTEX
  8
0
 10
263.260487
 20
102.936076
 42
0.012068
  0
VERTEX
  8
0
 10
263.479034
 20
106.227863
 42
0.056390
  0
VERTEX
  8
0
 10
263.345386
 20
108.120398
 42
0.092797
  0
VERTEX
  8
0
 10
262.832311
 20
109.450216
 42
0.070602
  0
VERTEX
  8
0
 10
261.831038
 20
110.652909
 42
0.029669
  0
VERTEX
  8
0
 10
260.591495
 20
111.647602
 42
0.149349
  0
VERTEX
  8
0
 10
259.757910
 20
111.924229
 42
0.126843
  0
VERTEX
  8
0
 10
258.839510
 20
111.710713
 42
0.019026
  0
VERTEX
  8
0
 10
257.181662
 20
110.764100
 42
-0.011245
  0
VERTEX
  8
0
 10
252.848822
 20
108.199898
 42
-0.013920
  0
VERTEX
  8
0
 10
248.699090
 20
106.018111
 42
-0.006791
  0
VERTEX
  8
0
 10
245.026913
 20
104.277520
 42
-0.313297
  0
VERTEX
  8
0
 10
244.249068
 20
104.417599
 42
-0.308784
  0
VERTEX
  8
0
 10
244.165907
 20
104.858548
 42
-0.009599
  0
VERTEX
  8
0
 10
244.976474
 20
106.617667
 42
-0.015677
  0
VERTEX
  8
0
 10
246.082414
 20
108.729947
 42
-0.009829
  0
VERTEX
  8
0
 10
247.500585
 20
111.131954
 42
0.031306
  0
VERTEX
  8
0
 10
250.368200
 20
116.502955
 42
0.265972
  0
VERTEX
  8
0
 10
250.126157
 20
119.123663
 42
0.184012
  0
VERTEX
  8
0
 10
247.573128
 20
120.851008
 42
0.015025
  0
VERTEX
  8
0
 10
239.529271
 20
122.488604
 42
-0.050409
  0
VERTEX
  8
0
 10
237.096542
 20
123.165877
 42
-0.594549
  0
VERTEX
  8
0
 10
236.999761
 20
123.931540
 42
-0.101876
  0
VERTEX
  8
0
 10
238.926885
 20
124.793702
 42
-0.008831
  0
VERTEX
  8
0
 10
244.225106
 20
125.867493
 42
0.028988
  0
VERTEX
  8
0
 10
249.617085
 20
127.188486
 42
0.064640
  0
VERTEX
  8
0
 10
253.453875
 20
128.935694
 42
0.065614
  0
VERTEX
  8
0
 10
256.682599
 20
131.586729
 42
0.030649
  0
VERTEX
  8
0
 10
260.138348
 20
135.765159
 42
-0.020903
  0
VERTEX
  8
0
 10
262.526119
 20
138.769560
 42
-0.005168
  0
VERTEX
  8
0
 10
266.694620
 20
143.487265
 42
-0.005278
  0
VERTEX
  8
0
 10
271.584465
 20
148.793686
 42
-0.005266
  0
VERTEX
  8
0
 10
276.589135
 20
154.000000
 42
0.014003
  0
VERTEX
  8
0
 10
288.645297
 20
166.988692
 42
0.280692
  0
VERTEX
  8
0
 10
289.536500
 20
172.092355
 42
0.269513
  0
VERTEX
  8
0
 10
285.402851
 20
175.366299
 42
0.013141
  0
VERTEX
  8
0
 10
267.359185
 20
177.488235
 42
-0.003962
  0
VERTEX
  8
0
 10
254.425352
 20
178.769049
 42
-0.012159
  0
VERTEX
  8
0
 10
245.697400
 20
179.918527
 42
-0.017656
  0
VERTEX
  8
0
 10
239.192202
 20
181.173472
 42
-0.027421
  0
VERTEX
  8
0
 10
233.702199
 20
182.756363
 42
0.040857
  0
VERTEX
  8
0
 10
229.927661
 20
183.735725
 42
0.141317
  0
VERTEX
  8
0
 10
227.442531
 20
183.464830
 42
0.202616
  0
VERTEX
  8
0
 10
226.007948
 20
182.019380
 42
0.095742
  0
VERTEX
  8
0
 10
225.500000
 20
179.391014
 42
0.074350
  0
VERTEX
  8
0
 10
225.753122
 20
177.698197
 42
0.153489
  0
VERTEX
  8
0
 10
226.502608
 20
176.606094
 42
0.075497
  0
VERTEX
  8
0
 10
228.126696
 20
175.689032
 42
0.009131
  0
VERTEX
  8
0
 10
232.000000
 20
174.296803
 42
0.014372
  0
VERTEX
  8
0
 10
234.907625
 20
173.403549
 42
0.009619
  0
VERTEX
  8
0
 10
238.279687
 20
172.542229
 42
0.009690
  0
VERTEX
  8
0
 10
241.582138
 20
171.833279
 42
0.018768
  0
VERTEX
  8
0
 10
244.250000
 20
171.417637
 42
-0.011668
  0
VERTEX
  8
0
 10
246.454234
 20
171.106209
 42
-0.018833
  0
VERTEX
  8
0
 10
248.310937
 20
170.727218
 42
-0.013347
  0
VERTEX
  8
0
 10
249.766083
 20
170.331209
 42
-0.330944
  0
VERTEX
  8
0
 10
250.000000
 20
170.016507
 42
-0.340974
  0
VERTEX
  8
0
 10
248.813979
 20
168.479540
 42
-0.006314
  0
VERTEX
  8
0
 10
238.249342
 20
165.852449
 42
-0.013960
  0
VERTEX
  8
0
 10
226.299242
 20
163.390464
 42
-0.013022
  0
VERTEX
  8
0
 10
213.950517
 20
161.534010
 42
-0.001645
  0
VERTEX
  8
0
 10
201.872825
 20
160.079080
 42
-0.083663
  0
VERTEX
  8
0
 10
199.506689
 20
160.198293
 42
-0.539982
  0
VERTEX
  8
0
 10
199.135660
 20
161.174294
 42
-0.028968
  0
VERTEX
  8
0
 10
201.647785
 20
164.250000
 42
0.040154
  0
VERTEX
  8
0
 10
207.198874
 20
171.365191
 42
0.050047
  0
VERTEX
  8
0
 10
211.085563
 20
178.789809
 42
0.050676
  0
VERTEX
  8
0
 10
213.385968
 20
186.760149
 42
0.042823
  0
VERTEX
  8
0
 10
214.211046
 20
195.500000
 42
0.037948
  0
VERTEX
  8
0
 10
213.741432
 20
202.464379
 42
0.057577
  0
VERTEX
  8
0
 10
212.193237
 20
208.326266
 42
0.061551
  0
VERTEX
  8
0
 10
209.449421
 20
213.394586
 42
0.051783
  0
VERTEX
  8
0
 10
205.409072
 20
217.977050
 42
0.027738
  0
VERTEX
  8
0
 10
202.330867
 20
220.513726
 42
0.084284
  0
VERTEX
  8
0
 10
199.916031
 20
221.727095
 42
0.136381
  0
VERTEX
  8
0
 10
197.930376
 20
221.779442
 42
0.135995
  0
VERTEX
  8
0
 10
196.200000
 20
220.800000
 42
0.137811
  0
VERTEX
  8
0
 10
195.211204
 20
219.038481
 42
0.145287
  0
VERTEX
  8
0
 10
195.312161
 20
217.058719
 42
0.088257
  0
VERTEX
  8
0
 10
196.650455
 20
214.697104
 42
0.028345
  0
VERTEX
  8
0
 10
199.402228
 20
211.733175
 42
-0.053378
  0
VERTEX
  8
0
 10
202.712368
 20
207.789798
 42
-0.067605
  0
VERTEX
  8
0
 10
204.808308
 20
203.523647
 42
-0.064231
  0
VERTEX
  8
0
 10
205.757078
 20
198.678461
 42
-0.042467
  0
VERTEX
  8
0
 10
205.644643
 20
193.000000
 42
-0.028484
  0
VERTEX
  8
0
 10
204.739925
 20
187.451507
 42
-0.036465
  0
VERTEX
  8
0
 10
203.252756
 20
182.494801
 42
-0.037526
  0
VERTEX
  8
0
 10
201.103378
 20
177.922136
 42
-0.033286
  0
VERTEX
  8
0
 10
198.216715
 20
173.525415
 42
-0.059907
  0
VERTEX
  8
0
 10
190.108879
 20
165.116707
 42
-0.042308
  0
VERTEX
  8
0
 10
179.262034
 20
157.705915
 42
-0.030793
  0
VERTEX
  8
0
 10
164.175601
 20
150.357881
 42
-0.011968
  0
VERTEX
  8
0
 10
142.500000
 20
142.006952
 42
0.005541
  0
VERTEX
  8
0
 10
134.036440
 20
138.870523
 42
0.004667
  0
VERTEX
  8
0
 10
125.143750
 20
135.366968
 42
0.004710
  0
VERTEX
  8
0
 10
117.087278
 20
132.016989
 42
0.013005
  0
VERTEX
  8
0
 10
111.500000
 20
129.457981
 42
-0.015752
  0
VERTEX
  8
0
 10
101.591143
 20
124.985340
 42
-0.037360
  0
VERTEX
  8
0
 10
93.909988
 20
122.458520
 42
-0.043879
  0
VERTEX
  8
0
 10
86.727459
 20
121.333095
 42
-0.030876
  0
VERTEX
  8
0
 10
78.545085
 20
121.284068
 42
-0.014150
  0
VERTEX
  8
0
 10
71.691066
 20
121.861430
 42
-0.034376
  0
VERTEX
  8
0
 10
66.701388
 20
122.774870
 42
-0.043750
  0
VERTEX
  8
0
 10
62.665570
 20
124.189916
 42
-0.042105
  0
VERTEX
  8
0
 10
58.882369
 20
126.300288
 42
-0.063126
  0
VERTEX
  8
0
 10
56.438455
 20
128.439784
 42
-0.183902
  0
VERTEX
  8
0
 10
55.657570
 20
130.502519
 42
-0.183369
  0
VERTEX
  8
0
 10
56.445216
 20
132.566529
 42
-0.062718
  0
VERTEX
  8
0
 10
58.897883
 20
134.710167
 42
-0.022139
  0
VERTEX
  8
0
 10
61.775493
 20
136.469387
 42
-0.145485
  0
VERTEX
  8
0
 10
63.408261
 20
136.826810
 42
-0.199881
  0
VERTEX
  8
0
 10
64.692467
 20
136.177707
 42
-0.047823
  0
VERTEX
  8
0
 10
66.096214
 20
134.180595
 42
0.094854
  0
VERTEX
  8
0
 10
68.333667
 20
131.557547
 42
0.069964
  0
VERTEX
  8
0
 10
71.623654
 20
129.604510
 42
0.059376
  0
VERTEX
  8
0
 10
75.854670
 20
128.399713
 42
0.039721
  0
VERTEX
  8
0
 10
80.878300
 20
128.000000
 42
0.045057
  0
VERTEX
  8
0
 10
86.013026
 20
128.463657
 42
0.031638
  0
VERTEX
  8
0
 10
91.648875
 20
129.862951
 42
0.026018
  0
VERTEX
  8
0
 10
98.100587
 20
132.281395
 42
0.014204
  0
VERTEX
  8
0
 10
105.753493
 20
135.875564
 42
-0.009545
  0
VERTEX
  8
0
 10
108.969053
 20
137.422472
 42
-0.003146
  0
VERTEX
  8
0
 10
113.752264
 20
139.575795
 42
-0.003132
  0
VERTEX
  8
0
 10
119.088972
 20
141.898152
 42
-0.003546
  0
VERTEX
  8
0
 10
124.238622
 20
144.057772
 42
0.003363
  0
VERTEX
  8
0
 10
128.999238
 20
146.052195
 42
0.004943
  0
VERTEX
  8
0
 10
133.153787
 20
147.874412
 42
0.002432
  0
VERTEX
  8
0
 10
136.652457
 20
149.470889
 42
0.088340
  0
VERTEX
  8
0
 10
137.375007
 20
149.975007
 42
0.205747
  0
VERTEX
  8
0
 10
137.925689
 20
151.355471
 42
0.074962
  0
VERTEX
  8
0
 10
137.549393
 20
153.472546
 42
0.072808
  0
VERTEX
  8
0
 10
136.540368
 20
155.454488
 42
0.163226
  0
VERTEX
  8
0
 10
135.193121
 20
156.438706
 42
0.165810
  0
VERTEX
  8
0
 10
132.802704
 20
156.387785
 42
0.004803
  0
VERTEX
  8
0
 10
123.172050
 20
152.767892
 42
0.009622
  0
VERTEX
  8
0
 10
112.222861
 20
148.287836
 42
0.007755
  0
VERTEX
  8
0
 10
100.630270
 20
143.067197
 42
-0.005377
  0
VERTEX
  8
0
 10
97.199436
 20
141.502476
 42
-0.008674
  0
VERTEX
  8
0
 10
94.241757
 20
140.252708
 42
-0.003166
  0
VERTEX
  8
0
 10
91.706272
 20
139.251406
 42
-0.297102
  0
VERTEX
  8
0
 10
91.337506
 20
139.329161
 42
-0.131549
  0
VERTEX
  8
0
 10
91.145649
 20
139.661311
 42
-0.008294
  0
VERTEX
  8
0
 10
90.868755
 20
140.765887
 42
-0.011752
  0
VERTEX
  8
0
 10
90.588272
 20
142.111322
 42
-0.008436
  0
VERTEX
  8
0
 10
90.335805
 20
143.626097
 42
0.031708
  0
VERTEX
  8
0
 10
89.997191
 20
145.201831
 42
0.031055
  0
VERTEX
  8
0
 10
89.460308
 20
146.733408
 42
0.032620
  0
VERTEX
  8
0
 10
88.819156
 20
148.013091
 42
0.092538
  0
VERTEX
  8
0
 10
88.167984
 20
148.764226
 42
-0.109568
  0
VERTEX
  8
0
 10
87.508511
 20
149.578872
 42
-0.242128
  0
VERTEX
  8
0
 10
87.518515
 20
150.356820
 42
-0.090996
  0
VERTEX
  8
0
 10
88.303637
 20
151.348909
 42
-0.009931
  0
VERTEX
  8
0
 10
90.539415
 20
153.232002
 42
0.009703
  0
VERTEX
  8
0
 10
92.505293
 20
154.886240
 42
0.003429
  0
VERTEX
  8
0
 10
95.258554
 20
157.329372
 42
0.003402
  0
VERTEX
  8
0
 10
98.247538
 20
160.055559
 42
0.003991
  0
VERTEX
  8
0
 10
101.042897
 20
162.681896
 42
0.000000
  0
VERTEX
  8
0
 10
107.585793
 20
168.928241
 42
0.000000
  0
VERTEX
  8
0
 10
113.042897
 20
167.475989
 42
0.049008
  0
VERTEX
  8
0
 10
120.432056
 20
166.267184
 42
0.021786
  0
VERTEX
  8
0
 10
130.312310
 20
166.063108
 42
0.018135
  0
VERTEX
  8
0
 10
142.462559
 20
166.783002
 42
0.010495
  0
VERTEX
  8
0
 10
157.000000
 20
168.483372
 42
-0.026486
  0
VERTEX
  8
0
 10
158.674877
 20
168.625177
 42
-0.689437
  0
VERTEX
  8
0
 10
158.798591
 20
168.328519
 42
-0.070055
  0
VERTEX
  8
0
 10
157.858991
 20
167.659420
 42
-0.002778
  0
VERTEX
  8
0
 10
154.099390
 20
165.733705
 42
0.018727
  0
VERTEX
  8
0
 10
149.465119
 20
163.170234
 42
0.076316
  0
VERTEX
  8
0
 10
146.999625
 20
161.114361
 42
0.154608
  0
VERTEX
  8
0
 10
146.157979
 20
159.212471
 42
0.169027
  0
VERTEX
  8
0
 10
146.607242
 20
157.250000
 42
0.147701
  0
VERTEX
  8
0
 10
148.325587
 20
155.750252
 42
0.133201
  0
VERTEX
  8
0
 10
150.661959
 20
155.374529
 42
0.071864
  0
VERTEX
  8
0
 10
154.034708
 20
156.231691
 42
0.018468
  0
VERTEX
  8
0
 10
159.160217
 20
158.577932
 42
0.015594
  0
VERTEX
  8
0
 10
166.349443
 20
162.481210
 42
0.021762
  0
VERTEX
  8
0
 10
172.500495
 20
166.442126
 42
0.023709
  0
VERTEX
  8
0
 10
177.844514
 20
170.615657
 42
0.026008
  0
VERTEX
  8
0
 10
182.598633
 20
175.156378
 42
0.023982
  0
VERTEX
  8
0
 10
188.457401
 20
181.994826
 42
0.059070
  0
VERTEX
  8
0
 10
191.865072
 20
187.648405
 42
0.098138
  0
VERTEX
  8
0
 10
192.878492
 20
192.000457
 42
0.231825
  0
VERTEX
  8
0
 10
191.547988
 20
194.960174
 42
0.168776
  0
VERTEX
  8
0
 10
189.643280
 20
195.673468
 42
0.151478
  0
VERTEX
  8
0
 10
187.608218
 20
195.095439
 42
0.083882
  0
VERTEX
  8
0
 10
185.339410
 20
193.003808
 42
0.026416
  0
VERTEX
  8
0
 10
182.702945
 20
189.197791
 42
-0.009594
  0
VERTEX
  8
0
 10
181.210821
 20
186.881020
 42
-0.010214
  0
VERTEX
  8
0
 10
179.660837
 20
184.671808
 42
-0.009859
  0
VERTEX
  8
0
 10
178.253075
 20
182.827447
 42
-0.045776
  0
VERTEX
  8
0
 10
177.327908
 20
181.860172
 42
-0.131706
  0
VERTEX
  8
0
 10
174.366196
 20
180.413937
 42
-0.006072
  0
VERTEX
  8
0
 10
163.233502
 20
178.385780
 42
-0.010126
  0
VERTEX
  8
0
 10
150.227992
 20
176.449313
 42
-0.008373
  0
VERTEX
  8
0
 10
136.303543
 20
174.899941
 42
-0.006418
  0
VERTEX
  8
0
 10
128.754665
 20
174.285368
 42
-0.031012
  0
VERTEX
  8
0
 10
124.452251
 20
174.257858
 42
-0.035455
  0
VERTEX
  8
0
 10
120.441303
 20
174.767924
 42
-0.010087
  0
VERTEX
  8
0
 10
114.303543
 20
176.124620
 42
0.023029
  0
VERTEX
  8
0
 10
105.341863
 20
177.863616
 42
0.042109
  0
VERTEX
  8
0
 10
97.915292
 20
178.320525
 42
0.045901
  0
VERTEX
  8
0
 10
90.963183
 20
177.521283
 42
0.033854
  0
VERTEX
  8
0
 10
83.500000
 20
175.424552
 42
-0.036938
  0
VERTEX
  8
0
 10
76.142201
 20
173.406245
 42
-0.039445
  0
VERTEX
  8
0
 10
68.727928
 20
172.549591
 42
-0.042675
  0
VERTEX
  8
0
 10
61.942810
 20
172.883127
 42
-0.072834
  0
VERTEX
  8
0
 10
56.500000
 20
174.447216
 42
0.032791
  0
VERTEX
  8
0
 10
54.576495
 20
175.170525
 42
0.016400
  0
VERTEX
  8
0
 10
52.064452
 20
175.842345
 42
0.016208
  0
VERTEX
  8
0
 10
49.408761
 20
176.369946
 42
0.022990
  0
VERTEX
  8
0
 10
47.017282
 20
176.652801
 42
-0.043907
  0
VERTEX
  8
0
 10
42.222480
 20
177.424193
 42
-0.043563
  0
VERTEX
  8
0
 10
37.622819
 20
179.022037
 42
-0.046615
  0
VERTEX
  8
0
 10
34.001517
 20
181.069446
 42
-0.165417
  0
VERTEX
  8
0
 10
32.440639
 20
183.187029
 42
-0.161261
  0
VERTEX
  8
0
 10
32.467971
 20
185.384513
 42
-0.081135
  0
VERTEX
  8
0
 10
33.798164
 20
187.853809
 42
-0.064202
  0
VERTEX
  8
0
 10
36.242619
 20
190.303819
 42
-0.043823
  0
VERTEX
  8
0
 10
39.556689
 20
192.431380
 42
-0.041106
  0
VERTEX
  8
0
 10
42.012983
 20
193.472665
 42
-0.041881
  0
VERTEX
  8
0
 10
44.591289
 20
194.090191
 42
-0.029348
  0
VERTEX
  8
0
 10
47.929967
 20
194.400534
 42
-0.008978
  0
VERTEX
  8
0
 10
53.000000
 20
194.481930
 42
-0.009692
  0
VERTEX
  8
0
 10
58.354966
 20
194.367926
 42
-0.033182
  0
VERTEX
  8
0
 10
61.815163
 20
193.996227
 42
-0.042005
  0
VERTEX
  8
0
 10
64.750774
 20
193.223732
 42
-0.023626
  0
VERTEX
  8
0
 10
68.164181
 20
191.826543
 42
-0.023162
  0
VERTEX
  8
0
 10
70.423073
 20
190.644568
 42
-0.024249
  0
VERTEX
  8
0
 10
72.527444
 20
189.275208
 42
-0.024837
  0
VERTEX
  8
0
 10
74.218409
 20
187.921621
 42
-0.090525
  0
VERTEX
  8
0
 10
75.063885
 20
186.844613
 42
0.056736
  0
VERTEX
  8
0
 10
76.764128
 20
184.350469
 42
0.143827
  0
VERTEX
  8
0
 10
78.588712
 20
183.172154
 42
0.176075
  0
VERTEX
  8
0
 10
80.509958
 20
183.289219
 42
0.094269
  0
VERTEX
  8
0
 10
82.500899
 20
184.643756
 42
0.223084
  0
VERTEX
  8
0
 10
83.594360
 20
187.672954
 42
0.114925
  0
VERTEX
  8
0
 10
82.292778
 20
191.582143
 42
0.082120
  0
VERTEX
  8
0
 10
78.793835
 20
195.619085
 42
0.058404
  0
VERTEX
  8
0
 10
73.763147
 20
198.887222
 42
-0.007500
  0
VERTEX
  8
0
 10
71.538601
 20
200.029691
 42
-0.113067
  0
VERTEX
  8
0
 10
70.885813
 20
200.596052
 42
-0.433176
  0
VERTEX
  8
0
 10
70.968864
 20
201.036052
 42
-0.064930
  0
VERTEX
  8
0
 10
71.881607
 20
201.462424
 42
-0.102777
  0
VERTEX
  8
0
 10
74.378346
 20
201.719230
 42
-0.013673
  0
VERTEX
  8
0
 10
79.664268
 20
201.029863
 42
-0.016452
  0
VERTEX
  8
0
 10
84.994632
 20
200.005112
 42
-0.051218
  0
VERTEX
  8
0
 10
88.455772
 20
198.838198
 42
0.169918
  0
VERTEX
  8
0
 10
92.046996
 20
198.510837
 42
0.224983
  0
VERTEX
  8
0
 10
94.548590
 20
200.568407
 42
0.221184
  0
VERTEX
  8
0
 10
94.563408
 20
203.841095
 42
0.167211
  0
VERTEX
  8
0
 10
92.049660
 20
206.474320
 42
0.019061
  0
VERTEX
  8
0
 10
90.806394
 20
207.058308
 42
0.018537
  0
VERTEX
  8
0
 10
89.510770
 20
207.551831
 42
0.018806
  0
VERTEX
  8
0
 10
88.341458
 20
207.899839
 42
0.062998
  0
VERTEX
  8
0
 10
87.549660
 20
208.000000
 42
-0.124859
  0
VERTEX
  8
0
 10
86.336611
 20
208.307717
 42
-0.380821
  0
VERTEX
  8
0
 10
86.071583
 20
209.042411
 42
-0.177294
  0
VERTEX
  8
0
 10
86.897713
 20
209.960977
 42
-0.060444
  0
VERTEX
  8
0
 10
88.598368
 20
210.614045
 42
-0.068617
  0
VERTEX
  8
0
 10
92.958246
 20
211.090659
 42
-0.014653
  0
VERTEX
  8
0
 10
100.584618
 20
210.652145
 42
-0.015400
  0
VERTEX
  8
0
 10
108.235873
 20
209.748675
 42
-0.054828
  0
VERTEX
  8
0
 10
113.000000
 20
208.492117
 42
0.027013
  0
VERTEX
  8
0
 10
117.144456
 20
207.148906
 42
0.059599
  0
VERTEX
  8
0
 10
120.433785
 20
206.684206
 42
0.087610
  0
VERTEX
  8
0
 10
122.851839
 20
207.058281
 42
0.170057
  0
VERTEX
  8
0
 10
124.371139
 20
208.250000
 42
0.294504
  0
VERTEX
  8
0
 10
124.357668
 20
211.570571
 42
0.129292
  0
VERTEX
  8
0
 10
120.955561
 20
214.656886
 42
0.061080
  0
VERTEX
  8
0
 10
113.716941
 20
217.361702
 42
0.020802
  0
VERTEX
  8
0
 10
102.685506
 20
219.528975
 42
0.000000
  0
VERTEX
  8
0
 10
98.871012
 20
220.114824
 42
0.000000
  0
VERTEX
  8
0
 10
102.392194
 20
224.012352
 42
0.031320
  0
VERTEX
  8
0
 10
105.410318
 20
227.805562
 42
0.033226
  0
VERTEX
  8
0
 10
107.866191
 20
231.874439
 42
0.033484
  0
VERTEX
  8
0
 10
109.745598
 20
236.202437
 42
0.032879
  0
VERTEX
  8
0
 10
111.043828
 20
240.768761
 42
-0.058857
  0
VERTEX
  8
0
 10
113.307112
 20
247.401481
 42
-0.091503
  0
VERTEX
  8
0
 10
116.852441
 20
252.275067
 42
-0.107217
  0
VERTEX
  8
0
 10
121.442172
 20
255.062367
 42
-0.108785
  0
VERTEX
  8
0
 10
126.749453
 20
255.677706
 42
-0.034320
  0
VERTEX
  8
0
 10
131.503305
 20
254.862143
 42
-0.312407
  0
VERTEX
  8
0
 10
132.826827
 20
253.373290
 42
-0.190798
  0
VERTEX
  8
0
 10
132.196273
 20
250.964087
 42
-0.014511
  0
VERTEX
  8
0
 10
127.981015
 20
245.555939
 42
0.010120
  0
VERTEX
  8
0
 10
125.690028
 20
242.669257
 42
0.013900
  0
VERTEX
  8
0
 10
123.756923
 20
239.977529
 42
0.010563
  0
VERTEX
  8
0
 10
122.273154
 20
237.682353
 42
0.139078
  0
VERTEX
  8
0
 10
122.000000
 20
236.719332
 42
0.166266
  0
VERTEX
  8
0
 10
122.578299
 20
235.028334
 42
0.090492
  0
VERTEX
  8
0
 10
124.230389
 20
233.546074
 42
0.091051
  0
VERTEX
  8
0
 10
126.289202
 20
232.749494
 42
0.171391
  0
VERTEX
  8
0
 10
128.029844
 20
233.015972
 42
0.072548
  0
VERTEX
  8
0
 10
128.981048
 20
233.718640
 42
0.008654
  0
VERTEX
  8
0
 10
130.812765
 20
235.598580
 42
0.010176
  0
VERTEX
  8
0
 10
132.917892
 20
237.928537
 42
0.008194
  0
VERTEX
  8
0
 10
135.087411
 20
240.514714
 42
-0.045432
  0
VERTEX
  8
0
 10
142.354782
 20
247.973172
 42
-0.074690
  0
VERTEX
  8
0
 10
149.811862
 20
252.632485
 42
-0.086778
  0
VERTEX
  8
0
 10
157.454416
 20
254.472335
 42
-0.086724
  0
VERTEX
  8
0
 10
165.269551
 20
253.610017
 42
-0.042893
  0
VERTEX
  8
0
 10
169.695414
 20
251.900293
 42
-0.042784
  0
VERTEX
  8
0
 10
173.768628
 20
249.459283
 42
-0.025188
  0
VERTEX
  8
0
 10
178.863361
 20
245.374844
 42
-0.005123
  0
VERTEX
  8
0
 10
187.438195
 20
237.601880
 42
0.003936
  0
VERTEX
  8
0
 10
193.337570
 20
232.228619
 42
0.039910
  0
VERTEX
  8
0
 10
195.974312
 20
230.219530
 42
0.111698
  0
VERTEX
  8
0
 10
197.774910
 20
229.564586
 42
0.139370
  0
VERTEX
  8
0
 10
199.527205
 20
229.830442
 42
0.155454
  0
VERTEX
  8
0
 10
201.501703
 20
231.618783
 42
0.217524
  0
VERTEX
  8
0
 10
201.731391
 20
233.954649
 42
0.094087
  0
VERTEX
  8
0
 10
199.855565
 20
237.246234
 42
0.018989
  0
VERTEX
  8
0
 10
195.276820
 20
242.224904
 42
0.000000
  0
VERTEX
  8
0
 10
188.553639
 20
249.000000
 42
0.000000
  0
VERTEX
  8
0
 10
193.094449
 20
249.000000
 42
-0.043694
  0
VERTEX
  8
0
 10
197.409446
 20
248.622202
 42
-0.015708
  0
VERTEX
  8
0
 10
203.450672
 20
247.359317
 42
-0.015387
  0
VERTEX
  8
0
 10
210.046811
 20
245.546127
 42
-0.017166
  0
VERTEX
  8
0
 10
216.279144
 20
243.387965
 42
0.041867
  0
VERTEX
  8
0
 10
219.916942
 20
242.326109
 42
0.129839
  0
VERTEX
  8
0
 10
222.448440
 20
242.472884
 42
0.198869
  0
VERTEX
  8
0
 10
223.944966
 20
243.755977
 42
0.117896
  0
VERTEX
  8
0
 10
224.500000
 20
246.077171
 42
0.275846
  0
VERTEX
  8
0
 10
222.092877
 20
250.108333
 42
0.045505
  0
VERTEX
  8
0
 10
213.404413
 20
253.814958
 42
0.041488
  0
VERTEX
  8
0
 10
201.754201
 20
256.534925
 42
0.033967
  0
VERTEX
  8
0
 10
189.000000
 20
257.538494
 42
-0.006580
  0
VERTEX
  8
0
 10
182.666856
 20
257.689089
 42
-0.026988
  0
VERTEX
  8
0
 10
178.842507
 20
258.037667
 42
-0.042118
  0
VERTEX
  8
0
 10
176.008133
 20
258.698459
 42
-0.040678
  0
VERTEX
  8
0
 10
173.289838
 20
259.830286
 42
0.011954
  0
VERTEX
  8
0
 10
171.578689
 20
260.660976
 42
0.014053
  0
VERTEX
  8
0
 10
169.918777
 20
261.362646
 42
0.013002
  0
VERTEX
  8
0
 10
168.493340
 20
261.876241
 42
0.080127
  0
VERTEX
  8
0
 10
167.726028
 20
262.000000
 42
-0.262138
  0
VERTEX
  8
0
 10
167.101369
 20
262.351658
 42
-0.100127
  0
VERTEX
  8
0
 10
166.751067
 20
263.324189
 42
-0.044452
  0
VERTEX
  8
0
 10
166.648110
 20
265.119141
 42
-0.009434
  0
VERTEX
  8
0
 10
166.806087
 20
268.250000
 42
-0.003550
  0
VERTEX
  8
0
 10
166.991053
 20
270.666860
 42
-0.005495
  0
VERTEX
  8
0
 10
167.188528
 20
272.750939
 42
-0.001967
  0
VERTEX
  8
0
 10
167.384756
 20
274.537525
 42
-0.152740
  0
VERTEX
  8
0
 10
167.498980
 20
274.795749
 42
-0.311828
  0
VERTEX
  8
0
 10
167.728410
 20
274.853513
 42
-0.005212
  0
VERTEX
  8
0
 10
169.015426
 20
274.356808
 42
-0.011339
  0
VERTEX
  8
0
 10
170.538556
 20
273.710283
 42
-0.007039
  0
VERTEX
  8
0
 10
172.297387
 20
272.886174
 42
0.000000
  0
VERTEX
  8
0
 10
176.836609
 20
270.680850
 42
0.000000
  0
VERTEX
  8
0
 10
184.536591
 20
275.086442
 42
0.020343
  0
VERTEX
  8
0
 10
189.797388
 20
278.387438
 42
0.089641
  0
VERTEX
  8
0
 10
192.390222
 20
280.951695
 42
0.112383
  0
VERTEX
  8
0
 10
193.620306
 20
283.958652
 42
0.041144
  0
VERTEX
  8
0
 10
194.000000
 20
288.565100
 42
-0.012064
  0
VERTEX
  8
0
 10
194.041030
 20
290.265405
 42
-0.019886
  0
VERTEX
  8
0
 10
194.167386
 20
291.697248
 42
-0.014789
  0
VERTEX
  8
0
 10
194.344471
 20
292.813275
 42
-0.360462
  0
VERTEX
  8
0
 10
194.569825
 20
293.000000
 42
-0.133476
  0
VERTEX
  8
0
 10
194.945806
 20
292.897810
 42
-0.004375
  0
VERTEX
  8
0
 10
196.294846
 20
292.090039
 42
-0.008087
  0
VERTEX
  8
0
 10
197.875529
 20
291.089221
 42
-0.005506
  0
VERTEX
  8
0
 10
199.642060
 20
289.902260
 42
0.053241
  0
VERTEX
  8
0
 10
203.346098
 20
287.896702
 42
0.111649
  0
VERTEX
  8
0
 10
206.557977
 20
287.353634
 42
0.087395
  0
VERTEX
  8
0
 10
210.193024
 20
288.201796
 42
0.024129
  0
VERTEX
  8
0
 10
215.490991
 20
290.772935
 42
0.017537
  0
VERTEX
  8
0
 10
218.532063
 20
292.575830
 42
0.096806
  0
VERTEX
  8
0
 10
219.901259
 20
293.885618
 42
0.098630
  0
VERTEX
  8
0
 10
220.664204
 20
295.603580
 42
0.018549
  0
VERTEX
  8
0
 10
221.297064
 20
299.000000
 42
-0.006710
  0
VERTEX
  8
0
 10
222.238671
 20
304.814576
 42
-0.205404
  0
VERTEX
  8
0
 10
223.026060
 20
306.018653
 42
-0.329115
  0
VERTEX
  8
0
 10
224.214650
 20
305.959874
 42
-0.014851
  0
VERTEX
  8
0
 10
227.490575
 20
303.115452
 42
0.022597
  0
VERTEX
  8
0
 10
229.382830
 20
301.523158
 42
0.026443
  0
VERTEX
  8
0
 10
231.317507
 20
300.195399
 42
0.027463
  0
VERTEX
  8
0
 10
233.054027
 20
299.260928
 42
0.110135
  0
VERTEX
  8
0
 10
234.224248
 20
299.000000
 42
0.070718
  0
VERTEX
  8
0
 10
237.190474
 20
299.421640
 42
0.006592
  0
VERTEX
  8
0
 10
244.276334
 20
301.579326
 42
0.005974
  0
VERTEX
  8
0
 10
251.355090
 20
303.930789
 42
0.084090
  0
VERTEX
  8
0
 10
253.695578
 20
305.210778
 42
0.117445
  0
VERTEX
  8
0
 10
254.230400
 20
305.887594
 42
0.018294
  0
VERTEX
  8
0
 10
254.896436
 20
307.470246
 42
0.019512
  0
VERTEX
  8
0
 10
255.552461
 20
309.431878
 42
0.015890
  0
VERTEX
  8
0
 10
256.104708
 20
311.577278
 42
-0.007881
  0
VERTEX
  8
0
 10
256.604466
 20
313.656128
 42
-0.012716
  0
VERTEX
  8
0
 10
257.102497
 20
315.407076
 42
-0.006436
  0
VERTEX
  8
0
 10
257.568954
 20
316.836550
 42
-0.321018
  0
VERTEX
  8
0
 10
257.797299
 20
317.000000
 42
-0.171345
  0
VERTEX
  8
0
 10
258.108941
 20
316.889973
 42
-0.003514
  0
VERTEX
  8
0
 10
259.410345
 20
315.825000
 42
-0.007831
  0
VERTEX
  8
0
 10
260.918078
 20
314.532973
 42
-0.005136
  0
VERTEX
  8
0
 10
262.615826
 20
313.000000
 42
0.019685
  0
VERTEX
  8
0
 10
264.407191
 20
311.474703
 42
0.024027
  0
VERTEX
  8
0
 10
266.201215
 20
310.199507
 42
0.023589
  0
VERTEX
  8
0
 10
267.780550
 20
309.289519
 42
0.131397
  0
VERTEX
  8
0
 10
268.727657
 20
309.083429
 42
0.042571
  0
VERTEX
  8
0
 10
269.871676
 20
309.235473
 42
0.003260
  0
VERTEX
  8
0
 10
272.904797
 20
309.925657
 42
0.004457
  0
VERTEX
  8
0
 10
276.515309
 20
310.806050
 42
0.003383
  0
VERTEX
  8
0
 10
280.458886
 20
311.833429
 42
0.000000
  0
VERTEX
  8
0
 10
290.417772
 20
314.500000
 42
0.000000
  0
VERTEX
  8
0
 10
292.903930
 20
320.500000
 42
-0.001108
  0
VERTEX
  8
0
 10
293.872778
 20
322.823609
 42
-0.001690
  0
VERTEX
  8
0
 10
294.724853
 20
324.835389
 42
-0.000586
  0
VERTEX
  8
0
 10
295.468376
 20
326.568860
 42
-0.045113
  0
VERTEX
  8
0
 10
295.611616
 20
326.833238
 42
-0.456987
  0
VERTEX
  8
0
 10
295.807306
 20
326.858187
 42
-0.003273
  0
VERTEX
  8
0
 10
297.187889
 20
325.605072
 42
-0.008959
  0
VERTEX
  8
0
 10
298.797121
 20
324.070974
 42
-0.005284
  0
VERTEX
  8
0
 10
300.666572
 20
322.184296
 42
0.000000
  0
VERTEX
  8
0
 10
305.500000
 20
317.202115
 42
0.000000
  0
VERTEX
  8
0
 10
315.500000
 20
318.732119
 42
0.008358
  0
VERTEX
  8
0
 10
322.591470
 20
319.938751
 42
0.061845
  0
VERTEX
  8
0
 10
325.851283
 20
320.978598
 42
0.151227
  0
VERTEX
  8
0
 10
327.417405
 20
322.387207
 42
0.135348
  0
VERTEX
  8
0
 10
328.000000
 20
324.500000
 42
0.108353
  0
VERTEX
  8
0
 10
327.487408
 20
326.837615
 42
0.194737
  0
VERTEX
  8
0
 10
326.078437
 20
328.161863
 42
0.109171
  0
VERTEX
  8
0
 10
323.440476
 20
328.566681
 42
0.023918
  0
VERTEX
  8
0
 10
318.851524
 20
328.045742
 42
-0.013639
  0
VERTEX
  8
0
 10
311.937930
 20
327.116639
 42
-0.105575
  0
VERTEX
  8
0
 10
308.712921
 20
327.453446
 42
-0.119797
  0
VERTEX
  8
0
 10
306.087106
 20
329.073795
 42
-0.019610
  0
VERTEX
  8
0
 10
302.028104
 20
333.517021
 42
0.023776
  0
VERTEX
  8
0
 10
297.968757
 20
337.886970
 42
0.104909
  0
VERTEX
  8
0
 10
295.018191
 20
339.760066
 42
0.211144
  0
VERTEX
  8
0
 10
292.680782
 20
339.620605
 42
0.136936
  0
SEQEND
  0
POLYLINE
  8
0
 66
1
 70
1
  0
VERTEX
  8
0
 10
81.872447
 20
136.648837
 42
-0.249266
  0
VERTEX
  8
0
 10
80.586626
 20
136.087063
 42
-0.049186
  0
VERTEX
  8
0
 10
78.023809
 20
136.540097
 42
-0.049368
  0
VERTEX
  8
0
 10
75.350454
 20
137.582880
 42
-0.091420
  0
VERTEX
  8
0
 10
73.505613
 20
138.993798
 42
-0.066441
  0
VERTEX
  8
0
 10
72.685566
 20
140.185086
 42
-0.266120
  0
VERTEX
  8
0
 10
72.728139
 20
141.035939
 42
-0.103689
  0
VERTEX
  8
0
 10
73.626483
 20
141.949835
 42
-0.007323
  0
VERTEX
  8
0
 10
76.651921
 20
143.900561
 42
0.000000
  0
VERTEX
  8
0
 10
81.500000
 20
146.926888
 42
0.000000
  0
VERTEX
  8
0
 10
82.023610
 20
142.213444
 42
-0.014918
  0
VERTEX
  8
0
 10
82.174817
 20
140.346196
 42
-0.019534
  0
VERTEX
  8
0
 10
82.195195
 20
138.634545
 42
-0.017400
  0
VERTEX
  8
0
 10
82.108267
 20
137.233250
 42
-0.144382
  0
SEQEND
  0
POLYLINE
  8
0
 66
1
 70
1
  0
VERTEX
  8
0
 10
455.242864
 20
326.171260
 42
0.115921
  0
VERTEX
  8
0
 10
453.303442
 20
324.188390
 42
0.005180
  0
VERTEX
  8
0
 10
448.402304
 20
315.883566
 42
0.004881
  0
VERTEX
  8
0
 10
443.646658
 20
307.441667
 42
0.126484
  0
VERTEX
  8
0
 10
443.000000
 20
304.926277
 42
0.158238
  0
VERTEX
  8
0
 10
443.588571
 20
303.113074
 42
0.138361
  0
VERTEX
  8
0
 10
445.159065
 20
301.873755
 42
0.125285
  0
VERTEX
  8
0
 10
447.280231
 20
301.566551
 42
0.119209
  0
VERTEX
  8
0
 10
449.334370
 20
302.299518
 42
0.106784
  0
VERTEX
  8
0
 10
451.866291
 20
304.869208
 42
0.011525
  0
VERTEX
  8
0
 10
456.195153
 20
312.055205
 42
0.010928
  0
VERTEX
  8
0
 10
460.208851
 20
319.449966
 42
0.119413
  0
VERTEX
  8
0
 10
460.999946
 20
322.714816
 42
0.077228
  0
VERTEX
  8
0
 10
460.856397
 20
323.638807
 42
0.057203
  0
VERTEX
  8
0
 10
460.431796
 20
324.583115
 42
0.057322
  0
VERTEX
  8
0
 10
459.805601
 20
325.404518
 42
0.078542
  0
VERTEX
  8
0
 10
459.065741
 20
325.964816
 42
0.009301
  0
VERTEX
  8
0
 10
457.555773
 20
326.737147
 42
0.100397
  0
VERTEX
  8
0
 10
456.895335
 20
326.908652
 42
0.134469
  0
VERTEX
  8
0
 10
456.296190
 20
326.778827
 42
0.021239
  0
SEQEND
  0
POLYLINE
  8
0
 66
1
 70
1
  0
VERTEX
  8
0
 10
374.864785
 20
320.250000
 42
0.040675
  0
VERTEX
  8
0
 10
374.130562
 20
319.197213
 42
0.007766
  0
VERTEX
  8
0
 10
372.986379
 20
317.161959
 42
0.008235
  0
VERTEX
  8
0
 10
371.723548
 20
314.737158
 42
0.007492
  0
VERTEX
  8
0
 10
370.499626
 20
312.194968
 42
0.026808
  0
VERTEX
  8
0
 10
368.656534
 20
307.581886
 42
0.126651
  0
VERTEX
  8
0
 10
368.446111
 20
304.764334
 42
0.222044
  0
VERTEX
  8
0
 10
369.644983
 20
303.065032
 42
0.100336
  0
VERTEX
  8
0
 10
372.293686
 20
302.189095
 42
0.063368
  0
VERTEX
  8
0
 10
373.674416
 20
302.199020
 42
0.120073
  0
VERTEX
  8
0
 10
374.704327
 20
302.601754
 42
0.093738
  0
VERTEX
  8
0
 10
375.594215
 20
303.515616
 42
0.028651
  0
VERTEX
  8
0
 10
376.570001
 20
305.189095
 42
-0.002254
  0
VERTEX
  8
0
 10
377.233574
 20
306.479047
 42
-0.003247
  0
VERTEX
  8
0
 10
377.833314
 20
307.614040
 42
-0.001719
  0
VERTEX
  8
0
 10
378.350321
 20
308.569369
 42
-0.051488
  0
VERTEX
  8
0
 10
378.505382
 20
308.794872
 42
-0.402954
  0
VERTEX
  8
0
 10
378.703779
 20
308.814666
 42
-0.007535
  0
VERTEX
  8
0
 10
379.591711
 20
308.094084
 42
-0.013875
  0
VERTEX
  8
0
 10
380.646353
 20
307.160571
 42
-0.008275
  0
VERTEX
  8
0
 10
381.851017
 20
305.995137
 42
0.018646
  0
VERTEX
  8
0
 10
383.544367
 20
304.423588
 42
0.079704
  0
VERTEX
  8
0
 10
384.714510
 20
303.703348
 42
0.130591
  0
VERTEX
  8
0
 10
385.739510
 20
303.566251
 42
0.091416
  0
VERTEX
  8
0
 10
386.855162
 20
303.922485
 42
0.130318
  0
VERTEX
  8
0
 10
388.995517
 20
305.918722
 42
0.206135
  0
VERTEX
  8
0
 10
389.375695
 20
308.360249
 42
0.091439
  0
VERTEX
  8
0
 10
387.754040
 20
311.854831
 42
0.015452
  0
VERTEX
  8
0
 10
383.293423
 20
317.750000
 42
0.035149
  0
VERTEX
  8
0
 10
380.713500
 20
320.525376
 42
0.116338
  0
VERTEX
  8
0
 10
378.562782
 20
321.756728
 42
0.180890
  0
VERTEX
  8
0
 10
376.657226
 20
321.623948
 42
0.113744
  0
SEQEND
  0
POLYLINE
  8
0
 66
1
 70
1
  0
VERTEX
  8
0
 10
339.261101
 20
315.750000
 42
0.090043
  0
VERTEX
  8
0
 10
337.840878
 20
313.069189
 42
0.011465
  0
VERTEX
  8
0
 10
335.999562
 20
306.776209
 42
0.009452
  0
VERTEX
  8
0
 10
334.405363
 20
300.340410
 42
0.133598
  0
VERTEX
  8
0
 10
334.503491
 20
297.989001
 42
0.191902
  0
VERTEX
  8
0
 10
336.331844
 20
295.757973
 42
0.214904
  0
VERTEX
  8
0
 10
339.084017
 20
295.532598
 42
0.152060
  0
VERTEX
  8
0
 10
341.827812
 20
297.590312
 42
0.107441
  0
VERTEX
  8
0
 10
343.379042
 20
301.145211
 42
0.000000
  0
VERTEX
  8
0
 10
343.987638
 20
304.188189
 42
0.000000
  0
VERTEX
  8
0
 10
347.070544
 20
301.594095
 42
0.030365
  0
VERTEX
  8
0
 10
349.483634
 20
299.801960
 42
0.110441
  0
VERTEX
  8
0
 10
351.261019
 20
299.136816
 42
0.153597
  0
VERTEX
  8
0
 10
352.814211
 20
299.398176
 42
0.078630
  0
VERTEX
  8
0
 10
354.428571
 20
300.571429
 42
0.114970
  0
VERTEX
  8
0
 10
355.618291
 20
302.484059
 42
0.179762
  0
VERTEX
  8
0
 10
355.564249
 20
304.400235
 42
0.083789
  0
VERTEX
  8
0
 10
354.052884
 20
306.859217
 42
0.013287
  0
VERTEX
  8
0
 10
350.200937
 20
311.036772
 42
0.022111
  0
VERTEX
  8
0
 10
346.283438
 20
314.724083
 42
0.076178
  0
VERTEX
  8
0
 10
343.333741
 20
316.568719
 42
0.146809
  0
VERTEX
  8
0
 10
341.064625
 20
316.831433
 42
0.183970
  0
SEQEND
  0
POLYLINE
  8
0
 66
1
 70
1
  0
VERTEX
  8
0
 10
304.221664
 20
308.750000
 42
0.095181
  0
VERTEX
  8
0
 10
302.703329
 20
305.945285
 42
0.008791
  0
VERTEX
  8
0
 10
300.443770
 20
298.340259
 42
0.007095
  0
VERTEX
  8
0
 10
298.394728
 20
290.544742
 42
0.138418
  0
VERTEX
  8
0
 10
298.474184
 20
288.081338
 42
0.056455
  0
VERTEX
  8
0
 10
298.817802
 20
287.312135
 42
0.044305
  0
VERTEX
  8
0
 10
299.350034
 20
286.568923
 42
0.045625
  0
VERTEX
  8
0
 10
299.978914
 20
285.959615
 42
0.078158
  0
VERTEX
  8
0
 10
300.610509
 20
285.595967
 42
0.153721
  0
VERTEX
  8
0
 10
302.578719
 20
285.475060
 42
0.127304
  0
VERTEX
  8
0
 10
304.432784
 20
286.480602
 42
0.086238
  0
VERTEX
  8
0
 10
306.099584
 20
288.679765
 42
0.038975
  0
VERTEX
  8
0
 10
307.508017
 20
292.024137
 42
0.000000
  0
VERTEX
  8
0
 10
309.183091
 20
297.067313
 42
0.000000
  0
VERTEX
  8
0
 10
313.094426
 20
293.533656
 42
0.036037
  0
VERTEX
  8
0
 10
316.127411
 20
291.166743
 42
0.103425
  0
VERTEX
  8
0
 10
318.591185
 20
290.169777
 42
0.170189
  0
VERTEX
  8
0
 10
320.514876
 20
290.477768
 42
0.146917
  0
VERTEX
  8
0
 10
321.964816
 20
291.934259
 42
0.086390
  0
VERTEX
  8
0
 10
322.695157
 20
294.145205
 42
0.154648
  0
VERTEX
  8
0
 10
322.392903
 20
296.016092
 42
0.067900
  0
VERTEX
  8
0
 10
320.792469
 20
298.342287
 42
0.007396
  0
VERTEX
  8
0
 10
316.335938
 20
303.097231
 42
0.018751
  0
VERTEX
  8
0
 10
311.840083
 20
307.417586
 42
0.072981
  0
VERTEX
  8
0
 10
308.625694
 20
309.534103
 42
0.149019
  0
VERTEX
  8
0
 10
306.193100
 20
309.878717
 42
0.184475
  0
SEQEND
  0
POLYLINE
  8
0
 66
1
 70
1
  0
VERTEX
  8
0
 10
432.293948
 20
293.240652
 42
-0.011015
  0
VERTEX
  8
0
 10
426.263378
 20
286.049366
 42
-0.020044
  0
VERTEX
  8
0
 10
420.982083
 20
280.492152
 42
-0.018619
  0
VERTEX
  8
0
 10
416.803127
 20
276.725645
 42
-0.538798
  0
VERTEX
  8
0
 10
415.646589
 20
277.073420
 42
0.021032
  0
VERTEX
  8
0
 10
413.096359
 20
284.462143
 42
0.054213
  0
VERTEX
  8
0
 10
410.479316
 20
289.455715
 42
0.090087
  0
VERTEX
  8
0
 10
407.847449
 20
292.165908
 42
0.236175
  0
VERTEX
  8
0
 10
405.242558
 20
292.576985
 42
0.134632
  0
VERTEX
  8
0
 10
403.378853
 20
291.369254
 42
0.171160
  0
VERTEX
  8
0
 10
402.606391
 20
289.485312
 42
0.096281
  0
VERTEX
  8
0
 10
403.012494
 20
286.642407
 42
0.026043
  0
VERTEX
  8
0
 10
404.732853
 20
282.408296
 42
-0.024607
  0
VERTEX
  8
0
 10
406.282571
 20
278.625329
 42
-0.046300
  0
VERTEX
  8
0
 10
407.089280
 20
275.426854
 42
-0.030356
  0
VERTEX
  8
0
 10
407.473496
 20
271.344377
 42
-0.005506
  0
VERTEX
  8
0
 10
407.641994
 20
263.732602
 42
0.008793
  0
VERTEX
  8
0
 10
407.879336
 20
255.466979
 42
0.049351
  0
VERTEX
  8
0
 10
408.517272
 20
251.095643
 42
0.119397
  0
VERTEX
  8
0
 10
409.693570
 20
248.842804
 42
0.216261
  0
VERTEX
  8
0
 10
411.551016
 20
248.000000
 42
0.170355
  0
VERTEX
  8
0
 10
413.352073
 20
248.631978
 42
0.104760
  0
VERTEX
  8
0
 10
414.792827
 20
250.387991
 42
0.066533
  0
VERTEX
  8
0
 10
415.862421
 20
253.359898
 42
0.026485
  0
VERTEX
  8
0
 10
416.552553
 20
257.646138
 42
-0.020936
  0
VERTEX
  8
0
 10
417.195116
 20
261.939831
 42
-0.083282
  0
VERTEX
  8
0
 10
418.121943
 20
264.427811
 42
-0.057588
  0
VERTEX
  8
0
 10
419.956195
 20
266.902626
 42
-0.006616
  0
VERTEX
  8
0
 10
424.769440
 20
271.905283
 42
0.012298
  0
VERTEX
  8
0
 10
431.849542
 20
279.433377
 42
0.012426
  0
VERTEX
  8
0
 10
438.525843
 20
287.275125
 42
0.007119
  0
VERTEX
  8
0
 10
444.176204
 20
294.463003
 42
0.164451
  0
VERTEX
  8
0
 10
445.000000
 20
296.899957
 42
0.059159
  0
VERTEX
  8
0
 10
444.912286
 20
297.638704
 42
0.039014
  0
VERTEX
  8
0
 10
444.647500
 20
298.453112
 42
0.039023
  0
VERTEX
  8
0
 10
444.259547
 20
299.216208
 42
0.059333
  0
VERTEX
  8
0
 10
443.800000
 20
299.800000
 42
0.161530
  0
VERTEX
  8
0
 10
441.676552
 20
300.865596
 42
0.167269
  0
VERTEX
  8
0
 10
439.371626
 20
300.430296
 42
0.077795
  0
VERTEX
  8
0
 10
436.486090
 20
298.128183
 42
0.016579
  0
SEQEND
  0
POLYLINE
  8
0
 66
1
 70
1
  0
VERTEX
  8
0
 10
265.289069
 20
299.350742
 42
0.189605
  0
VERTEX
  8
0
 10
264.701391
 20
298.791921
 42
0.010744
  0
VERTEX
  8
0
 10
263.673275
 20
296.454058
 42
0.015238
  0
VERTEX
  8
0
 10
262.568921
 20
293.540871
 42
0.010494
  0
VERTEX
  8
0
 10
261.488951
 20
290.179690
 42
-0.000406
  0
VERTEX
  8
0
 10
260.468034
 20
286.767406
 42
-0.000556
  0
VERTEX
  8
0
 10
259.542913
 20
283.696826
 42
-0.000358
  0
VERTEX
  8
0
 10
258.760701
 20
281.117656
 42
-0.006524
  0
VERTEX
  8
0
 10
258.500019
 20
280.298867
 42
0.137310
  0
VERTEX
  8
0
 10
258.470210
 20
279.682992
 42
0.041926
  0
VERTEX
  8
0
 10
258.755964
 20
278.785839
 42
0.038441
  0
VERTEX
  8
0
 10
259.260876
 20
277.789385
 42
0.033716
  0
VERTEX
  8
0
 10
259.932664
 20
276.834828
 42
0.031958
  0
VERTEX
  8
0
 10
261.026297
 20
275.647997
 42
0.127814
  0
VERTEX
  8
0
 10
261.882603
 20
275.171149
 42
0.134353
  0
VERTEX
  8
0
 10
262.838402
 20
275.183819
 42
0.036808
  0
VERTEX
  8
0
 10
264.264773
 20
275.710869
 42
0.077574
  0
VERTEX
  8
0
 10
265.516522
 20
276.535213
 42
0.073759
  0
VERTEX
  8
0
 10
266.482754
 20
277.714687
 42
0.054529
  0
VERTEX
  8
0
 10
267.268079
 20
279.426413
 42
0.021439
  0
VERTEX
  8
0
 10
267.981986
 20
281.924908
 42
-0.012293
  0
VERTEX
  8
0
 10
268.499518
 20
283.870114
 42
-0.019336
  0
VERTEX
  8
0
 10
269.048669
 20
285.509192
 42
-0.014145
  0
VERTEX
  8
0
 10
269.573750
 20
286.785727
 42
-0.296310
  0
VERTEX
  8
0
 10
269.903574
 20
287.000000
 42
-0.168706
  0
VERTEX
  8
0
 10
270.323507
 20
286.854159
 42
-0.009629
  0
VERTEX
  8
0
 10
271.397337
 20
285.971875
 42
-0.013839
  0
VERTEX
  8
0
 10
272.649167
 20
284.840901
 42
-0.009655
  0
VERTEX
  8
0
 10
274.000000
 20
283.500000
 42
0.032240
  0
VERTEX
  8
0
 10
276.464909
 20
281.264819
 42
0.096638
  0
VERTEX
  8
0
 10
278.473190
 20
280.220757
 42
0.148586
  0
VERTEX
  8
0
 10
280.206003
 20
280.235084
 42
0.121116
  0
VERTEX
  8
0
 10
281.800000
 20
281.200000
 42
0.164283
  0
VERTEX
  8
0
 10
282.824773
 20
283.269723
 42
0.142598
  0
VERTEX
  8
0
 10
282.463438
 20
285.673507
 42
0.071825
  0
VERTEX
  8
0
 10
280.437908
 20
288.793008
 42
0.017489
  0
VERTEX
  8
0
 10
276.224904
 20
293.276820
 42
0.010431
  0
VERTEX
  8
0
 10
271.989462
 20
297.307971
 42
0.058275
  0
VERTEX
  8
0
 10
269.449732
 20
299.134213
 42
0.115295
  0
VERTEX
  8
0
 10
267.416177
 20
299.713284
 42
0.108754
  0
SEQEND
  0
POLYLINE
  8
0
 66
1
 70
1
  0
VERTEX
  8
0
 10
229.154425
 20
284.250000
 42
0.035090
  0
VERTEX
  8
0
 10
228.660937
 20
283.120881
 42
0.003701
  0
VERTEX
  8
0
 10
227.715646
 20
280.400965
 42
0.004563
  0
VERTEX
  8
0
 10
226.641978
 20
277.138789
 42
0.003646
  0
VERTEX
  8
0
 10
225.542670
 20
273.604349
 42
0.003817
  0
VERTEX
  8
0
 10
223.820376
 20
267.760766
 42
0.052852
  0
VERTEX
  8
0
 10
223.440880
 20
265.593903
 42
0.139927
  0
VERTEX
  8
0
 10
223.740522
 20
264.189982
 42
0.074405
  0
VERTEX
  8
0
 10
224.805898
 20
262.749658
 42
0.116713
  0
VERTEX
  8
0
 10
227.076265
 20
261.348224
 42
0.221124
  0
VERTEX
  8
0
 10
229.167215
 20
261.588895
 42
0.138545
  0
VERTEX
  8
0
 10
231.039886
 20
263.616808
 42
0.041253
  0
VERTEX
  8
0
 10
232.649445
 20
267.556858
 42
-0.009720
  0
VERTEX
  8
0
 10
233.351982
 20
269.643221
 42
-0.015328
  0
VERTEX
  8
0
 10
234.043709
 20
271.401077
 42
-0.009338
  0
VERTEX
  8
0
 10
234.677652
 20
272.804693
 42
-0.289693
  0
VERTEX
  8
0
 10
234.986455
 20
273.000000
 42
-0.173033
  0
VERTEX
  8
0
 10
235.363391
 20
272.865529
 42
-0.007952
  0
VERTEX
  8
0
 10
236.421684
 20
271.971875
 42
-0.012440
  0
VERTEX
  8
0
 10
237.655127
 20
270.841024
 42
-0.008527
  0
VERTEX
  8
0
 10
239.000000
 20
269.500000
 42
0.032240
  0
VERTEX
  8
0
 10
241.464909
 20
267.264819
 42
0.096638
  0
VERTEX
  8
0
 10
243.473190
 20
266.220757
 42
0.148586
  0
VERTEX
  8
0
 10
245.206003
 20
266.235084
 42
0.121116
  0
VERTEX
  8
0
 10
246.800000
 20
267.200000
 42
0.164283
  0
VERTEX
  8
0
 10
247.824773
 20
269.269723
 42
0.142598
  0
VERTEX
  8
0
 10
247.463438
 20
271.673507
 42
0.071825
  0
VERTEX
  8
0
 10
245.437908
 20
274.793008
 42
0.017489
  0
VERTEX
  8
0
 10
241.224904
 20
279.276820
 42
0.019202
  0
VERTEX
  8
0
 10
236.524141
 20
283.596291
 42
0.078645
  0
VERTEX
  8
0
 10
233.227753
 20
285.607295
 42
0.177040
  0
VERTEX
  8
0
 10
230.880715
 20
285.702097
 42
0.197128
  0
SEQEND
  0
POLYLINE
  8
0
 66
1
 70
1
  0
VERTEX
  8
0
 10
313.215206
 20
279.750000
 42
0.077504
  0
VERTEX
  8
0
 10
312.701424
 20
278.881809
 42
0.007576
  0
VERTEX
  8
0
 10
311.830379
 20
276.598933
 42
0.009447
  0
VERTEX
  8
0
 10
310.879409
 20
273.826734
 42
0.007346
  0
VERTEX
  8
0
 10
309.946843
 20
270.778284
 42
0.019962
  0
VERTEX
  8
0
 10
308.570604
 20
265.209138
 42
0.113657
  0
VERTEX
  8
0
 10
308.643312
 20
262.179789
 42
0.228368
  0
VERTEX
  8
0
 10
309.987234
 20
260.582207
 42
0.105990
  0
VERTEX
  8
0
 10
312.702890
 20
260.000000
 42
0.080417
  0
VERTEX
  8
0
 10
313.993052
 20
260.208853
 42
0.115141
  0
VERTEX
  8
0
 10
314.977103
 20
260.812519
 42
0.080479
  0
VERTEX
  8
0
 10
315.821513
 20
261.969045
 42
0.023943
  0
VERTEX
  8
0
 10
316.720697
 20
263.970880
 42
0.000000
  0
VERTEX
  8
0
 10
318.280503
 20
267.941760
 42
0.000000
  0
VERTEX
  8
0
 10
321.216977
 20
265.470880
 42
0.021326
  0
VERTEX
  8
0
 10
323.577830
 20
263.650460
 42
0.137750
  0
VERTEX
  8
0
 10
324.982130
 20
263.153018
 42
0.175195
  0
VERTEX
  8
0
 10
326.264450
 20
263.522047
 42
0.039600
  0
VERTEX
  8
0
 10
328.016927
 20
265.016927
 42
0.030457
  0
VERTEX
  8
0
 10
329.120244
 20
266.263518
 42
0.136862
  0
VERTEX
  8
0
 10
329.488353
 20
267.155041
 42
0.125793
  0
VERTEX
  8
0
 10
329.357637
 20
268.149230
 42
0.024066
  0
VERTEX
  8
0
 10
328.593704
 20
269.818796
 42
0.065997
  0
VERTEX
  8
0
 10
326.371438
 20
273.004797
 42
0.024540
  0
VERTEX
  8
0
 10
322.483836
 20
276.857361
 42
0.020057
  0
VERTEX
  8
0
 10
318.402883
 20
280.237148
 42
0.164352
  0
VERTEX
  8
0
 10
316.144788
 20
281.000000
 42
0.057210
  0
VERTEX
  8
0
 10
315.341785
 20
280.907818
 42
0.043703
  0
VERTEX
  8
0
 10
314.500515
 20
280.632812
 42
0.044766
  0
VERTEX
  8
0
 10
313.748083
 20
280.228796
 42
0.075016
  0
SEQEND
  0
POLYLINE
  8
0
 66
1
 70
1
  0
VERTEX
  8
0
 10
279.150861
 20
270.114399
 42
0.173417
  0
VERTEX
  8
0
 10
277.673893
 20
268.221264
 42
0.006748
  0
VERTEX
  8
0
 10
274.969248
 20
259.648766
 42
0.007120
  0
VERTEX
  8
0
 10
272.513751
 20
251.040974
 42
0.158829
  0
VERTEX
  8
0
 10
272.645363
 20
248.481787
 42
0.165634
  0
VERTEX
  8
0
 10
273.701870
 20
247.213868
 42
0.081154
  0
VERTEX
  8
0
 10
275.673197
 20
246.413069
 42
0.079976
  0
VERTEX
  8
0
 10
277.829045
 20
246.274269
 42
0.150472
  0
VERTEX
  8
0
 10
279.425127
 20
246.937861
 42
0.098856
  0
VERTEX
  8
0
 10
280.041993
 20
247.699124
 42
0.021426
  0
VERTEX
  8
0
 10
280.768164
 20
249.237278
 42
0.021551
  0
VERTEX
  8
0
 10
281.467132
 20
251.121964
 42
0.019152
  0
VERTEX
  8
0
 10
282.032398
 20
253.135048
 42
0.000000
  0
VERTEX
  8
0
 10
283.240513
 20
258.171040
 42
0.000000
  0
VERTEX
  8
0
 10
286.912419
 20
254.585520
 42
0.041300
  0
VERTEX
  8
0
 10
289.690496
 20
252.288269
 42
0.095586
  0
VERTEX
  8
0
 10
292.154070
 20
251.194611
 42
0.138897
  0
VERTEX
  8
0
 10
294.255677
 20
251.297305
 42
0.139193
  0
VERTEX
  8
0
 10
295.989223
 20
252.487014
 42
0.178354
  0
VERTEX
  8
0
 10
296.742208
 20
254.617523
 42
0.116521
  0
VERTEX
  8
0
 10
296.102463
 20
257.173390
 42
0.063618
  0
VERTEX
  8
0
 10
293.854048
 20
260.429581
 42
0.018573
  0
VERTEX
  8
0
 10
289.613867
 20
264.815265
 42
0.010160
  0
VERTEX
  8
0
 10
285.365385
 20
268.732102
 42
0.064007
  0
VERTEX
  8
0
 10
282.932757
 20
270.384400
 42
0.138596
  0
VERTEX
  8
0
 10
281.053807
 20
270.752325
 42
0.121283
  0
SEQEND
  0
POLYLINE
  8
0
 66
1
 70
1
  0
VERTEX
  8
0
 10
244.253591
 20
256.338916
 42
0.219082
  0
VERTEX
  8
0
 10
242.821690
 20
254.819478
 42
0.006154
  0
VERTEX
  8
0
 10
239.991644
 20
246.047802
 42
0.007398
  0
VERTEX
  8
0
 10
237.436795
 20
237.327038
 42
0.160507
  0
VERTEX
  8
0
 10
237.563511
 20
234.695088
 42
0.122839
  0
VERTEX
  8
0
 10
238.438705
 20
233.445172
 42
0.091240
  0
VERTEX
  8
0
 10
239.895525
 20
232.584724
 42
0.086336
  0
VERTEX
  8
0
 10
241.641438
 20
232.268313
 42
0.093634
  0
VERTEX
  8
0
 10
243.339357
 20
232.576729
 42
0.148566
  0
VERTEX
  8
0
 10
244.071961
 20
233.146930
 42
0.027697
  0
VERTEX
  8
0
 10
244.986087
 20
234.608028
 42
0.027502
  0
VERTEX
  8
0
 10
245.895879
 20
236.497747
 42
0.022088
  0
VERTEX
  8
0
 10
246.668791
 20
238.618231
 42
0.000000
  0
VERTEX
  8
0
 10
248.377114
 20
244.037654
 42
0.000000
  0
VERTEX
  8
0
 10
251.980720
 20
240.518827
 42
0.042249
  0
VERTEX
  8
0
 10
254.720985
 20
238.261572
 42
0.095985
  0
VERTEX
  8
0
 10
257.168277
 20
237.188534
 42
0.138163
  0
VERTEX
  8
0
 10
259.262965
 20
237.299143
 42
0.138559
  0
VERTEX
  8
0
 10
260.989223
 20
238.487014
 42
0.178354
  0
VERTEX
  8
0
 10
261.742208
 20
240.617523
 42
0.116521
  0
VERTEX
  8
0
 10
261.102463
 20
243.173390
 42
0.063618
  0
VERTEX
  8
0
 10
258.854048
 20
246.429581
 42
0.018573
  0
VERTEX
  8
0
 10
254.613867
 20
250.815265
 42
0.009844
  0
VERTEX
  8
0
 10
250.541264
 20
254.574710
 42
0.059051
  0
VERTEX
  8
0
 10
248.177439
 20
256.219048
 42
0.118035
  0
VERTEX
  8
0
 10
246.283698
 20
256.712369
 42
0.101233
  0
SEQEND
  0
POLYLINE
  8
0
 66
1
 70
1
  0
VERTEX
  8
0
 10
345.499101
 20
244.356244
 42
0.143548
  0
VERTEX
  8
0
 10
344.529622
 20
242.582676
 42
0.101862
  0
VERTEX
  8
0
 10
344.502081
 20
240.302175
 42
0.050570
  0
VERTEX
  8
0
 10
345.519985
 20
236.915878
 42
0.010138
  0
VERTEX
  8
0
 10
348.054284
 20
231.137726
 42
-0.001733
  0
VERTEX
  8
0
 10
349.183410
 20
228.676654
 42
-0.002723
  0
VERTEX
  8
0
 10
350.134696
 20
226.553477
 42
-0.000705
  0
VERTEX
  8
0
 10
350.951956
 20
224.695394
 42
-0.103609
  0
VERTEX
  8
0
 10
351.000000
 20
224.466029
 42
-0.271599
  0
VERTEX
  8
0
 10
350.516702
 20
223.641933
 42
-0.000653
  0
VERTEX
  8
0
 10
337.992724
 20
216.658160
 42
-0.004418
  0
VERTEX
  8
0
 10
326.310640
 20
210.298307
 42
-0.011130
  0
VERTEX
  8
0
 10
317.663482
 20
205.933568
 42
0.000000
  0
VERTEX
  8
0
 10
306.826965
 20
200.763069
 42
0.000000
  0
VERTEX
  8
0
 10
303.163482
 20
204.152958
 42
0.003140
  0
VERTEX
  8
0
 10
297.243314
 20
209.562384
 42
0.047797
  0
VERTEX
  8
0
 10
295.015748
 20
211.215876
 42
0.146543
  0
VERTEX
  8
0
 10
293.392665
 20
211.633792
 42
0.097437
  0
VERTEX
  8
0
 10
291.509891
 20
211.186461
 42
0.187853
  0
VERTEX
  8
0
 10
289.607824
 20
209.232309
 42
0.222786
  0
VERTEX
  8
0
 10
289.704552
 20
206.681109
 42
0.068776
  0
VERTEX
  8
0
 10
292.508879
 20
202.699701
 42
0.008940
  0
VERTEX
  8
0
 10
299.750000
 20
195.214995
 42
-0.007488
  0
VERTEX
  8
0
 10
304.009664
 20
190.837550
 42
-0.008736
  0
VERTEX
  8
0
 10
307.918704
 20
186.550545
 42
-0.007888
  0
VERTEX
  8
0
 10
311.096628
 20
182.823715
 42
-0.051234
  0
VERTEX
  8
0
 10
312.462611
 20
180.774348
 42
0.000000
  0
VERTEX
  8
0
 10
314.425222
 20
177.054938
 42
0.000000
  0
VERTEX
  8
0
 10
312.136779
 20
172.277469
 42
-0.015218
  0
VERTEX
  8
0
 10
310.916927
 20
169.917937
 42
-0.005521
  0
VERTEX
  8
0
 10
309.048678
 20
166.644520
 42
-0.005469
  0
VERTEX
  8
0
 10
306.923819
 20
163.104552
 42
-0.006491
  0
VERTEX
  8
0
 10
304.837654
 20
159.810260
 42
0.019015
  0
VERTEX
  8
0
 10
301.623935
 20
154.442617
 42
0.091119
  0
VERTEX
  8
0
 10
300.507424
 20
151.070232
 42
0.200825
  0
VERTEX
  8
0
 10
301.083252
 20
148.891602
 42
0.153358
  0
VERTEX
  8
0
 10
303.122816
 20
147.461020
 42
0.175131
  0
VERTEX
  8
0
 10
305.198261
 20
147.542865
 42
0.098181
  0
VERTEX
  8
0
 10
307.333512
 20
148.947604
 42
0.046557
  0
VERTEX
  8
0
 10
310.001654
 20
152.114569
 42
0.009179
  0
VERTEX
  8
0
 10
314.131857
 20
158.300329
 42
0.020147
  0
VERTEX
  8
0
 10
318.037096
 20
164.964440
 42
0.029822
  0
VERTEX
  8
0
 10
320.860539
 20
171.118311
 42
0.033953
  0
VERTEX
  8
0
 10
322.489129
 20
176.334140
 42
0.113223
  0
VERTEX
  8
0
 10
322.522220
 20
179.898834
 42
0.061031
  0
VERTEX
  8
0
 10
322.044233
 20
181.258226
 42
0.015733
  0
VERTEX
  8
0
 10
320.944778
 20
183.312117
 42
0.015774
  0
VERTEX
  8
0
 10
319.532383
 20
185.592697
 42
0.015461
  0
VERTEX
  8
0
 10
317.969945
 20
187.795370
 42
-0.006392
  0
VERTEX
  8
0
 10
316.448843
 20
189.859400
 42
-0.009320
  0
VERTEX
  8
0
 10
315.166171
 20
191.719557
 42
-0.005399
  0
VERTEX
  8
0
 10
314.139630
 20
193.306252
 42
-0.141800
  0
VERTEX
  8
0
 10
314.000000
 20
193.788700
 42
-0.267146
  0
VERTEX
  8
0
 10
314.241439
 20
194.208337
 42
-0.003431
  0
VERTEX
  8
0
 10
316.988797
 20
195.780407
 42
-0.008843
  0
VERTEX
  8
0
 10
320.274320
 20
197.554819
 42
-0.005550
  0
VERTEX
  8
0
 10
324.174628
 20
199.518414
 42
0.006058
  0
VERTEX
  8
0
 10
328.897159
 20
201.901964
 42
0.003129
  0
VERTEX
  8
0
 10
334.747898
 20
204.991098
 42
0.003109
  0
VERTEX
  8
0
 10
340.725006
 20
208.242945
 42
0.004707
  0
VERTEX
  8
0
 10
345.880965
 20
211.153409
 42
0.000000
  0
VERTEX
  8
0
 10
357.412673
 20
217.806817
 42
0.000000
  0
VERTEX
  8
0
 10
363.774966
 20
212.221034
 42
-0.013031
  0
VERTEX
  8
0
 10
366.324478
 20
209.862250
 42
-0.013385
  0
VERTEX
  8
0
 10
368.724314
 20
207.394309
 42
-0.013226
  0
VERTEX
  8
0
 10
370.688197
 20
205.146967
 42
-0.053674
  0
VERTEX
  8
0
 10
371.689528
 20
203.633493
 42
-0.108161
  0
VERTEX
  8
0
 10
372.796736
 20
199.500762
 42
-0.056947
  0
VERTEX
  8
0
 10
372.436569
 20
194.172378
 42
-0.039403
  0
VERTEX
  8
0
 10
370.583969
 20
187.209063
 42
-0.015028
  0
VERTEX
  8
0
 10
366.962054
 20
177.838892
 42
0.006627
  0
VERTEX
  8
0
 10
364.933669
 20
172.842536
 42
0.007685
  0
VERTEX
  8
0
 10
363.139933
 20
168.033660
 42
0.006946
  0
VERTEX
  8
0
 10
361.743037
 20
163.925425
 42
0.044547
  0
VERTEX
  8
0
 10
361.253831
 20
161.786333
 42
0.022382
  0
VERTEX
  8
0
 10
361.064766
 20
159.715330
 42
0.105221
  0
VERTEX
  8
0
 10
361.258043
 20
158.542939
 42
0.141854
  0
VERTEX
  8
0
 10
361.878833
 20
157.734562
 42
0.053465
  0
VERTEX
  8
0
 10
363.123204
 20
157.010051
 42
0.116567
  0
VERTEX
  8
0
 10
365.351042
 20
156.585438
 42
0.031489
  0
VERTEX
  8
0
 10
368.949572
 20
156.970894
 42
0.030427
  0
VERTEX
  8
0
 10
373.056348
 20
157.934629
 42
0.029097
  0
VERTEX
  8
0
 10
377.079285
 20
159.400886
 42
-0.152620
  0
VERTEX
  8
0
 10
377.897494
 20
159.486940
 42
-0.170456
  0
VERTEX
  8
0
 10
378.576980
 20
159.083522
 42
-0.083082
  0
VERTEX
  8
0
 10
379.189706
 20
158.041510
 42
-0.018674
  0
VERTEX
  8
0
 10
379.855924
 20
156.086545
 42
0.051502
  0
VERTEX
  8
0
 10
381.331163
 20
152.538167
 42
0.045778
  0
VERTEX
  8
0
 10
383.550275
 20
149.212475
 42
0.048243
  0
VERTEX
  8
0
 10
385.978605
 20
146.739644
 42
0.176310
  0
VERTEX
  8
0
 10
388.010970
 20
146.000000
 42
0.185164
  0
VERTEX
  8
0
 10
389.791083
 20
146.682628
 42
0.017848
  0
VERTEX
  8
0
 10
393.183410
 20
149.959261
 42
0.018217
  0
VERTEX
  8
0
 10
396.328802
 20
153.469592
 42
0.175312
  0
VERTEX
  8
0
 10
397.000000
 20
155.325056
 42
-0.600964
  0
VERTEX
  8
0
 10
397.256998
 20
155.461654
 42
-0.015360
  0
VERTEX
  8
0
 10
398.598041
 20
154.495268
 42
-0.016793
  0
VERTEX
  8
0
 10
400.352206
 20
153.051227
 42
-0.008804
  0
VERTEX
  8
0
 10
402.440139
 20
151.145057
 42
0.007430
  0
VERTEX
  8
0
 10
404.587655
 20
149.173645
 42
0.010919
  0
VERTEX
  8
0
 10
406.537428
 20
147.511361
 42
0.006491
  0
VERTEX
  8
0
 10
408.207873
 20
146.184800
 42
0.166044
  0
VERTEX
  8
0
 10
408.749010
 20
146.000000
 42
0.220542
  0
VERTEX
  8
0
 10
411.070511
 20
147.076328
 42
0.073298
  0
VERTEX
  8
0
 10
413.100142
 20
150.341189
 42
0.058224
  0
VERTEX
  8
0
 10
414.514906
 20
155.021568
 42
0.043975
  0
VERTEX
  8
0
 10
414.994423
 20
160.375000
 42
-0.013115
  0
VERTEX
  8
0
 10
415.061103
 20
162.784423
 42
-0.163024
  0
VERTEX
  8
0
 10
415.393460
 20
163.623590
 42
-0.240562
  0
VERTEX
  8
0
 10
416.102985
 20
163.922181
 42
-0.030904
  0
VERTEX
  8
0
 10
417.790031
 20
163.691994
 42
0.052915
  0
VERTEX
  8
0
 10
421.671368
 20
163.335215
 42
0.053622
  0
VERTEX
  8
0
 10
425.523237
 20
163.804394
 42
0.060051
  0
VERTEX
  8
0
 10
428.639923
 20
164.936095
 42
0.170372
  0
VERTEX
  8
0
 10
430.218600
 20
166.580429
 42
0.184582
  0
VERTEX
  8
0
 10
430.388300
 20
169.293327
 42
0.051142
  0
VERTEX
  8
0
 10
428.678415
 20
173.284305
 42
0.029063
  0
VERTEX
  8
0
 10
424.980625
 20
179.116287
 42
0.006665
  0
VERTEX
  8
0
 10
418.044622
 20
188.500000
 42
-0.026425
  0
VERTEX
  8
0
 10
409.727857
 20
200.734743
 42
-0.083734
  0
VERTEX
  8
0
 10
406.094272
 20
209.909166
 42
-0.100478
  0
VERTEX
  8
0
 10
406.007670
 20
218.800595
 42
-0.048627
  0
VERTEX
  8
0
 10
409.250000
 20
229.756902
 42
0.008174
  0
VERTEX
  8
0
 10
410.685907
 20
233.474980
 42
0.010056
  0
VERTEX
  8
0
 10
411.898438
 20
236.990968
 42
0.008646
  0
VERTEX
  8
0
 10
412.802475
 20
239.969450
 42
0.069460
  0
VERTEX
  8
0
 10
413.000000
 20
241.384457
 42
0.095159
  0
VERTEX
  8
0
 10
412.632881
 20
243.295969
 42
0.108111
  0
VERTEX
  8
0
 10
411.589103
 20
244.838549
 42
0.116013
  0
VERTEX
  8
0
 10
410.063130
 20
245.731697
 42
0.122812
  0
VERTEX
  8
0
 10
408.332413
 20
245.825500
 42
0.162055
  0
VERTEX
  8
0
 10
406.784501
 20
244.956468
 42
0.061164
  0
VERTEX
  8
0
 10
405.332399
 20
242.903988
 42
0.028304
  0
VERTEX
  8
0
 10
403.542277
 20
239.071374
 42
0.004399
  0
VERTEX
  8
0
 10
400.502886
 20
231.271530
 42
0.056942
  0
VERTEX
  8
0
 10
397.167955
 20
218.156894
 42
0.099223
  0
VERTEX
  8
0
 10
397.866819
 20
206.998151
 42
0.075859
  0
VERTEX
  8
0
 10
403.099968
 20
195.015929
 42
0.022664
  0
VERTEX
  8
0
 10
414.532268
 20
178.607236
 42
-0.006622
  0
VERTEX
  8
0
 10
416.236585
 20
176.321020
 42
-0.010852
  0
VERTEX
  8
0
 10
417.611450
 20
174.335555
 42
-0.004677
  0
VERTEX
  8
0
 10
418.707114
 20
172.643328
 42
-0.351106
  0
VERTEX
  8
0
 10
418.673621
 20
172.340287
 42
-0.229925
  0
VERTEX
  8
0
 10
418.355148
 20
172.229990
 42
-0.006778
  0
VERTEX
  8
0
 10
416.910276
 20
172.422047
 42
-0.012281
  0
VERTEX
  8
0
 10
415.179081
 20
172.719692
 42
-0.008007
  0
VERTEX
  8
0
 10
413.196197
 20
173.144070
 42
0.038728
  0
VERTEX
  8
0
 10
408.579568
 20
173.839147
 42
0.215725
  0
VERTEX
  8
0
 10
406.286588
 20
172.994551
 42
0.195933
  0
VERTEX
  8
0
 10
405.276130
 20
170.643851
 42
0.031626
  0
VERTEX
  8
0
 10
405.500912
 20
165.563985
 42
0.000000
  0
VERTEX
  8
0
 10
406.155019
 20
159.500000
 42
0.000000
  0
VERTEX
  8
0
 10
402.813311
 20
164.500000
 42
0.042591
  0
VERTEX
  8
0
 10
399.499816
 20
168.645686
 42
0.226254
  0
VERTEX
  8
0
 10
396.862563
 20
169.657548
 42
0.215490
  0
VERTEX
  8
0
 10
394.326859
 20
168.261914
 42
0.038770
  0
VERTEX
  8
0
 10
391.365721
 20
163.597714
 42
-0.009201
  0
VERTEX
  8
0
 10
389.052515
 20
159.428679
 42
-0.382600
  0
VERTEX
  8
0
 10
388.151182
 20
159.134981
 42
-0.249672
  0
VERTEX
  8
0
 10
387.436814
 20
160.044830
 42
-0.005498
  0
VERTEX
  8
0
 10
386.484622
 20
165.753142
 42
0.075433
  0
VERTEX
  8
0
 10
385.468500
 20
168.982189
 42
0.198550
  0
VERTEX
  8
0
 10
383.684494
 20
170.557466
 42
0.157766
  0
VERTEX
  8
0
 10
380.982261
 20
170.607162
 42
0.044324
  0
VERTEX
  8
0
 10
377.018820
 20
169.009601
 42
-0.010659
  0
VERTEX
  8
0
 10
375.375269
 20
168.214812
 42
-0.016682
  0
VERTEX
  8
0
 10
373.926076
 20
167.609356
 42
-0.010950
  0
VERTEX
  8
0
 10
372.726757
 20
167.184457
 42
-0.283224
  0
VERTEX
  8
0
 10
372.405939
 20
167.260727
 42
-0.288068
  0
VERTEX
  8
0
 10
372.326157
 20
167.610195
 42
-0.003458
  0
VERTEX
  8
0
 10
373.147094
 20
169.905973
 42
-0.009027
  0
VERTEX
  8
0
 10
374.183793
 20
172.591672
 42
-0.005622
  0
VERTEX
  8
0
 10
375.491071
 20
175.703765
 42
0.009770
  0
VERTEX
  8
0
 10
376.944019
 20
179.244613
 42
0.007087
  0
VERTEX
  8
0
 10
378.427929
 20
183.239287
 42
0.007163
  0
VERTEX
  8
0
 10
379.729052
 20
187.073229
 42
0.015514
  0
VERTEX
  8
0
 10
380.594518
 20
190.062479
 42
0.055580
  0
VERTEX
  8
0
 10
381.733545
 20
198.159946
 42
0.100863
  0
VERTEX
  8
0
 10
380.591317
 20
204.721777
 42
0.084720
  0
VERTEX
  8
0
 10
376.774098
 20
211.054958
 42
0.030556
  0
VERTEX
  8
0
 10
369.410367
 20
218.610282
 42
-0.016344
  0
VERTEX
  8
0
 10
363.515965
 20
224.323963
 42
-0.028779
  0
VERTEX
  8
0
 10
359.091907
 20
229.463363
 42
-0.034741
  0
VERTEX
  8
0
 10
355.933216
 20
234.245427
 42
-0.051010
  0
VERTEX
  8
0
 10
353.915367
 20
238.858346
 42
0.043387
  0
VERTEX
  8
0
 10
352.170694
 20
243.017989
 42
0.127759
  0
VERTEX
  8
0
 10
350.099748
 20
245.295176
 42
0.208481
  0
VERTEX
  8
0
 10
347.837428
 20
245.677888
 42
0.136312
  0
SEQEND
  0
POLYLINE
  8
0
 66
1
 70
1
  0
VERTEX
  8
0
 10
151.118247
 20
232.499703
 42
0.045123
  0
VERTEX
  8
0
 10
146.556182
 20
230.611153
 42
0.031229
  0
VERTEX
  8
0
 10
141.777452
 20
227.713327
 42
0.028939
  0
VERTEX
  8
0
 10
137.799118
 20
224.591079
 42
0.150163
  0
VERTEX
  8
0
 10
136.357694
 20
222.237014
 42
0.105027
  0
VERTEX
  8
0
 10
136.279187
 20
220.370595
 42
0.106766
  0
VERTEX
  8
0
 10
136.968120
 20
218.645606
 42
0.114142
  0
VERTEX
  8
0
 10
138.259501
 20
217.440644
 42
0.134470
  0
VERTEX
  8
0
 10
139.872445
 20
217.018197
 42
0.096740
  0
VERTEX
  8
0
 10
140.768327
 20
217.203591
 42
0.016871
  0
VERTEX
  8
0
 10
142.343781
 20
217.927421
 42
0.017765
  0
VERTEX
  8
0
 10
144.157805
 20
218.918293
 42
0.015104
  0
VERTEX
  8
0
 10
146.000000
 20
220.087873
 42
0.000000
  0
VERTEX
  8
0
 10
150.500000
 20
223.139351
 42
0.000000
  0
VERTEX
  8
0
 10
151.057466
 20
219.785710
 42
0.023883
  0
VERTEX
  8
0
 10
151.672429
 20
216.935155
 42
0.084311
  0
VERTEX
  8
0
 10
152.448165
 20
215.236804
 42
0.134986
  0
VERTEX
  8
0
 10
153.515574
 20
214.327173
 42
0.109791
  0
VERTEX
  8
0
 10
154.987588
 20
214.000000
 42
0.124618
  0
VERTEX
  8
0
 10
157.015255
 20
214.513340
 42
0.115068
  0
VERTEX
  8
0
 10
158.625089
 20
215.939702
 42
0.094572
  0
VERTEX
  8
0
 10
159.653909
 20
218.194637
 42
0.059936
  0
VERTEX
  8
0
 10
160.000000
 20
221.071429
 42
-0.016575
  0
VERTEX
  8
0
 10
160.076664
 20
223.383441
 42
-0.133094
  0
VERTEX
  8
0
 10
160.419409
 20
224.381071
 42
-0.200592
  0
VERTEX
  8
0
 10
161.153473
 20
224.861281
 42
-0.045877
  0
VERTEX
  8
0
 10
162.662142
 20
225.000000
 42
-0.064736
  0
VERTEX
  8
0
 10
163.980016
 20
224.828653
 42
-0.022402
  0
VERTEX
  8
0
 10
165.814700
 20
224.254312
 42
-0.021823
  0
VERTEX
  8
0
 10
167.802117
 20
223.433148
 42
-0.023663
  0
VERTEX
  8
0
 10
169.655926
 20
222.461489
 42
0.052934
  0
VERTEX
  8
0
 10
173.039085
 20
220.933097
 42
0.136990
  0
VERTEX
  8
0
 10
175.689892
 20
220.810369
 42
0.206044
  0
VERTEX
  8
0
 10
177.361083
 20
222.035062
 42
0.133784
  0
VERTEX
  8
0
 10
178.000000
 20
224.380196
 42
0.238882
  0
VERTEX
  8
0
 10
175.658454
 20
229.001572
 42
0.085083
  0
VERTEX
  8
0
 10
168.842091
 20
232.404996
 42
0.070916
  0
VERTEX
  8
0
 10
159.835386
 20
233.782241
 42
0.078271
  0
SEQEND
  0
POLYLINE
  8
0
 66
1
 70
1
  0
VERTEX
  8
0
 10
55.227202
 20
186.827202
 42
0.119985
  0
VERTEX
  8
0
 10
54.342476
 20
185.373007
 42
0.077955
  0
VERTEX
  8
0
 10
54.042908
 20
183.419274
 42
0.079872
  0
VERTEX
  8
0
 10
54.355376
 20
181.517555
 42
0.140891
  0
VERTEX
  8
0
 10
55.250000
 20
180.216031
 42
0.116287
  0
VERTEX
  8
0
 10
57.546470
 20
179.086457
 42
0.031843
  0
VERTEX
  8
0
 10
61.555867
 20
178.431496
 42
0.029772
  0
VERTEX
  8
0
 10
65.548374
 20
178.276770
 42
0.169581
  0
VERTEX
  8
0
 10
67.509084
 20
179.007539
 42
0.131281
  0
VERTEX
  8
0
 10
68.611402
 20
180.561427
 42
0.098782
  0
VERTEX
  8
0
 10
68.944587
 20
182.639141
 42
0.103832
  0
VERTEX
  8
0
 10
68.454699
 20
184.599854
 42
0.161560
  0
VERTEX
  8
0
 10
67.250000
 20
185.836997
 42
0.066077
  0
VERTEX
  8
0
 10
64.360177
 20
186.879996
 42
0.033070
  0
VERTEX
  8
0
 10
60.510997
 20
187.455020
 42
0.029122
  0
VERTEX
  8
0
 10
56.872903
 20
187.542160
 42
0.190018
  0
SEQEND
  0
POLYLINE
  8
0
 66
1
 70
1
  0
VERTEX
  8
0
 10
39.086768
 20
185.604549
 42
0.072529
  0
VERTEX
  8
0
 10
38.635246
 20
184.864648
 42
0.041815
  0
VERTEX
  8
0
 10
38.306796
 20
183.871977
 42
0.040791
  0
VERTEX
  8
0
 10
38.139515
 20
182.797307
 42
0.053477
  0
VERTEX
  8
0
 10
38.173236
 20
181.805042
 42
0.079199
  0
VERTEX
  8
0
 10
38.556520
 20
180.561098
 42
0.176255
  0
VERTEX
  8
0
 10
39.261399
 20
179.884523
 42
0.091519
  0
VERTEX
  8
0
 10
40.577053
 20
179.571670
 42
0.012733
  0
VERTEX
  8
0
 10
43.391014
 20
179.500000
 42
0.047803
  0
VERTEX
  8
0
 10
46.970332
 20
179.842988
 42
0.132669
  0
VERTEX
  8
0
 10
49.221985
 20
180.944202
 42
0.215841
  0
VERTEX
  8
0
 10
49.995963
 20
182.645389
 42
0.141339
  0
VERTEX
  8
0
 10
49.393040
 20
184.750000
 42
0.174433
  0
VERTEX
  8
0
 10
47.609720
 20
186.150067
 42
0.059436
  0
VERTEX
  8
0
 10
44.335111
 20
186.818840
 42
0.059541
  0
VERTEX
  8
0
 10
41.012409
 20
186.698456
 42
0.182723
  0
SEQEND
  0
ENDSEC
  0
EOF
