  0
SECTION
  2
HEADER
  9
$ACADVER
  1
AC1006
  9
$EXTMIN
 10
0.000000
 20
0.000000
 30
0.000000
  9
$EXTMAX
 10
512.000000
 20
512.000000
 30
0.000000
  0
ENDSEC
  0
SECTION
  2
ENTITIES
  0
POLYLINE
  8
0
 66
1
 70
1
  0
VERTEX
  8
0
 10
172.000000
 20
497.666628
 42
0.000000
  0
VERTEX
  8
0
 10
172.000000
 20
483.333257
 42
0.000000
  0
VERTEX
  8
0
 10
195.000000
 20
469.434962
 42
-0.001934
  0
VERTEX
  8
0
 10
208.691060
 20
461.089354
 42
-0.018623
  0
VERTEX
  8
0
 10
214.362375
 20
457.304122
 42
-0.045374
  0
VERTEX
  8
0
 10
217.183328
 20
454.847554
 42
-0.193266
  0
VERTEX
  8
0
 10
218.000000
 20
452.813647
 42
-0.051277
  0
VERTEX
  8
0
 10
217.846297
 20
451.318846
 42
-0.160448
  0
VERTEX
  8
0
 10
217.347917
 20
450.454662
 42
-0.118839
  0
VERTEX
  8
0
 10
216.328368
 20
449.907007
 42
-0.022513
  0
VERTEX
  8
0
 10
214.250000
 20
449.461105
 42
0.043663
  0
VERTEX
  8
0
 10
207.940639
 20
447.825901
 42
0.062112
  0
VERTEX
  8
0
 10
202.768840
 20
445.231729
 42
0.066393
  0
VERTEX
  8
0
 10
198.644831
 20
441.603136
 42
0.059915
  0
VERTEX
  8
0
 10
195.448099
 20
436.899634
 42
0.069351
  0
VERTEX
  8
0
 10
193.556178
 20
431.530258
 42
0.075170
  0
VERTEX
  8
0
 10
193.278038
 20
425.997849
 42
0.044387
  0
VERTEX
  8
0
 10
194.698479
 20
418.553540
 42
0.009452
  0
VERTEX
  8
0
 10
198.549787
 20
405.931997
 42
0.000000
  0
VERTEX
  8
0
 10
204.394264
 20
388.000000
 42
0.000000
  0
VERTEX
  8
0
 10
212.207347
 20
388.000000
 42
0.000000
  0
VERTEX
  8
0
 10
220.020429
 20
388.000000
 42
0.000000
  0
VERTEX
  8
0
 10
216.340770
 20
382.458033
 42
-0.015286
  0
VERTEX
  8
0
 10
214.654206
 20
380.079027
 42
-0.037277
  0
VERTEX
  8
0
 10
213.235297
 20
378.467064
 42
-0.052501
  0
VERTEX
  8
0
 10
212.072057
 20
377.546273
 42
-0.237068
  0
VERTEX
  8
0
 10
211.235616
 20
377.463080
 42
-0.037839
  0
VERTEX
  8
0
 10
210.209254
 20
377.948843
 42
-0.000616
  0
VERTEX
  8
0
 10
204.675499
 20
381.109349
 42
-0.001603
  0
VERTEX
  8
0
 10
198.253196
 20
384.815239
 42
-0.001063
  0
VERTEX
  8
0
 10
190.905061
 20
389.107765
 42
0.000000
  0
VERTEX
  8
0
 10
172.000000
 20
400.205436
 42
0.000000
  0
VERTEX
  8
0
 10
172.000000
 20
430.590710
 42
0.000000
  0
VERTEX
  8
0
 10
172.000000
 20
460.975985
 42
0.000000
  0
VERTEX
  8
0
 10
140.015994
 20
484.987992
 42
0.000643
  0
VERTEX
  8
0
 10
127.719862
 20
494.194607
 42
0.001058
  0
VERTEX
  8
0
 10
117.292886
 20
501.946473
 42
0.000075
  0
VERTEX
  8
0
 10
107.909417
 20
508.889573
 42
0.160578
  0
VERTEX
  8
0
 10
107.574441
 20
509.000000
 42
0.217785
  0
VERTEX
  8
0
 10
107.289548
 20
508.869731
 42
0.002567
  0
VERTEX
  8
0
 10
105.918102
 20
507.267411
 42
0.007176
  0
VERTEX
  8
0
 10
104.351069
 20
505.362672
 42
0.004557
  0
VERTEX
  8
0
 10
102.578353
 20
503.101826
 42
0.000000
  0
VERTEX
  8
0
 10
98.039812
 20
497.203652
 42
0.000000
  0
VERTEX
  8
0
 10
127.019906
 20
475.485082
 42
0.000000
  0
VERTEX
  8
0
 10
156.000000
 20
453.766512
 42
0.000000
  0
VERTEX
  8
0
 10
156.000000
 20
422.861232
 42
0.000000
  0
VERTEX
  8
0
 10
156.000000
 20
391.955952
 42
0.000000
  0
VERTEX
  8
0
 10
160.352232
 20
389.227976
 42
0.006745
  0
VERTEX
  8
0
 10
163.118112
 20
387.545865
 42
0.000677
  0
VERTEX
  8
0
 10
169.778530
 20
383.629468
 42
0.000850
  0
VERTEX
  8
0
 10
177.730522
 20
378.986236
 42
0.000676
  0
VERTEX
  8
0
 10
186.330113
 20
374.000000
 42
0.000000
  0
VERTEX
  8
0
 10
207.955761
 20
361.500000
 42
0.000000
  0
VERTEX
  8
0
 10
207.977880
 20
357.789363
 42
-0.063022
  0
VERTEX
  8
0
 10
207.700048
 20
355.483605
 42
-0.109712
  0
VERTEX
  8
0
 10
206.841139
 20
353.768777
 42
-0.054919
  0
VERTEX
  8
0
 10
204.926513
 20
351.881622
 42
-0.006714
  0
VERTEX
  8
0
 10
200.250000
 20
348.289363
 42
0.000000
  0
VERTEX
  8
0
 10
192.500000
 20
342.500000
 42
0.000000
  0
VERTEX
  8
0
 10
152.057839
 20
342.000000
 42
0.000000
  0
VERTEX
  8
0
 10
111.615678
 20
341.500000
 42
0.000000
  0
VERTEX
  8
0
 10
103.738415
 20
307.059479
 42
-0.002204
  0
VERTEX
  8
0
 10
100.025006
 20
291.146998
 42
-0.006907
  0
VERTEX
  8
0
 10
97.334664
 20
280.499044
 42
-0.004551
  0
VERTEX
  8
0
 10
95.211042
 20
272.837695
 42
-0.159396
  0
VERTEX
  8
0
 10
94.180576
 20
271.317257
 42
-0.010636
  0
VERTEX
  8
0
 10
93.091870
 20
270.510450
 42
-0.000982
  0
VERTEX
  8
0
 10
90.349919
 20
268.575519
 42
-0.001266
  0
VERTEX
  8
0
 10
87.069436
 20
266.282581
 42
-0.000993
  0
VERTEX
  8
0
 10
83.500000
 20
263.811600
 42
0.028707
  0
VERTEX
  8
0
 10
69.820451
 20
253.174542
 42
0.051938
  0
VERTEX
  8
0
 10
60.174754
 20
242.793394
 42
0.049690
  0
VERTEX
  8
0
 10
52.608303
 20
230.329732
 42
0.024041
  0
VERTEX
  8
0
 10
45.365566
 20
213.114538
 42
0.023388
  0
VERTEX
  8
0
 10
41.382373
 20
200.391219
 42
0.001150
  0
VERTEX
  8
0
 10
30.304301
 20
157.776451
 42
0.000482
  0
VERTEX
  8
0
 10
18.701250
 20
112.536334
 42
0.064878
  0
VERTEX
  8
0
 10
18.021962
 20
106.927695
 42
0.081425
  0
VERTEX
  8
0
 10
18.602595
 20
103.576098
 42
0.043535
  0
VERTEX
  8
0
 10
20.325068
 20
99.729793
 42
0.042645
  0
VERTEX
  8
0
 10
22.772230
 20
96.100821
 42
0.060237
  0
VERTEX
  8
0
 10
25.563311
 20
93.383912
 42
0.030372
  0
VERTEX
  8
0
 10
27.882404
 20
91.828198
 42
0.065837
  0
VERTEX
  8
0
 10
29.856430
 20
90.996684
 42
0.052840
  0
VERTEX
  8
0
 10
32.239839
 20
90.608124
 42
0.014007
  0
VERTEX
  8
0
 10
36.098827
 20
90.500000
 42
0.014102
  0
VERTEX
  8
0
 10
39.614968
 20
90.599186
 42
0.039940
  0
VERTEX
  8
0
 10
42.044968
 20
90.932311
 42
0.054153
  0
VERTEX
  8
0
 10
43.936784
 20
91.568232
 42
0.051943
  0
VERTEX
  8
0
 10
45.676670
 20
92.602368
 42
0.061226
  0
VERTEX
  8
0
 10
47.682236
 20
94.517596
 42
0.000163
  0
VERTEX
  8
0
 10
71.821398
 20
124.016200
 42
0.001005
  0
VERTEX
  8
0
 10
98.993881
 20
157.380398
 42
0.000627
  0
VERTEX
  8
0
 10
130.715324
 20
196.590810
 42
-0.000359
  0
VERTEX
  8
0
 10
162.302426
 20
235.677988
 42
-0.000593
  0
VERTEX
  8
0
 10
189.038797
 20
268.634149
 42
-0.000026
  0
VERTEX
  8
0
 10
213.212677
 20
298.356371
 42
-0.142498
  0
VERTEX
  8
0
 10
213.812012
 20
298.770671
 42
-0.447993
  0
VERTEX
  8
0
 10
214.202409
 20
298.546824
 42
-0.005860
  0
VERTEX
  8
0
 10
214.815403
 20
295.460936
 42
-0.012049
  0
VERTEX
  8
0
 10
215.429605
 20
291.661612
 42
-0.007074
  0
VERTEX
  8
0
 10
215.990151
 20
287.090936
 42
0.000000
  0
VERTEX
  8
0
 10
217.286927
 20
275.117414
 42
0.000000
  0
VERTEX
  8
0
 10
186.644792
 20
236.808707
 42
0.000000
  0
VERTEX
  8
0
 10
156.002657
 20
198.500000
 42
0.000000
  0
VERTEX
  8
0
 10
156.001329
 20
159.606873
 42
0.000000
  0
VERTEX
  8
0
 10
156.000000
 20
120.713745
 42
0.000000
  0
VERTEX
  8
0
 10
126.860086
 20
65.606873
 42
0.000040
  0
VERTEX
  8
0
 10
115.625896
 20
44.357621
 42
0.000064
  0
VERTEX
  8
0
 10
106.020787
 20
26.180590
 42
0.000012
  0
VERTEX
  8
0
 10
97.542925
 20
10.130909
 42
0.003334
  0
VERTEX
  8
0
 10
96.837671
 20
8.773860
 42
0.195244
  0
VERTEX
  8
0
 10
96.746349
 20
7.726529
 42
0.139826
  0
VERTEX
  8
0
 10
97.394348
 20
6.729903
 42
0.054108
  0
VERTEX
  8
0
 10
99.101763
 20
5.540816
 42
0.008424
  0
VERTEX
  8
0
 10
102.748996
 20
3.626404
 42
0.000000
  0
VERTEX
  8
0
 10
109.542821
 20
0.205088
 42
0.000000
  0
VERTEX
  8
0
 10
140.771411
 20
59.174738
 42
0.000000
  0
VERTEX
  8
0
 10
172.000000
 20
118.144387
 42
0.000000
  0
VERTEX
  8
0
 10
172.000000
 20
156.082691
 42
0.000000
  0
VERTEX
  8
0
 10
172.000000
 20
194.020995
 42
0.000000
  0
VERTEX
  8
0
 10
200.250000
 20
229.457091
 42
0.000000
  0
VERTEX
  8
0
 10
228.500000
 20
264.893186
 42
0.000000
  0
VERTEX
  8
0
 10
238.250000
 20
264.946593
 42
0.000000
  0
VERTEX
  8
0
 10
248.000000
 20
265.000000
 42
0.000000
  0
VERTEX
  8
0
 10
248.000000
 20
257.205793
 42
0.000000
  0
VERTEX
  8
0
 10
248.000000
 20
249.411586
 42
0.000000
  0
VERTEX
  8
0
 10
242.318981
 20
247.662247
 42
0.060542
  0
VERTEX
  8
0
 10
233.239295
 20
243.611315
 42
0.043306
  0
VERTEX
  8
0
 10
224.224523
 20
237.077838
 42
0.039994
  0
VERTEX
  8
0
 10
215.753831
 20
228.466199
 42
0.034547
  0
VERTEX
  8
0
 10
208.298478
 20
218.200853
 42
0.052884
  0
VERTEX
  8
0
 10
197.808906
 20
196.673047
 42
0.038032
  0
VERTEX
  8
0
 10
190.626982
 20
170.893888
 42
0.036793
  0
VERTEX
  8
0
 10
187.237047
 20
143.273841
 42
0.039926
  0
VERTEX
  8
0
 10
188.082727
 20
116.211193
 42
0.001469
  0
VERTEX
  8
0
 10
188.509885
 20
112.479973
 42
0.002400
  0
VERTEX
  8
0
 10
188.896539
 20
109.319179
 42
0.000309
  0
VERTEX
  8
0
 10
189.255366
 20
106.512120
 42
0.211329
  0
VERTEX
  8
0
 10
189.332727
 20
106.384308
 42
0.183931
  0
VERTEX
  8
0
 10
189.479329
 20
106.347470
 42
0.000481
  0
VERTEX
  8
0
 10
191.595096
 20
106.599531
 42
0.002852
  0
VERTEX
  8
0
 10
193.988999
 20
106.900923
 42
0.001763
  0
VERTEX
  8
0
 10
196.799513
 20
107.281146
 42
0.000000
  0
VERTEX
  8
0
 10
204.099026
 20
108.294889
 42
0.000000
  0
VERTEX
  8
0
 10
203.412505
 20
117.647445
 42
0.000000
  0
VERTEX
  8
0
 10
202.725984
 20
127.000000
 42
0.000000
  0
VERTEX
  8
0
 10
256.154048
 20
127.000000
 42
0.000000
  0
VERTEX
  8
0
 10
309.582113
 20
127.000000
 42
0.000000
  0
VERTEX
  8
0
 10
308.821727
 20
118.327542
 42
-0.014077
  0
VERTEX
  8
0
 10
307.925268
 20
110.607745
 42
-0.011549
  0
VERTEX
  8
0
 10
306.546294
 20
102.420121
 42
-0.011663
  0
VERTEX
  8
0
 10
304.812568
 20
94.414796
 42
-0.015611
  0
VERTEX
  8
0
 10
302.846437
 20
87.250000
 42
0.000000
  0
VERTEX
  8
0
 10
300.919640
 20
81.000000
 42
0.000000
  0
VERTEX
  8
0
 10
256.040186
 20
81.000000
 42
0.000000
  0
VERTEX
  8
0
 10
211.160733
 20
81.000000
 42
0.000000
  0
VERTEX
  8
0
 10
209.502765
 20
86.250000
 42
-0.000161
  0
VERTEX
  8
0
 10
208.841939
 20
88.344879
 42
-0.000200
  0
VERTEX
  8
0
 10
208.227630
 20
90.297208
 42
-0.000164
  0
VERTEX
  8
0
 10
207.712721
 20
91.937795
 42
-0.001481
  0
VERTEX
  8
0
 10
207.490090
 20
92.655388
 42
0.274134
  0
VERTEX
  8
0
 10
206.981738
 20
93.117516
 42
0.065315
  0
VERTEX
  8
0
 10
205.793938
 20
93.203470
 42
0.035989
  0
VERTEX
  8
0
 10
203.865536
 20
92.951053
 42
0.009406
  0
VERTEX
  8
0
 10
200.817691
 20
92.266571
 42
0.008126
  0
VERTEX
  8
0
 10
198.332607
 20
91.616182
 42
0.010734
  0
VERTEX
  8
0
 10
196.092409
 20
90.938654
 42
0.008330
  0
VERTEX
  8
0
 10
194.253518
 20
90.305041
 42
0.096513
  0
VERTEX
  8
0
 10
193.603276
 20
89.914460
 42
0.273218
  0
VERTEX
  8
0
 10
193.090600
 20
88.280511
 42
0.012882
  0
VERTEX
  8
0
 10
194.604928
 20
82.474664
 42
0.018545
  0
VERTEX
  8
0
 10
196.901123
 20
75.498813
 42
0.012901
  0
VERTEX
  8
0
 10
199.984335
 20
67.799147
 42
0.032199
  0
VERTEX
  8
0
 10
207.244849
 20
53.543201
 42
0.041188
  0
VERTEX
  8
0
 10
215.776473
 20
41.535888
 42
0.045098
  0
VERTEX
  8
0
 10
225.392531
 20
32.012205
 42
0.056655
  0
VERTEX
  8
0
 10
235.894625
 20
25.172783
 42
0.008341
  0
VERTEX
  8
0
 10
239.225045
 20
23.574760
 42
0.010775
  0
VERTEX
  8
0
 10
242.336092
 20
22.225755
 42
0.008699
  0
VERTEX
  8
0
 10
244.966717
 20
21.204828
 42
0.088430
  0
VERTEX
  8
0
 10
246.115795
 20
21.000000
 42
-0.185982
  0
VERTEX
  8
0
 10
247.117911
 20
20.613894
 42
-0.155518
  0
VERTEX
  8
0
 10
247.694582
 20
19.622203
 42
-0.049421
  0
VERTEX
  8
0
 10
247.948380
 20
17.506388
 42
-0.005155
  0
VERTEX
  8
0
 10
248.000000
 20
12.500000
 42
0.000000
  0
VERTEX
  8
0
 10
248.000000
 20
4.000000
 42
0.000000
  0
VERTEX
  8
0
 10
256.000000
 20
4.000000
 42
0.000000
  0
VERTEX
  8
0
 10
264.000000
 20
4.000000
 42
0.000000
  0
VERTEX
  8
0
 10
264.000000
 20
12.310950
 42
0.000000
  0
VERTEX
  8
0
 10
264.000000
 20
20.621901
 42
0.000000
  0
VERTEX
  8
0
 10
268.770677
 20
21.844588
 42
0.041897
  0
VERTEX
  8
0
 10
273.883361
 20
23.622345
 42
0.031157
  0
VERTEX
  8
0
 10
279.184970
 20
26.386981
 42
0.028479
  0
VERTEX
  8
0
 10
284.583042
 20
30.079300
 42
0.022516
  0
VERTEX
  8
0
 10
289.985861
 20
34.647395
 42
0.123945
  0
VERTEX
  8
0
 10
314.484498
 20
72.264392
 42
0.070956
  0
VERTEX
  8
0
 10
324.720486
 20
125.789098
 42
0.069480
  0
VERTEX
  8
0
 10
319.619531
 20
181.409326
 42
0.104828
  0
VERTEX
  8
0
 10
299.006882
 20
225.297495
 42
0.036054
  0
VERTEX
  8
0
 10
291.746301
 20
233.574807
 42
0.036847
  0
VERTEX
  8
0
 10
283.421503
 20
240.658171
 42
0.039490
  0
VERTEX
  8
0
 10
274.903500
 20
245.908797
 42
0.069127
  0
VERTEX
  8
0
 10
267.094072
 20
248.631186
 42
0.000000
  0
VERTEX
  8
0
 10
264.000000
 20
249.250000
 42
0.000000
  0
VERTEX
  8
0
 10
264.000000
 20
257.125000
 42
0.000000
  0
VERTEX
  8
0
 10
264.000000
 20
265.000000
 42
0.000000
  0
VERTEX
  8
0
 10
273.750000
 20
264.946593
 42
0.000000
  0
VERTEX
  8
0
 10
283.500000
 20
264.893186
 42
0.000000
  0
VERTEX
  8
0
 10
311.750000
 20
229.457091
 42
0.000000
  0
VERTEX
  8
0
 10
340.000000
 20
194.020995
 42
0.000000
  0
VERTEX
  8
0
 10
340.000000
 20
156.082691
 42
0.000000
  0
VERTEX
  8
0
 10
340.000000
 20
118.144387
 42
0.000000
  0
VERTEX
  8
0
 10
371.228589
 20
59.174738
 42
0.000000
  0
VERTEX
  8
0
 10
402.457179
 20
0.205088
 42
0.000000
  0
VERTEX
  8
0
 10
409.251004
 20
3.626404
 42
0.008424
  0
VERTEX
  8
0
 10
412.898237
 20
5.540816
 42
0.054108
  0
VERTEX
  8
0
 10
414.605652
 20
6.729903
 42
0.139826
  0
VERTEX
  8
0
 10
415.253651
 20
7.726529
 42
0.195244
  0
VERTEX
  8
0
 10
415.162329
 20
8.773860
 42
0.003334
  0
VERTEX
  8
0
 10
414.457075
 20
10.130909
 42
0.000012
  0
VERTEX
  8
0
 10
405.979213
 20
26.180590
 42
0.000064
  0
VERTEX
  8
0
 10
396.374104
 20
44.357621
 42
0.000040
  0
VERTEX
  8
0
 10
385.139914
 20
65.606873
 42
0.000000
  0
VERTEX
  8
0
 10
356.000000
 20
120.713745
 42
0.000000
  0
VERTEX
  8
0
 10
355.998671
 20
159.606873
 42
0.000000
  0
VERTEX
  8
0
 10
355.997343
 20
198.500000
 42
0.000000
  0
VERTEX
  8
0
 10
325.400088
 20
236.752594
 42
0.000000
  0
VERTEX
  8
0
 10
294.802834
 20
275.005188
 42
0.000000
  0
VERTEX
  8
0
 10
296.039544
 20
285.752594
 42
-0.004396
  0
VERTEX
  8
0
 10
296.561469
 20
289.962039
 42
-0.006140
  0
VERTEX
  8
0
 10
297.107394
 20
293.715513
 42
-0.003862
  0
VERTEX
  8
0
 10
297.627913
 20
296.852412
 42
-0.077358
  0
VERTEX
  8
0
 10
297.938120
 20
297.768300
 42
-0.536913
  0
VERTEX
  8
0
 10
298.655998
 20
297.843476
 42
-0.000167
  0
VERTEX
  8
0
 10
320.450756
 20
271.399730
 42
-0.001757
  0
VERTEX
  8
0
 10
346.468278
 20
239.583693
 42
-0.000751
  0
VERTEX
  8
0
 10
381.049993
 20
196.859198
 42
0.000630
  0
VERTEX
  8
0
 10
412.861439
 20
157.537882
 42
0.001011
  0
VERTEX
  8
0
 10
440.109664
 20
124.082206
 42
0.000163
  0
VERTEX
  8
0
 10
464.319072
 20
94.499800
 42
0.061874
  0
VERTEX
  8
0
 10
466.323330
 20
92.590897
 42
0.052137
  0
VERTEX
  8
0
 10
468.061553
 20
91.564805
 42
0.053589
  0
VERTEX
  8
0
 10
469.958669
 20
90.931887
 42
0.039606
  0
VERTEX
  8
0
 10
472.393509
 20
90.599280
 42
0.014149
  0
VERTEX
  8
0
 10
475.901173
 20
90.500000
 42
0.014007
  0
VERTEX
  8
0
 10
479.760161
 20
90.608124
 42
0.052840
  0
VERTEX
  8
0
 10
482.143570
 20
90.996684
 42
0.065837
  0
VERTEX
  8
0
 10
484.117596
 20
91.828198
 42
0.030372
  0
VERTEX
  8
0
 10
486.436689
 20
93.383912
 42
0.060237
  0
VERTEX
  8
0
 10
489.227770
 20
96.100821
 42
0.042645
  0
VERTEX
  8
0
 10
491.674932
 20
99.729793
 42
0.043535
  0
VERTEX
  8
0
 10
493.397405
 20
103.576098
 42
0.081425
  0
VERTEX
  8
0
 10
493.978038
 20
106.927695
 42
0.064878
  0
VERTEX
  8
0
 10
493.298750
 20
112.536334
 42
0.000482
  0
VERTEX
  8
0
 10
481.695699
 20
157.776451
 42
0.001150
  0
VERTEX
  8
0
 10
470.617627
 20
200.391219
 42
0.023388
  0
VERTEX
  8
0
 10
466.634434
 20
213.114538
 42
0.024013
  0
VERTEX
  8
0
 10
459.276608
 20
230.606002
 42
0.052135
  0
VERTEX
  8
0
 10
451.662922
 20
243.013767
 42
0.052435
  0
VERTEX
  8
0
 10
441.676345
 20
253.535137
 42
0.024549
  0
VERTEX
  8
0
 10
426.796570
 20
265.026467
 42
0.000000
  0
VERTEX
  8
0
 10
416.093140
 20
272.483739
 42
0.000000
  0
VERTEX
  8
0
 10
414.426385
 20
279.991870
 42
0.001213
  0
VERTEX
  8
0
 10
413.431741
 20
284.421553
 42
0.000186
  0
VERTEX
  8
0
 10
411.428943
 20
293.225737
 42
0.000208
  0
VERTEX
  8
0
 10
409.057576
 20
303.612265
 42
0.000181
  0
VERTEX
  8
0
 10
406.562875
 20
314.500000
 42
0.000000
  0
VERTEX
  8
0
 10
400.366121
 20
341.500000
 42
0.000000
  0
VERTEX
  8
0
 10
359.933060
 20
342.000000
 42
0.000000
  0
VERTEX
  8
0
 10
319.500000
 20
342.500000
 42
0.000000
  0
VERTEX
  8
0
 10
311.750000
 20
348.371162
 42
-0.006794
  0
VERTEX
  8
0
 10
307.118738
 20
351.979746
 42
-0.053236
  0
VERTEX
  8
0
 10
305.183902
 20
353.900997
 42
-0.106617
  0
VERTEX
  8
0
 10
304.310580
 20
355.619751
 42
-0.066419
  0
VERTEX
  8
0
 10
304.027581
 20
357.871162
 42
0.000000
  0
VERTEX
  8
0
 10
304.055162
 20
361.500000
 42
0.000000
  0
VERTEX
  8
0
 10
325.718949
 20
374.000000
 42
0.000770
  0
VERTEX
  8
0
 10
334.329985
 20
378.986251
 42
0.000970
  0
VERTEX
  8
0
 10
342.284660
 20
383.629468
 42
0.000769
  0
VERTEX
  8
0
 10
348.944756
 20
387.548157
 42
0.007765
  0
VERTEX
  8
0
 10
351.691369
 20
389.227976
 42
0.000000
  0
VERTEX
  8
0
 10
356.000000
 20
391.955952
 42
0.000000
  0
VERTEX
  8
0
 10
356.000000
 20
422.872941
 42
0.000000
  0
VERTEX
  8
0
 10
356.000000
 20
453.789929
 42
0.000000
  0
VERTEX
  8
0
 10
385.052703
 20
475.402429
 42
0.000000
  0
VERTEX
  8
0
 10
414.105406
 20
497.014929
 42
0.000000
  0
VERTEX
  8
0
 10
409.482317
 20
503.022980
 42
0.013592
  0
VERTEX
  8
0
 10
407.467530
 20
505.499080
 42
0.030395
  0
VERTEX
  8
0
 10
405.777508
 20
507.238521
 42
0.036871
  0
VERTEX
  8
0
 10
404.435696
 20
508.291407
 42
0.294385
  0
VERTEX
  8
0
 10
403.685578
 20
508.305677
 42
0.021004
  0
VERTEX
  8
0
 10
402.790967
 20
507.699432
 42
0.000096
  0
VERTEX
  8
0
 10
393.679487
 20
500.947061
 42
0.000457
  0
VERTEX
  8
0
 10
383.330833
 20
493.260090
 42
0.000289
  0
VERTEX
  8
0
 10
371.270393
 20
484.273655
 42
0.000000
  0
VERTEX
  8
0
 10
340.028856
 20
460.966988
 42
0.000000
  0
VERTEX
  8
0
 10
339.764428
 20
430.377686
 42
0.000000
  0
VERTEX
  8
0
 10
339.500000
 20
399.788383
 42
0.000000
  0
VERTEX
  8
0
 10
320.000000
 20
388.406497
 42
-0.001227
  0
VERTEX
  8
0
 10
312.480512
 20
384.042180
 42
-0.001976
  0
VERTEX
  8
0
 10
306.049402
 20
380.364425
 42
-0.000323
  0
VERTEX
  8
0
 10
300.343226
 20
377.135956
 42
-0.124135
  0
VERTEX
  8
0
 10
299.891580
 20
377.012306
 42
-0.230954
  0
VERTEX
  8
0
 10
299.535411
 20
377.177261
 42
-0.005747
  0
VERTEX
  8
0
 10
298.389169
 20
378.619240
 42
-0.011230
  0
VERTEX
  8
0
 10
297.074969
 20
380.392935
 42
-0.007273
  0
VERTEX
  8
0
 10
295.631365
 20
382.500000
 42
0.000000
  0
VERTEX
  8
0
 10
291.979571
 20
388.000000
 42
0.000000
  0
VERTEX
  8
0
 10
299.761180
 20
388.000000
 42
0.000000
  0
VERTEX
  8
0
 10
307.542788
 20
388.000000
 42
0.000000
  0
VERTEX
  8
0
 10
313.271394
 20
405.280425
 42
0.008878
  0
VERTEX
  8
0
 10
317.329085
 20
418.289436
 42
0.046798
  0
VERTEX
  8
0
 10
318.747672
 20
425.623417
 42
0.079793
  0
VERTEX
  8
0
 10
318.405879
 20
431.155282
 42
0.060410
  0
VERTEX
  8
0
 10
316.364915
 20
436.895239
 42
0.054336
  0
VERTEX
  8
0
 10
313.463849
 20
441.412655
 42
0.063517
  0
VERTEX
  8
0
 10
309.787952
 20
444.938024
 42
0.062136
  0
VERTEX
  8
0
 10
305.273665
 20
447.484050
 42
0.048827
  0
VERTEX
  8
0
 10
299.889389
 20
449.101544
 42
-0.009968
  0
VERTEX
  8
0
 10
296.396667
 20
449.861313
 42
-0.084377
  0
VERTEX
  8
0
 10
294.922509
 20
450.488895
 42
-0.174836
  0
VERTEX
  8
0
 10
294.235327
 20
451.385771
 42
-0.077551
  0
VERTEX
  8
0
 10
294.005169
 20
452.880105
 42
-0.199181
  0
VERTEX
  8
0
 10
294.825243
 20
454.846077
 42
-0.039855
  0
VERTEX
  8
0
 10
297.785732
 20
457.353475
 42
-0.017760
  0
VERTEX
  8
0
 10
303.585931
 20
461.216399
 42
-0.002028
  0
VERTEX
  8
0
 10
317.005169
 20
469.406332
 42
0.000000
  0
VERTEX
  8
0
 10
340.000000
 20
483.312665
 42
0.000000
  0
VERTEX
  8
0
 10
340.000000
 20
497.656332
 42
0.000000
  0
VERTEX
  8
0
 10
340.000000
 20
512.000000
 42
0.000000
  0
VERTEX
  8
0
 10
332.500000
 20
512.000000
 42
0.000000
  0
VERTEX
  8
0
 10
325.000000
 20
512.000000
 42
0.000000
  0
VERTEX
  8
0
 10
325.000000
 20
502.088471
 42
0.000000
  0
VERTEX
  8
0
 10
325.000000
 20
492.176941
 42
0.000000
  0
VERTEX
  8
0
 10
302.004077
 20
478.338471
 42
0.000000
  0
VERTEX
  8
0
 10
279.008153
 20
464.500000
 42
0.000000
  0
VERTEX
  8
0
 10
279.004077
 20
457.250000
 42
-0.005677
  0
VERTEX
  8
0
 10
278.950395
 20
452.745054
 42
-0.069861
  0
VERTEX
  8
0
 10
278.672639
 20
451.053660
 42
-0.209647
  0
VERTEX
  8
0
 10
278.002603
 20
450.282846
 42
-0.110931
  0
VERTEX
  8
0
 10
276.743424
 20
450.000000
 42
-0.161242
  0
VERTEX
  8
0
 10
275.246223
 20
450.495712
 42
-0.029794
  0
VERTEX
  8
0
 10
272.992124
 20
452.390599
 42
-0.021674
  0
VERTEX
  8
0
 10
269.959744
 20
455.525037
 42
-0.006689
  0
VERTEX
  8
0
 10
265.665143
 20
460.500000
 42
0.004317
  0
VERTEX
  8
0
 10
262.223983
 20
464.524751
 42
0.006787
  0
VERTEX
  8
0
 10
259.191883
 20
467.915625
 42
0.002379
  0
VERTEX
  8
0
 10
256.541599
 20
470.772339
 42
0.207427
  0
VERTEX
  8
0
 10
256.016438
 20
471.000000
 42
0.207616
  0
VERTEX
  8
0
 10
255.491477
 20
470.772200
 42
0.002384
  0
VERTEX
  8
0
 10
252.845222
 20
467.915625
 42
0.006797
  0
VERTEX
  8
0
 10
249.817771
 20
464.524751
 42
0.004323
  0
VERTEX
  8
0
 10
246.382129
 20
460.500000
 42
-0.006599
  0
VERTEX
  8
0
 10
242.056813
 20
455.479478
 42
-0.022150
  0
VERTEX
  8
0
 10
239.040351
 20
452.360172
 42
-0.031363
  0
VERTEX
  8
0
 10
236.806552
 20
450.497076
 42
-0.159445
  0
VERTEX
  8
0
 10
235.287410
 20
450.000000
 42
-0.107338
  0
VERTEX
  8
0
 10
234.005114
 20
450.278487
 42
-0.212322
  0
VERTEX
  8
0
 10
233.328351
 20
451.042905
 42
-0.070887
  0
VERTEX
  8
0
 10
233.049092
 20
452.723271
 42
-0.005621
  0
VERTEX
  8
0
 10
232.995201
 20
457.250000
 42
0.000000
  0
VERTEX
  8
0
 10
232.990403
 20
464.500000
 42
0.000000
  0
VERTEX
  8
0
 10
209.995201
 20
478.383667
 42
0.000000
  0
VERTEX
  8
0
 10
187.000000
 20
492.267335
 42
0.000000
  0
VERTEX
  8
0
 10
187.000000
 20
502.133667
 42
0.000000
  0
VERTEX
  8
0
 10
187.000000
 20
512.000000
 42
0.000000
  0
VERTEX
  8
0
 10
179.500000
 20
512.000000
 42
0.000000
  0
VERTEX
  8
0
 10
172.000000
 20
512.000000
 42
0.000000
  0
SEQEND
  0
POLYLINE
  8
0
 66
1
 70
1
  0
VERTEX
  8
0
 10
262.334949
 20
440.933118
 42
0.000000
  0
VERTEX
  8
0
 10
268.169898
 20
434.000000
 42
0.000000
  0
VERTEX
  8
0
 10
283.630403
 20
434.000000
 42
-0.002518
  0
VERTEX
  8
0
 10
293.682287
 20
433.949370
 42
-0.032719
  0
VERTEX
  8
0
 10
297.411042
 20
433.667356
 42
-0.088276
  0
VERTEX
  8
0
 10
299.639775
 20
432.936194
 42
-0.073206
  0
VERTEX
  8
0
 10
301.646346
 20
431.444564
 42
-0.105198
  0
VERTEX
  8
0
 10
303.253269
 20
428.969108
 42
-0.117958
  0
VERTEX
  8
0
 10
303.624620
 20
426.157443
 42
-0.051127
  0
VERTEX
  8
0
 10
302.721662
 20
421.829463
 42
-0.006438
  0
VERTEX
  8
0
 10
299.703597
 20
412.744190
 42
0.000000
  0
VERTEX
  8
0
 10
296.500000
 20
403.500000
 42
0.000000
  0
VERTEX
  8
0
 10
256.088890
 20
403.500000
 42
0.000000
  0
VERTEX
  8
0
 10
215.677779
 20
403.500000
 42
0.000000
  0
VERTEX
  8
0
 10
211.859098
 20
414.906424
 42
-0.023374
  0
VERTEX
  8
0
 10
208.553660
 20
426.562977
 42
-0.242519
  0
VERTEX
  8
0
 10
209.731683
 20
431.249234
 42
-0.199109
  0
VERTEX
  8
0
 10
214.437035
 20
433.554725
 42
-0.015630
  0
VERTEX
  8
0
 10
228.677425
 20
434.000000
 42
0.000000
  0
VERTEX
  8
0
 10
243.909837
 20
434.000000
 42
0.000000
  0
VERTEX
  8
0
 10
249.704918
 20
440.922195
 42
-0.003899
  0
VERTEX
  8
0
 10
251.962372
 20
443.576387
 42
-0.006152
  0
VERTEX
  8
0
 10
253.944570
 20
445.814203
 42
-0.001995
  0
VERTEX
  8
0
 10
255.681099
 20
447.711472
 42
-0.203692
  0
VERTEX
  8
0
 10
256.000000
 20
447.855313
 42
-0.213995
  0
VERTEX
  8
0
 10
256.319533
 20
447.720296
 42
-0.002062
  0
VERTEX
  8
0
 10
258.067141
 20
445.826424
 42
-0.006362
  0
VERTEX
  8
0
 10
260.062187
 20
443.589959
 42
-0.004021
  0
SEQEND
  0
POLYLINE
  8
0
 66
1
 70
1
  0
VERTEX
  8
0
 10
269.175670
 20
385.251301
 42
-0.068300
  0
VERTEX
  8
0
 10
276.220543
 20
380.895906
 42
-0.059132
  0
VERTEX
  8
0
 10
282.227635
 20
374.607970
 42
-0.059624
  0
VERTEX
  8
0
 10
286.552250
 20
367.147291
 42
-0.072208
  0
VERTEX
  8
0
 10
288.645996
 20
359.341202
 42
0.000000
  0
VERTEX
  8
0
 10
289.242626
 20
354.303591
 42
0.000000
  0
VERTEX
  8
0
 10
283.371313
 20
349.791088
 42
-0.020266
  0
VERTEX
  8
0
 10
278.417128
 20
346.293346
 42
-0.018247
  0
VERTEX
  8
0
 10
273.022801
 20
343.076395
 42
-0.015690
  0
VERTEX
  8
0
 10
268.108224
 20
340.580769
 42
-0.110064
  0
VERTEX
  8
0
 10
265.501859
 20
340.000000
 42
0.086755
  0
VERTEX
  8
0
 10
264.860710
 20
339.887910
 42
0.066370
  0
VERTEX
  8
0
 10
264.227784
 20
339.559448
 42
0.065899
  0
VERTEX
  8
0
 10
263.698698
 20
339.073570
 42
0.082670
  0
VERTEX
  8
0
 10
263.361722
 20
338.500249
 42
0.119936
  0
VERTEX
  8
0
 10
263.136248
 20
336.743880
 42
0.006650
  0
VERTEX
  8
0
 10
263.827078
 20
331.217160
 42
0.005576
  0
VERTEX
  8
0
 10
264.664469
 20
325.631318
 42
0.157647
  0
VERTEX
  8
0
 10
265.322787
 20
324.343880
 42
0.281804
  0
VERTEX
  8
0
 10
266.400406
 20
324.084692
 42
0.004547
  0
VERTEX
  8
0
 10
272.574712
 20
326.147390
 42
0.011419
  0
VERTEX
  8
0
 10
278.404414
 20
328.304188
 42
0.043705
  0
VERTEX
  8
0
 10
281.862780
 20
330.037243
 42
-0.015141
  0
VERTEX
  8
0
 10
283.185078
 20
330.797186
 42
-0.023440
  0
VERTEX
  8
0
 10
284.373923
 20
331.363375
 42
-0.019894
  0
VERTEX
  8
0
 10
285.344395
 20
331.726244
 42
-0.283075
  0
VERTEX
  8
0
 10
285.689153
 20
331.644181
 42
-0.228073
  0
VERTEX
  8
0
 10
285.950888
 20
330.896960
 42
-0.000182
  0
VERTEX
  8
0
 10
283.674234
 20
310.639347
 42
-0.001753
  0
VERTEX
  8
0
 10
281.583083
 20
292.659372
 42
-0.013426
  0
VERTEX
  8
0
 10
280.345313
 20
284.250000
 42
0.000000
  0
VERTEX
  8
0
 10
279.777418
 20
281.000000
 42
0.000000
  0
VERTEX
  8
0
 10
255.888709
 20
281.000000
 42
-0.002412
  0
VERTEX
  8
0
 10
246.728619
 20
281.044196
 42
-0.004022
  0
VERTEX
  8
0
 10
239.017308
 20
281.180655
 42
-0.000651
  0
VERTEX
  8
0
 10
232.244126
 20
281.363850
 42
-0.405936
  0
VERTEX
  8
0
 10
232.000000
 20
281.614995
 42
0.030536
  0
VERTEX
  8
0
 10
231.970186
 20
282.102715
 42
0.000071
  0
VERTEX
  8
0
 10
231.093749
 20
289.236388
 42
0.000469
  0
VERTEX
  8
0
 10
230.097606
 20
297.272658
 42
0.000292
  0
VERTEX
  8
0
 10
228.914889
 20
306.696551
 42
-0.002003
  0
VERTEX
  8
0
 10
227.766104
 20
316.110779
 42
-0.003258
  0
VERTEX
  8
0
 10
226.874777
 20
324.114807
 42
-0.000541
  0
VERTEX
  8
0
 10
226.141823
 20
331.184595
 42
-0.225621
  0
VERTEX
  8
0
 10
226.302110
 20
331.635443
 42
-0.281691
  0
VERTEX
  8
0
 10
226.652055
 20
331.719689
 42
-0.020487
  0
VERTEX
  8
0
 10
227.623510
 20
331.360808
 42
-0.023843
  0
VERTEX
  8
0
 10
228.814301
 20
330.796537
 42
-0.015427
  0
VERTEX
  8
0
 10
230.137220
 20
330.037243
 42
0.043703
  0
VERTEX
  8
0
 10
233.591517
 20
328.306208
 42
0.011377
  0
VERTEX
  8
0
 10
239.422371
 20
326.148366
 42
0.004520
  0
VERTEX
  8
0
 10
245.599778
 20
324.083045
 42
0.281881
  0
VERTEX
  8
0
 10
246.674773
 20
324.341440
 42
0.138299
  0
VERTEX
  8
0
 10
246.857658
 20
324.667978
 42
0.002313
  0
VERTEX
  8
0
 10
247.336764
 20
326.704434
 42
0.005763
  0
VERTEX
  8
0
 10
247.859042
 20
329.097103
 42
0.003775
  0
VERTEX
  8
0
 10
248.408242
 20
331.865558
 42
0.000000
  0
VERTEX
  8
0
 10
249.771325
 20
339.019290
 42
0.000000
  0
VERTEX
  8
0
 10
247.135662
 20
339.651545
 42
-0.043659
  0
VERTEX
  8
0
 10
243.610189
 20
340.830414
 42
-0.023483
  0
VERTEX
  8
0
 10
239.493326
 20
342.854320
 42
-0.020020
  0
VERTEX
  8
0
 10
234.836635
 20
345.670474
 42
-0.012753
  0
VERTEX
  8
0
 10
229.644137
 20
349.295351
 42
0.000000
  0
VERTEX
  8
0
 10
222.788274
 20
354.346274
 42
0.000000
  0
VERTEX
  8
0
 10
223.428089
 20
359.169439
 42
-0.070380
  0
VERTEX
  8
0
 10
225.953441
 20
368.209261
 42
-0.070675
  0
VERTEX
  8
0
 10
230.884796
 20
376.179726
 42
-0.070525
  0
VERTEX
  8
0
 10
237.851705
 20
382.475090
 42
-0.069595
  0
VERTEX
  8
0
 10
246.324175
 20
386.620388
 42
-0.062229
  0
VERTEX
  8
0
 10
251.326304
 20
387.591535
 42
-0.031837
  0
VERTEX
  8
0
 10
257.730292
 20
387.615942
 42
-0.031788
  0
VERTEX
  8
0
 10
264.139306
 20
386.821057
 42
-0.057659
  0
SEQEND
  0
POLYLINE
  8
0
 66
1
 70
1
  0
VERTEX
  8
0
 10
211.178011
 20
325.337358
 42
-0.176228
  0
VERTEX
  8
0
 10
209.891107
 20
320.717544
 42
-0.009426
  0
VERTEX
  8
0
 10
200.658597
 20
308.301768
 42
-0.004835
  0
VERTEX
  8
0
 10
182.699973
 20
285.536934
 42
-0.000261
  0
VERTEX
  8
0
 10
125.228297
 20
214.191790
 42
-0.000252
  0
VERTEX
  8
0
 10
92.048265
 20
173.088587
 42
-0.000411
  0
VERTEX
  8
0
 10
63.877524
 20
138.285383
 42
-0.000034
  0
VERTEX
  8
0
 10
38.577630
 20
107.085866
 42
-0.049201
  0
VERTEX
  8
0
 10
37.522101
 20
106.018343
 42
-0.109958
  0
VERTEX
  8
0
 10
36.280799
 20
105.382033
 42
-0.179636
  0
VERTEX
  8
0
 10
35.117965
 20
105.499680
 42
-0.175743
  0
VERTEX
  8
0
 10
34.296144
 20
106.353073
 42
-0.105039
  0
VERTEX
  8
0
 10
34.000000
 20
107.747205
 42
-0.062174
  0
VERTEX
  8
0
 10
34.533519
 20
112.021157
 42
-0.000324
  0
VERTEX
  8
0
 10
44.988279
 20
153.132561
 42
-0.001059
  0
VERTEX
  8
0
 10
54.760573
 20
191.120033
 42
-0.015229
  0
VERTEX
  8
0
 10
58.671352
 20
204.500000
 42
-0.024721
  0
VERTEX
  8
0
 10
64.476858
 20
219.726861
 42
-0.047940
  0
VERTEX
  8
0
 10
70.822640
 20
231.085120
 42
-0.052397
  0
VERTEX
  8
0
 10
78.800518
 20
240.366854
 42
-0.036133
  0
VERTEX
  8
0
 10
89.554079
 20
249.131816
 42
0.003491
  0
VERTEX
  8
0
 10
94.918621
 20
252.950403
 42
0.000193
  0
VERTEX
  8
0
 10
111.615886
 20
265.022193
 42
0.000298
  0
VERTEX
  8
0
 10
131.470208
 20
279.406182
 42
0.000218
  0
VERTEX
  8
0
 10
153.500000
 20
295.400975
 42
0.000000
  0
VERTEX
  8
0
 10
209.500000
 20
336.097259
 42
0.000000
  0
VERTEX
  8
0
 10
210.178011
 20
332.798630
 42
-0.011623
  0
VERTEX
  8
0
 10
210.461068
 20
331.238462
 42
-0.005750
  0
VERTEX
  8
0
 10
210.751441
 20
329.246196
 42
-0.005703
  0
VERTEX
  8
0
 10
211.005421
 20
327.171748
 42
-0.008306
  0
SEQEND
  0
POLYLINE
  8
0
 66
1
 70
1
  0
VERTEX
  8
0
 10
364.500000
 20
291.148121
 42
-0.000158
  0
VERTEX
  8
0
 10
387.866359
 20
274.208751
 42
-0.000232
  0
VERTEX
  8
0
 10
408.397022
 20
259.300698
 42
-0.000107
  0
VERTEX
  8
0
 10
425.889029
 20
246.581009
 42
-0.004340
  0
VERTEX
  8
0
 10
429.681352
 20
243.771444
 42
-0.050133
  0
VERTEX
  8
0
 10
436.409868
 20
237.547215
 42
-0.042349
  0
VERTEX
  8
0
 10
442.199056
 20
229.763305
 42
-0.035451
  0
VERTEX
  8
0
 10
447.415417
 20
219.839797
 42
-0.019535
  0
VERTEX
  8
0
 10
452.426797
 20
207.071989
 42
-0.019717
  0
VERTEX
  8
0
 10
456.158023
 20
194.816281
 42
-0.001031
  0
VERTEX
  8
0
 10
466.487648
 20
155.033613
 42
-0.000383
  0
VERTEX
  8
0
 10
477.398316
 20
112.519268
 42
-0.062694
  0
VERTEX
  8
0
 10
478.000000
 20
107.739556
 42
-0.116462
  0
VERTEX
  8
0
 10
477.628283
 20
106.165326
 42
-0.248119
  0
VERTEX
  8
0
 10
476.639835
 20
105.458734
 42
-0.172594
  0
VERTEX
  8
0
 10
475.168492
 20
105.768671
 42
-0.061317
  0
VERTEX
  8
0
 10
473.461065
 20
107.126715
 42
-0.023830
  0
VERTEX
  8
0
 10
471.698679
 20
109.101003
 42
-0.000054
  0
VERTEX
  8
0
 10
446.828496
 20
139.793473
 42
-0.000361
  0
VERTEX
  8
0
 10
418.847125
 20
174.384073
 42
-0.000224
  0
VERTEX
  8
0
 10
386.070265
 20
215.000000
 42
-0.000446
  0
VERTEX
  8
0
 10
339.330018
 20
273.078031
 42
-0.003085
  0
VERTEX
  8
0
 10
316.608515
 20
301.722871
 42
-0.001817
  0
VERTEX
  8
0
 10
302.113136
 20
320.369660
 42
-0.165352
  0
VERTEX
  8
0
 10
301.005213
 20
323.610429
 42
-0.021486
  0
VERTEX
  8
0
 10
301.189252
 20
328.065134
 42
-0.029171
  0
VERTEX
  8
0
 10
301.761086
 20
332.048521
 42
-0.030158
  0
VERTEX
  8
0
 10
302.543044
 20
334.973798
 42
-0.479603
  0
VERTEX
  8
0
 10
303.382766
 20
335.284992
 42
-0.021467
  0
VERTEX
  8
0
 10
304.256921
 20
334.709244
 42
-0.000025
  0
VERTEX
  8
0
 10
321.796813
 20
322.043851
 42
-0.000233
  0
VERTEX
  8
0
 10
341.416287
 20
307.861362
 42
-0.000144
  0
SEQEND
  0
POLYLINE
  8
0
 66
1
 70
1
  0
VERTEX
  8
0
 10
169.450000
 20
326.109699
 42
-0.032404
  0
VERTEX
  8
0
 10
165.959095
 20
323.239169
 42
-0.000375
  0
VERTEX
  8
0
 10
141.612431
 20
305.760343
 42
-0.000051
  0
VERTEX
  8
0
 10
115.831801
 20
287.285343
 42
-0.367039
  0
VERTEX
  8
0
 10
115.341066
 20
287.325601
 42
-0.251662
  0
VERTEX
  8
0
 10
115.242182
 20
287.654191
 42
-0.000602
  0
VERTEX
  8
0
 10
116.272570
 20
292.686242
 42
-0.003561
  0
VERTEX
  8
0
 10
117.489062
 20
298.385307
 42
-0.002183
  0
VERTEX
  8
0
 10
119.000170
 20
305.086567
 42
0.000010
  0
VERTEX
  8
0
 10
120.572550
 20
311.921009
 42
0.000014
  0
VERTEX
  8
0
 10
121.981330
 20
318.045742
 42
0.000009
  0
VERTEX
  8
0
 10
123.167163
 20
323.202303
 42
0.000183
  0
VERTEX
  8
0
 10
123.522456
 20
324.750000
 42
0.000000
  0
VERTEX
  8
0
 10
124.038104
 20
327.000000
 42
0.000000
  0
VERTEX
  8
0
 10
147.219052
 20
327.000000
 42
-0.003219
  0
VERTEX
  8
0
 10
156.467105
 20
326.940458
 42
-0.006788
  0
VERTEX
  8
0
 10
163.641389
 20
326.750644
 42
-0.003011
  0
VERTEX
  8
0
 10
169.311215
 20
326.489372
 42
-0.661099
  0
SEQEND
  0
POLYLINE
  8
0
 66
1
 70
1
  0
VERTEX
  8
0
 10
388.477544
 20
324.750000
 42
0.000183
  0
VERTEX
  8
0
 10
388.832837
 20
323.202303
 42
0.000009
  0
VERTEX
  8
0
 10
390.018670
 20
318.045742
 42
0.000014
  0
VERTEX
  8
0
 10
391.427450
 20
311.921009
 42
0.000010
  0
VERTEX
  8
0
 10
392.999830
 20
305.086567
 42
-0.002027
  0
VERTEX
  8
0
 10
394.512742
 20
298.387026
 42
-0.003312
  0
VERTEX
  8
0
 10
395.734711
 20
292.693523
 42
-0.000521
  0
VERTEX
  8
0
 10
396.775478
 20
287.656370
 42
-0.252177
  0
VERTEX
  8
0
 10
396.683721
 20
287.350388
 42
-0.366926
  0
VERTEX
  8
0
 10
396.223060
 20
287.312505
 42
-0.000045
  0
VERTEX
  8
0
 10
370.381655
 20
305.815031
 42
-0.000340
  0
VERTEX
  8
0
 10
345.945404
 20
323.339938
 42
-0.031426
  0
VERTEX
  8
0
 10
342.550000
 20
326.117644
 42
-0.663056
  0
VERTEX
  8
0
 10
342.685528
 20
326.490429
 42
-0.002857
  0
VERTEX
  8
0
 10
348.417125
 20
326.750730
 42
-0.006661
  0
VERTEX
  8
0
 10
355.608914
 20
326.940261
 42
-0.003257
  0
VERTEX
  8
0
 10
364.780948
 20
327.000000
 42
0.000000
  0
VERTEX
  8
0
 10
387.961896
 20
327.000000
 42
0.000000
  0
SEQEND
  0
POLYLINE
  8
0
 66
1
 70
1
  0
VERTEX
  8
0
 10
268.752644
 20
231.498596
 42
-0.052235
  0
VERTEX
  8
0
 10
274.006913
 20
228.409822
 42
-0.029845
  0
VERTEX
  8
0
 10
279.663705
 20
223.688595
 42
-0.028523
  0
VERTEX
  8
0
 10
285.085165
 20
217.968510
 42
-0.031105
  0
VERTEX
  8
0
 10
289.653444
 20
211.824894
 42
-0.003676
  0
VERTEX
  8
0
 10
291.319241
 20
209.225088
 42
-0.005604
  0
VERTEX
  8
0
 10
292.723199
 20
206.941726
 42
-0.002253
  0
VERTEX
  8
0
 10
293.891956
 20
204.972187
 42
-0.133550
  0
VERTEX
  8
0
 10
294.000000
 20
204.574894
 42
-0.385533
  0
VERTEX
  8
0
 10
293.791086
 20
204.344224
 42
-0.005600
  0
VERTEX
  8
0
 10
291.796875
 20
204.168875
 42
-0.011939
  0
VERTEX
  8
0
 10
289.375723
 20
204.041341
 42
-0.007188
  0
VERTEX
  8
0
 10
286.500000
 20
204.000000
 42
0.000000
  0
VERTEX
  8
0
 10
279.000000
 20
204.000000
 42
0.000000
  0
VERTEX
  8
0
 10
279.000000
 20
196.500000
 42
0.000000
  0
VERTEX
  8
0
 10
279.000000
 20
189.000000
 42
0.000000
  0
VERTEX
  8
0
 10
289.959820
 20
189.000000
 42
0.000000
  0
VERTEX
  8
0
 10
300.919640
 20
189.000000
 42
0.000000
  0
VERTEX
  8
0
 10
302.846437
 20
182.750000
 42
-0.015611
  0
VERTEX
  8
0
 10
304.812568
 20
175.585204
 42
-0.011663
  0
VERTEX
  8
0
 10
306.546294
 20
167.579879
 42
-0.011549
  0
VERTEX
  8
0
 10
307.925268
 20
159.392255
 42
-0.014077
  0
VERTEX
  8
0
 10
308.821727
 20
151.672458
 42
0.000000
  0
VERTEX
  8
0
 10
309.582113
 20
143.000000
 42
0.000000
  0
VERTEX
  8
0
 10
256.291056
 20
143.000000
 42
0.000000
  0
VERTEX
  8
0
 10
203.000000
 20
143.000000
 42
0.000000
  0
VERTEX
  8
0
 10
203.000000
 20
146.927641
 42
-0.033000
  0
VERTEX
  8
0
 10
203.504532
 20
154.563709
 42
-0.012380
  0
VERTEX
  8
0
 10
205.179360
 20
165.163478
 42
-0.012483
  0
VERTEX
  8
0
 10
207.503062
 20
176.259593
 42
-0.019000
  0
VERTEX
  8
0
 10
210.123397
 20
185.750000
 42
0.000000
  0
VERTEX
  8
0
 10
211.155104
 20
189.000000
 42
0.000000
  0
VERTEX
  8
0
 10
222.077552
 20
189.000000
 42
0.000000
  0
VERTEX
  8
0
 10
233.000000
 20
189.000000
 42
0.000000
  0
VERTEX
  8
0
 10
233.000000
 20
196.500000
 42
0.000000
  0
VERTEX
  8
0
 10
233.000000
 20
204.000000
 42
0.000000
  0
VERTEX
  8
0
 10
225.437588
 20
204.000000
 42
0.000000
  0
VERTEX
  8
0
 10
217.875176
 20
204.000000
 42
0.000000
  0
VERTEX
  8
0
 10
220.687588
 20
209.240208
 42
-0.049936
  0
VERTEX
  8
0
 10
224.367066
 20
214.707635
 42
-0.019851
  0
VERTEX
  8
0
 10
230.417776
 20
221.443745
 42
-0.019350
  0
VERTEX
  8
0
 10
236.868088
 20
227.581283
 42
-0.063267
  0
VERTEX
  8
0
 10
241.734467
 20
230.878467
 42
-0.049056
  0
VERTEX
  8
0
 10
248.544723
 20
233.528517
 42
-0.062611
  0
VERTEX
  8
0
 10
255.201134
 20
234.520967
 42
-0.062813
  0
VERTEX
  8
0
 10
261.878984
 20
233.833987
 42
-0.049815
  0
SEQEND
  0
POLYLINE
  8
0
 66
1
 70
1
  0
VERTEX
  8
0
 10
293.630739
 20
64.480104
 42
-0.057745
  0
VERTEX
  8
0
 10
291.835657
 20
61.046925
 42
-0.013727
  0
VERTEX
  8
0
 10
288.056301
 20
55.804034
 42
-0.014822
  0
VERTEX
  8
0
 10
283.728421
 20
50.470470
 42
-0.025784
  0
VERTEX
  8
0
 10
279.791040
 20
46.351636
 42
-0.030047
  0
VERTEX
  8
0
 10
273.877675
 20
41.408317
 42
-0.050776
  0
VERTEX
  8
0
 10
268.325087
 20
38.119475
 42
-0.056504
  0
VERTEX
  8
0
 10
262.672458
 20
36.243791
 42
-0.049476
  0
VERTEX
  8
0
 10
256.481087
 20
35.568534
 42
-0.017648
  0
VERTEX
  8
0
 10
252.465936
 20
35.671056
 42
-0.042455
  0
VERTEX
  8
0
 10
249.525724
 20
36.102439
 42
-0.041094
  0
VERTEX
  8
0
 10
246.644561
 20
37.033874
 42
-0.015631
  0
VERTEX
  8
0
 10
242.796536
 20
38.780442
 42
-0.051981
  0
VERTEX
  8
0
 10
236.893171
 20
42.491506
 42
-0.029888
  0
VERTEX
  8
0
 10
230.596536
 20
48.068169
 42
-0.029537
  0
VERTEX
  8
0
 10
224.865612
 20
54.508894
 42
-0.042440
  0
VERTEX
  8
0
 10
220.662446
 20
60.878866
 42
0.000000
  0
VERTEX
  8
0
 10
217.875176
 20
66.000000
 42
0.000000
  0
VERTEX
  8
0
 10
256.044577
 20
66.000000
 42
-0.000990
  0
VERTEX
  8
0
 10
278.111571
 20
65.956286
 42
-0.009114
  0
VERTEX
  8
0
 10
287.683332
 20
65.743865
 42
-0.013331
  0
VERTEX
  8
0
 10
293.071194
 20
65.381928
 42
-0.496529
  0
SEQEND
  0
POLYLINE
  8
0
 66
1
 70
1
  0
VERTEX
  8
0
 10
122.214483
 20
257.717180
 42
0.000000
  0
VERTEX
  8
0
 10
116.997285
 20
252.434361
 42
0.000000
  0
VERTEX
  8
0
 10
122.496903
 20
247.003059
 42
0.000000
  0
VERTEX
  8
0
 10
127.996521
 20
241.571757
 42
0.000000
  0
VERTEX
  8
0
 10
132.998260
 20
246.498286
 42
0.010150
  0
VERTEX
  8
0
 10
134.914404
 20
248.463824
 42
0.014402
  0
VERTEX
  8
0
 10
136.530739
 20
250.293483
 42
0.010390
  0
VERTEX
  8
0
 10
137.784083
 20
251.862579
 42
0.164770
  0
VERTEX
  8
0
 10
138.000000
 20
252.500000
 42
0.188862
  0
VERTEX
  8
0
 10
137.533245
 20
253.691632
 42
0.004443
  0
VERTEX
  8
0
 10
133.341329
 20
258.141679
 42
0.004282
  0
VERTEX
  8
0
 10
129.061001
 20
262.529594
 42
0.199912
  0
VERTEX
  8
0
 10
127.931491
 20
263.000000
 42
0.185916
  0
VERTEX
  8
0
 10
127.606488
 20
262.874827
 42
0.002669
  0
VERTEX
  8
0
 10
126.045947
 20
261.448172
 42
0.006950
  0
VERTEX
  8
0
 10
124.250266
 20
259.741992
 42
0.004476
  0
SEQEND
  0
POLYLINE
  8
0
 66
1
 70
1
  0
VERTEX
  8
0
 10
100.712408
 20
236.215651
 42
0.009753
  0
VERTEX
  8
0
 10
98.907084
 20
234.309804
 42
0.013865
  0
VERTEX
  8
0
 10
97.384270
 20
232.542002
 42
0.009826
  0
VERTEX
  8
0
 10
96.200110
 20
231.027840
 42
0.162419
  0
VERTEX
  8
0
 10
96.000000
 20
230.428059
 42
0.167333
  0
VERTEX
  8
0
 10
96.206867
 20
229.827239
 42
0.009380
  0
VERTEX
  8
0
 10
97.469261
 20
228.272351
 42
0.013591
  0
VERTEX
  8
0
 10
99.085492
 20
226.458642
 42
0.009477
  0
VERTEX
  8
0
 10
101.001740
 20
224.498286
 42
0.000000
  0
VERTEX
  8
0
 10
106.003479
 20
219.571757
 42
0.000000
  0
VERTEX
  8
0
 10
111.503097
 20
225.003059
 42
0.000000
  0
VERTEX
  8
0
 10
117.002715
 20
230.434361
 42
0.000000
  0
VERTEX
  8
0
 10
111.785517
 20
235.717180
 42
0.005118
  0
VERTEX
  8
0
 10
109.744620
 20
237.741872
 42
0.007865
  0
VERTEX
  8
0
 10
107.932920
 20
239.448172
 42
0.003390
  0
VERTEX
  8
0
 10
106.364264
 20
240.860305
 42
0.183560
  0
VERTEX
  8
0
 10
105.996568
 20
241.000000
 42
0.181870
  0
VERTEX
  8
0
 10
105.632408
 20
240.863009
 42
0.004046
  0
VERTEX
  8
0
 10
104.208499
 20
239.594597
 42
0.008630
  0
VERTEX
  8
0
 10
102.559779
 20
238.049210
 42
0.005664
  0
SEQEND
  0
POLYLINE
  8
0
 66
1
 70
1
  0
VERTEX
  8
0
 10
79.000000
 20
214.500000
 42
0.000000
  0
VERTEX
  8
0
 10
73.545175
 20
208.976564
 42
0.000000
  0
VERTEX
  8
0
 10
79.045175
 20
203.476564
 42
0.000000
  0
VERTEX
  8
0
 10
84.545175
 20
197.976564
 42
0.000000
  0
VERTEX
  8
0
 10
90.000000
 20
203.500000
 42
0.000000
  0
VERTEX
  8
0
 10
95.454825
 20
209.023436
 42
0.000000
  0
VERTEX
  8
0
 10
89.954825
 20
214.523436
 42
0.000000
  0
VERTEX
  8
0
 10
84.454825
 20
220.023436
 42
0.000000
  0
SEQEND
  0
POLYLINE
  8
0
 66
1
 70
1
  0
VERTEX
  8
0
 10
378.587853
 20
257.368770
 42
0.000000
  0
VERTEX
  8
0
 10
373.675706
 20
251.848104
 42
0.000000
  0
VERTEX
  8
0
 10
378.826656
 20
246.697154
 42
0.000000
  0
VERTEX
  8
0
 10
383.977606
 20
241.546204
 42
0.000000
  0
VERTEX
  8
0
 10
389.490160
 20
246.990282
 42
0.000000
  0
VERTEX
  8
0
 10
395.002715
 20
252.434361
 42
0.000000
  0
VERTEX
  8
0
 10
389.785517
 20
257.717180
 42
0.005274
  0
VERTEX
  8
0
 10
387.747237
 20
259.738016
 42
0.008208
  0
VERTEX
  8
0
 10
385.943962
 20
261.431933
 42
0.003383
  0
VERTEX
  8
0
 10
384.380898
 20
262.833445
 42
0.209830
  0
VERTEX
  8
0
 10
384.034160
 20
262.944718
 42
0.172304
  0
VERTEX
  8
0
 10
383.695615
 20
262.783521
 42
0.002880
  0
VERTEX
  8
0
 10
382.213966
 20
261.283980
 42
0.007046
  0
VERTEX
  8
0
 10
380.509129
 20
259.488635
 42
0.004580
  0
SEQEND
  0
POLYLINE
  8
0
 66
1
 70
1
  0
VERTEX
  8
0
 10
400.214483
 20
235.717180
 42
0.000000
  0
VERTEX
  8
0
 10
394.997285
 20
230.434361
 42
0.000000
  0
VERTEX
  8
0
 10
400.496903
 20
225.003059
 42
0.000000
  0
VERTEX
  8
0
 10
405.996521
 20
219.571757
 42
0.000000
  0
VERTEX
  8
0
 10
410.998260
 20
224.498286
 42
0.010150
  0
VERTEX
  8
0
 10
412.914404
 20
226.463824
 42
0.014402
  0
VERTEX
  8
0
 10
414.530739
 20
228.293483
 42
0.010390
  0
VERTEX
  8
0
 10
415.784083
 20
229.862579
 42
0.164770
  0
VERTEX
  8
0
 10
416.000000
 20
230.500000
 42
0.188862
  0
VERTEX
  8
0
 10
415.533245
 20
231.691632
 42
0.004443
  0
VERTEX
  8
0
 10
411.341329
 20
236.141679
 42
0.004282
  0
VERTEX
  8
0
 10
407.061001
 20
240.529594
 42
0.199912
  0
VERTEX
  8
0
 10
405.931491
 20
241.000000
 42
0.185916
  0
VERTEX
  8
0
 10
405.606488
 20
240.874827
 42
0.002669
  0
VERTEX
  8
0
 10
404.045947
 20
239.448172
 42
0.006950
  0
VERTEX
  8
0
 10
402.250266
 20
237.741992
 42
0.004476
  0
SEQEND
  0
POLYLINE
  8
0
 66
1
 70
1
  0
VERTEX
  8
0
 10
422.000000
 20
214.500000
 42
0.000000
  0
VERTEX
  8
0
 10
416.545175
 20
208.976564
 42
0.000000
  0
VERTEX
  8
0
 10
422.045175
 20
203.476564
 42
0.000000
  0
VERTEX
  8
0
 10
427.545175
 20
197.976564
 42
0.000000
  0
VERTEX
  8
0
 10
433.000000
 20
203.500000
 42
0.000000
  0
VERTEX
  8
0
 10
438.454825
 20
209.023436
 42
0.000000
  0
VERTEX
  8
0
 10
432.954825
 20
214.523436
 42
0.000000
  0
VERTEX
  8
0
 10
427.454825
 20
220.023436
 42
0.000000
  0
SEQEND
  0
POLYLINE
  8
0
 66
1
 70
1
  0
VERTEX
  8
0
 10
248.000000
 20
196.500000
 42
0.000000
  0
VERTEX
  8
0
 10
248.000000
 20
189.000000
 42
0.000000
  0
VERTEX
  8
0
 10
256.000000
 20
189.000000
 42
0.000000
  0
VERTEX
  8
0
 10
264.000000
 20
189.000000
 42
0.000000
  0
VERTEX
  8
0
 10
264.000000
 20
196.500000
 42
0.000000
  0
VERTEX
  8
0
 10
264.000000
 20
204.000000
 42
0.000000
  0
VERTEX
  8
0
 10
256.000000
 20
204.000000
 42
0.000000
  0
VERTEX
  8
0
 10
248.000000
 20
204.000000
 42
0.000000
  0
SEQEND
  0
ENDSEC
  0
EOF
