  0
SECTION
  2
HEADER
  9
$ACADVER
  1
AC1006
  9
$EXTMIN
 10
0.000000
 20
0.000000
 30
0.000000
  9
$EXTMAX
 10
512.000000
 20
512.000000
 30
0.000000
  0
ENDSEC
  0
SECTION
  2
ENTITIES
  0
POLYLINE
  8
0
 66
1
 70
1
  0
VERTEX
  8
0
 10
26.500000
 20
511.069933
 42
0.055614
  0
VERTEX
  8
0
 10
19.222954
 20
508.308471
 42
0.056039
  0
VERTEX
  8
0
 10
12.753714
 20
504.016539
 42
0.056110
  0
VERTEX
  8
0
 10
7.405980
 20
498.400947
 42
0.056028
  0
VERTEX
  8
0
 10
3.437579
 20
491.734312
 42
0.050744
  0
VERTEX
  8
0
 10
1.405614
 20
485.675562
 42
0.045664
  0
VERTEX
  8
0
 10
0.541242
 20
479.111206
 42
0.045235
  0
VERTEX
  8
0
 10
0.880291
 20
472.436103
 42
0.047609
  0
VERTEX
  8
0
 10
2.418379
 20
466.048788
 42
0.070455
  0
VERTEX
  8
0
 10
5.413466
 20
460.183497
 42
0.043531
  0
VERTEX
  8
0
 10
10.408920
 20
454.250426
 42
0.043221
  0
VERTEX
  8
0
 10
16.423416
 20
449.209240
 42
0.064297
  0
VERTEX
  8
0
 10
22.500000
 20
446.024186
 42
0.054766
  0
VERTEX
  8
0
 10
29.003428
 20
444.398576
 42
0.046759
  0
VERTEX
  8
0
 10
36.066900
 20
444.101238
 42
0.046704
  0
VERTEX
  8
0
 10
43.071554
 20
445.122087
 42
0.054292
  0
VERTEX
  8
0
 10
49.400569
 20
447.407551
 42
-0.010274
  0
VERTEX
  8
0
 10
51.620253
 20
448.437570
 42
-0.014605
  0
VERTEX
  8
0
 10
53.636265
 20
449.253824
 42
-0.010552
  0
VERTEX
  8
0
 10
55.325168
 20
449.840627
 42
-0.167597
  0
VERTEX
  8
0
 10
55.923524
 20
449.829368
 42
-0.061028
  0
VERTEX
  8
0
 10
56.582336
 20
449.492369
 42
-0.000358
  0
VERTEX
  8
0
 10
62.276649
 20
445.634640
 42
-0.001502
  0
VERTEX
  8
0
 10
68.761750
 20
441.205905
 42
-0.000954
  0
VERTEX
  8
0
 10
76.287726
 20
436.011960
 42
0.000000
  0
VERTEX
  8
0
 10
95.752193
 20
422.523920
 42
0.000000
  0
VERTEX
  8
0
 10
87.484970
 20
419.829360
 42
0.060877
  0
VERTEX
  8
0
 10
61.234565
 20
407.577528
 42
0.057095
  0
VERTEX
  8
0
 10
38.074891
 20
389.140522
 42
0.056747
  0
VERTEX
  8
0
 10
19.563340
 20
365.823270
 42
0.058657
  0
VERTEX
  8
0
 10
7.010793
 20
339.191607
 42
0.024891
  0
VERTEX
  8
0
 10
3.473082
 20
326.581095
 42
0.034556
  0
VERTEX
  8
0
 10
1.665996
 20
314.989409
 42
0.017009
  0
VERTEX
  8
0
 10
0.807885
 20
298.357924
 42
0.001960
  0
VERTEX
  8
0
 10
0.298330
 20
260.934716
 42
0.001898
  0
VERTEX
  8
0
 10
0.080905
 20
224.079772
 42
0.015006
  0
VERTEX
  8
0
 10
0.557347
 20
207.011499
 42
0.033347
  0
VERTEX
  8
0
 10
1.847891
 20
196.706425
 42
0.069554
  0
VERTEX
  8
0
 10
4.465190
 20
189.068694
 42
0.057486
  0
VERTEX
  8
0
 10
7.582731
 20
184.350245
 42
0.037090
  0
VERTEX
  8
0
 10
12.161780
 20
179.654922
 42
0.036945
  0
VERTEX
  8
0
 10
17.417885
 20
175.659767
 42
0.054567
  0
VERTEX
  8
0
 10
22.585881
 20
173.053752
 42
0.048644
  0
VERTEX
  8
0
 10
28.318518
 20
171.523766
 42
0.041631
  0
VERTEX
  8
0
 10
34.550150
 20
171.021758
 42
0.041306
  0
VERTEX
  8
0
 10
40.831495
 20
171.559465
 42
0.045901
  0
VERTEX
  8
0
 10
46.712487
 20
173.122043
 42
0.066396
  0
VERTEX
  8
0
 10
52.658154
 20
176.247982
 42
0.042572
  0
VERTEX
  8
0
 10
58.622559
 20
181.289345
 42
0.042751
  0
VERTEX
  8
0
 10
63.607156
 20
187.224972
 42
0.070477
  0
VERTEX
  8
0
 10
66.582742
 20
193.048788
 42
0.067415
  0
VERTEX
  8
0
 10
68.431399
 20
202.310727
 42
0.068498
  0
VERTEX
  8
0
 10
67.733134
 20
211.678559
 42
0.068118
  0
VERTEX
  8
0
 10
64.521354
 20
220.554083
 42
0.065462
  0
VERTEX
  8
0
 10
59.009825
 20
228.373515
 42
0.000000
  0
VERTEX
  8
0
 10
54.840465
 20
232.896737
 42
0.000000
  0
VERTEX
  8
0
 10
67.670232
 20
256.578093
 42
-0.007540
  0
VERTEX
  8
0
 10
77.238189
 20
273.620102
 42
-0.033524
  0
VERTEX
  8
0
 10
83.657719
 20
283.131928
 42
-0.055186
  0
VERTEX
  8
0
 10
89.543259
 20
289.189871
 42
-0.055580
  0
VERTEX
  8
0
 10
96.598085
 20
293.797114
 42
-0.036368
  0
VERTEX
  8
0
 10
102.531288
 20
296.269166
 42
-0.036281
  0
VERTEX
  8
0
 10
108.764804
 20
297.857790
 42
-0.029926
  0
VERTEX
  8
0
 10
116.143731
 20
298.726403
 42
-0.014337
  0
VERTEX
  8
0
 10
125.683659
 20
299.000000
 42
0.000000
  0
VERTEX
  8
0
 10
137.000000
 20
299.000000
 42
0.000000
  0
VERTEX
  8
0
 10
137.000000
 20
290.127808
 42
0.000000
  0
VERTEX
  8
0
 10
137.000000
 20
281.255616
 42
0.000000
  0
VERTEX
  8
0
 10
133.250000
 20
280.633172
 42
0.071687
  0
VERTEX
  8
0
 10
125.472231
 20
278.162184
 42
0.054324
  0
VERTEX
  8
0
 10
117.873538
 20
273.405760
 42
0.052876
  0
VERTEX
  8
0
 10
111.271732
 20
266.959475
 42
0.058882
  0
VERTEX
  8
0
 10
106.439618
 20
259.487237
 42
0.020776
  0
VERTEX
  8
0
 10
104.806859
 20
255.779981
 42
0.047905
  0
VERTEX
  8
0
 10
103.973171
 20
252.854091
 42
0.037060
  0
VERTEX
  8
0
 10
103.599294
 20
249.397825
 42
0.008417
  0
VERTEX
  8
0
 10
103.500000
 20
243.500000
 42
0.008652
  0
VERTEX
  8
0
 10
103.599020
 20
237.778353
 42
0.033390
  0
VERTEX
  8
0
 10
103.958389
 20
234.245173
 42
0.043875
  0
VERTEX
  8
0
 10
104.729623
 20
231.296387
 42
0.023719
  0
VERTEX
  8
0
 10
106.160407
 20
227.824854
 42
0.052002
  0
VERTEX
  8
0
 10
110.612993
 20
220.434979
 42
0.055000
  0
VERTEX
  8
0
 10
116.421542
 20
214.275388
 42
0.056012
  0
VERTEX
  8
0
 10
123.328378
 20
209.621563
 42
0.057809
  0
VERTEX
  8
0
 10
131.024244
 20
206.676138
 42
0.000000
  0
VERTEX
  8
0
 10
136.500000
 20
205.277715
 42
0.000000
  0
VERTEX
  8
0
 10
137.147350
 20
192.888858
 42
0.013380
  0
VERTEX
  8
0
 10
137.887960
 20
183.529311
 42
0.016786
  0
VERTEX
  8
0
 10
139.096381
 20
174.910042
 42
0.018030
  0
VERTEX
  8
0
 10
140.780788
 20
166.965080
 42
0.021602
  0
VERTEX
  8
0
 10
142.953612
 20
159.634830
 42
0.000000
  0
VERTEX
  8
0
 10
144.866571
 20
154.074717
 42
0.000000
  0
VERTEX
  8
0
 10
85.683285
 20
153.787359
 42
0.000519
  0
VERTEX
  8
0
 10
46.939035
 20
153.559050
 42
0.007939
  0
VERTEX
  8
0
 10
33.558356
 20
153.253827
 42
0.023090
  0
VERTEX
  8
0
 10
26.349217
 20
152.640627
 42
0.075566
  0
VERTEX
  8
0
 10
21.766665
 20
151.313602
 42
0.061653
  0
VERTEX
  8
0
 10
12.728806
 20
145.699207
 42
0.078983
  0
VERTEX
  8
0
 10
6.175858
 20
138.437513
 42
0.079776
  0
VERTEX
  8
0
 10
2.241580
 20
129.562948
 42
0.064417
  0
VERTEX
  8
0
 10
0.894400
 20
119.211226
 42
0.016484
  0
VERTEX
  8
0
 10
1.020278
 20
115.304341
 42
0.033082
  0
VERTEX
  8
0
 10
1.424230
 20
112.245800
 42
0.035476
  0
VERTEX
  8
0
 10
2.204807
 20
109.407460
 42
0.022209
  0
VERTEX
  8
0
 10
3.495194
 20
106.211226
 42
0.043603
  0
VERTEX
  8
0
 10
6.354448
 20
101.162222
 42
0.037899
  0
VERTEX
  8
0
 10
10.170067
 20
96.426226
 42
0.037932
  0
VERTEX
  8
0
 10
14.652769
 20
92.324700
 42
0.043901
  0
VERTEX
  8
0
 10
19.500000
 20
89.166584
 42
0.027518
  0
VERTEX
  8
0
 10
22.633805
 20
87.711557
 42
0.050988
  0
VERTEX
  8
0
 10
25.328709
 20
86.943121
 42
0.036061
  0
VERTEX
  8
0
 10
28.688642
 20
86.593122
 42
0.007907
  0
VERTEX
  8
0
 10
34.500000
 20
86.500770
 42
0.007898
  0
VERTEX
  8
0
 10
40.628605
 20
86.597109
 42
0.042816
  0
VERTEX
  8
0
 10
43.928172
 20
86.985240
 42
0.055188
  0
VERTEX
  8
0
 10
46.733092
 20
87.892821
 42
0.018473
  0
VERTEX
  8
0
 10
50.599493
 20
89.809106
 42
0.000000
  0
VERTEX
  8
0
 10
56.698986
 20
93.118212
 42
0.000000
  0
VERTEX
  8
0
 10
76.099493
 20
85.412513
 42
-0.001461
  0
VERTEX
  8
0
 10
83.589318
 20
82.412256
 42
-0.002281
  0
VERTEX
  8
0
 10
90.019302
 20
79.780536
 42
-0.000626
  0
VERTEX
  8
0
 10
95.606678
 20
77.455673
 42
-0.080276
  0
VERTEX
  8
0
 10
96.242812
 20
77.060595
 42
-0.511885
  0
VERTEX
  8
0
 10
96.206235
 20
76.661502
 42
-0.009402
  0
VERTEX
  8
0
 10
94.052347
 20
75.444299
 42
-0.014677
  0
VERTEX
  8
0
 10
91.235165
 20
74.026633
 42
-0.008283
  0
VERTEX
  8
0
 10
87.742812
 20
72.465767
 42
-0.011795
  0
VERTEX
  8
0
 10
82.345454
 20
70.309043
 42
-0.031207
  0
VERTEX
  8
0
 10
78.367598
 20
69.103916
 42
-0.031267
  0
VERTEX
  8
0
 10
74.275037
 20
68.404515
 42
-0.011879
  0
VERTEX
  8
0
 10
68.500000
 20
67.924148
 42
0.028129
  0
VERTEX
  8
0
 10
60.587444
 20
67.006361
 42
0.056086
  0
VERTEX
  8
0
 10
54.543297
 20
65.243624
 42
0.061610
  0
VERTEX
  8
0
 10
49.412413
 20
62.313428
 42
0.041449
  0
VERTEX
  8
0
 10
44.354578
 20
57.834186
 42
0.034911
  0
VERTEX
  8
0
 10
40.261284
 20
52.908307
 42
0.055768
  0
VERTEX
  8
0
 10
37.582622
 20
48.143356
 42
0.054607
  0
VERTEX
  8
0
 10
35.988142
 20
42.831253
 42
0.031931
  0
VERTEX
  8
0
 10
35.200676
 20
36.225929
 42
0.029710
  0
VERTEX
  8
0
 10
35.230073
 20
29.817217
 42
0.050873
  0
VERTEX
  8
0
 10
36.110895
 20
24.548525
 42
0.051467
  0
VERTEX
  8
0
 10
38.027994
 20
19.608001
 42
0.031212
  0
VERTEX
  8
0
 10
41.229969
 20
14.210082
 42
0.082365
  0
VERTEX
  8
0
 10
46.927467
 20
8.241389
 42
0.057413
  0
VERTEX
  8
0
 10
54.979293
 20
3.528220
 42
0.057140
  0
VERTEX
  8
0
 10
63.942058
 20
0.748593
 42
0.079080
  0
VERTEX
  8
0
 10
72.341480
 20
0.507153
 42
0.058626
  0
VERTEX
  8
0
 10
80.116178
 20
2.461028
 42
0.053960
  0
VERTEX
  8
0
 10
87.461651
 20
6.202880
 42
0.055437
  0
VERTEX
  8
0
 10
93.645835
 20
11.304031
 42
0.070759
  0
VERTEX
  8
0
 10
97.988516
 20
17.272280
 42
0.000000
  0
VERTEX
  8
0
 10
100.273662
 20
21.579822
 42
0.000000
  0
VERTEX
  8
0
 10
178.386831
 20
32.249196
 42
0.000000
  0
VERTEX
  8
0
 10
256.500000
 20
42.918569
 42
0.000000
  0
VERTEX
  8
0
 10
332.844663
 20
32.459285
 42
0.000216
  0
VERTEX
  8
0
 10
362.208791
 20
28.449301
 42
0.000351
  0
VERTEX
  8
0
 10
387.147987
 20
25.072415
 42
0.000037
  0
VERTEX
  8
0
 10
409.449253
 20
22.070343
 42
0.033447
  0
VERTEX
  8
0
 10
410.499642
 20
22.000000
 42
-0.184865
  0
VERTEX
  8
0
 10
411.156605
 20
21.748506
 42
-0.028057
  0
VERTEX
  8
0
 10
412.166586
 20
20.734666
 42
-0.028272
  0
VERTEX
  8
0
 10
413.271844
 20
19.342060
 42
-0.021064
  0
VERTEX
  8
0
 10
414.334331
 20
17.692480
 42
0.045541
  0
VERTEX
  8
0
 10
417.404838
 20
13.401588
 42
0.030575
  0
VERTEX
  8
0
 10
421.619605
 20
9.083249
 42
0.030681
  0
VERTEX
  8
0
 10
426.300083
 20
5.336398
 42
0.047965
  0
VERTEX
  8
0
 10
430.780302
 20
2.783895
 42
0.032316
  0
VERTEX
  8
0
 10
433.494563
 20
1.770301
 42
0.031954
  0
VERTEX
  8
0
 10
436.327000
 20
1.110388
 42
0.026310
  0
VERTEX
  8
0
 10
439.670937
 20
0.732911
 42
0.012527
  0
VERTEX
  8
0
 10
444.000000
 20
0.582422
 42
0.011796
  0
VERTEX
  8
0
 10
448.834630
 20
0.649598
 42
0.037086
  0
VERTEX
  8
0
 10
452.058012
 20
1.010902
 42
0.042848
  0
VERTEX
  8
0
 10
454.936449
 20
1.811885
 42
0.020150
  0
VERTEX
  8
0
 10
458.500000
 20
3.307376
 42
0.069093
  0
VERTEX
  8
0
 10
466.542693
 20
8.526304
 42
0.070449
  0
VERTEX
  8
0
 10
472.798467
 20
15.708595
 42
0.071190
  0
VERTEX
  8
0
 10
476.765451
 20
24.273374
 42
0.073033
  0
VERTEX
  8
0
 10
478.125000
 20
33.531448
 42
0.040659
  0
VERTEX
  8
0
 10
477.515132
 20
41.018887
 42
0.056460
  0
VERTEX
  8
0
 10
475.686792
 20
47.490397
 42
0.057828
  0
VERTEX
  8
0
 10
472.500089
 20
53.273049
 42
0.045534
  0
VERTEX
  8
0
 10
467.834186
 20
58.699250
 42
0.044216
  0
VERTEX
  8
0
 10
462.588446
 20
62.951811
 42
0.055223
  0
VERTEX
  8
0
 10
457.037843
 20
65.859209
 42
0.053952
  0
VERTEX
  8
0
 10
450.879349
 20
67.526360
 42
0.039517
  0
VERTEX
  8
0
 10
443.814798
 20
68.075519
 42
-0.015479
  0
VERTEX
  8
0
 10
438.808258
 20
68.223463
 42
-0.040977
  0
VERTEX
  8
0
 10
435.264590
 20
68.731544
 42
-0.035091
  0
VERTEX
  8
0
 10
431.552476
 20
69.857378
 42
-0.008966
  0
VERTEX
  8
0
 10
425.721681
 20
72.203559
 42
-0.008892
  0
VERTEX
  8
0
 10
422.026666
 20
73.845982
 42
-0.015663
  0
VERTEX
  8
0
 10
419.044375
 20
75.351043
 42
-0.010387
  0
VERTEX
  8
0
 10
416.775419
 20
76.648564
 42
-0.491329
  0
VERTEX
  8
0
 10
416.721681
 20
77.105057
 42
-0.093935
  0
VERTEX
  8
0
 10
417.402435
 20
77.558185
 42
-0.000894
  0
VERTEX
  8
0
 10
422.930792
 20
79.883650
 42
-0.002951
  0
VERTEX
  8
0
 10
429.325462
 20
82.515843
 42
-0.001901
  0
VERTEX
  8
0
 10
436.766120
 20
85.494484
 42
0.000000
  0
VERTEX
  8
0
 10
456.032241
 20
93.122217
 42
0.000000
  0
VERTEX
  8
0
 10
463.150477
 20
89.561108
 42
0.014003
  0
VERTEX
  8
0
 10
467.318783
 20
87.619753
 42
0.041568
  0
VERTEX
  8
0
 10
470.304923
 20
86.614327
 42
0.043687
  0
VERTEX
  8
0
 10
473.334096
 20
86.142966
 42
0.016764
  0
VERTEX
  8
0
 10
477.596844
 20
86.000000
 42
0.087261
  0
VERTEX
  8
0
 10
490.673148
 20
88.299619
 42
0.100902
  0
VERTEX
  8
0
 10
501.445730
 20
94.893758
 42
0.101712
  0
VERTEX
  8
0
 10
508.716977
 20
105.129415
 42
0.090047
  0
VERTEX
  8
0
 10
511.769675
 20
117.861326
 42
0.042119
  0
VERTEX
  8
0
 10
511.552718
 20
125.479355
 42
0.066043
  0
VERTEX
  8
0
 10
509.968433
 20
131.827938
 42
0.064837
  0
VERTEX
  8
0
 10
506.756608
 20
137.625012
 42
0.039010
  0
VERTEX
  8
0
 10
501.603364
 20
143.579194
 42
0.061093
  0
VERTEX
  8
0
 10
493.722728
 20
149.662218
 42
0.100334
  0
VERTEX
  8
0
 10
485.794885
 20
152.425047
 42
0.031118
  0
VERTEX
  8
0
 10
472.418509
 20
153.404880
 42
0.001434
  0
VERTEX
  8
0
 10
426.750000
 20
153.771896
 42
-0.000488
  0
VERTEX
  8
0
 10
404.222271
 20
153.910295
 42
-0.000813
  0
VERTEX
  8
0
 10
385.257812
 20
154.076138
 42
-0.000027
  0
VERTEX
  8
0
 10
368.125158
 20
154.254744
 42
-0.411148
  0
VERTEX
  8
0
 10
368.000000
 20
154.381220
 42
-0.078414
  0
VERTEX
  8
0
 10
368.036098
 20
154.609980
 42
-0.000689
  0
VERTEX
  8
0
 10
368.581717
 20
156.287895
 42
-0.002373
  0
VERTEX
  8
0
 10
369.221282
 20
158.214530
 42
-0.001526
  0
VERTEX
  8
0
 10
369.980313
 20
160.442779
 42
0.024244
  0
VERTEX
  8
0
 10
372.042636
 20
167.537571
 42
0.016724
  0
VERTEX
  8
0
 10
373.713104
 20
175.737752
 42
0.015544
  0
VERTEX
  8
0
 10
374.948506
 20
184.736675
 42
0.013408
  0
VERTEX
  8
0
 10
375.697131
 20
194.250000
 42
0.000000
  0
VERTEX
  8
0
 10
376.305331
 20
206.000000
 42
0.000000
  0
VERTEX
  8
0
 10
379.018309
 20
206.000000
 42
0.101497
  0
VERTEX
  8
0
 10
383.047249
 20
206.826363
 42
0.023384
  0
VERTEX
  8
0
 10
389.320180
 20
209.867075
 42
0.025038
  0
VERTEX
  8
0
 10
395.477010
 20
213.626518
 42
0.059528
  0
VERTEX
  8
0
 10
399.513498
 20
217.146620
 42
0.028346
  0
VERTEX
  8
0
 10
401.158636
 20
219.189211
 42
0.013407
  0
VERTEX
  8
0
 10
403.054133
 20
221.992541
 42
0.013240
  0
VERTEX
  8
0
 10
404.886259
 20
225.040316
 42
0.018231
  0
VERTEX
  8
0
 10
406.356813
 20
227.876622
 42
0.017128
  0
VERTEX
  8
0
 10
408.083503
 20
231.875518
 42
0.044053
  0
VERTEX
  8
0
 10
408.968851
 20
234.893982
 42
0.038764
  0
VERTEX
  8
0
 10
409.371152
 20
238.236811
 42
0.010869
  0
VERTEX
  8
0
 10
409.479294
 20
243.500000
 42
0.010784
  0
VERTEX
  8
0
 10
409.364571
 20
248.539456
 42
0.033854
  0
VERTEX
  8
0
 10
408.986337
 20
251.902071
 42
0.041229
  0
VERTEX
  8
0
 10
408.205682
 20
254.811956
 42
0.022886
  0
VERTEX
  8
0
 10
406.806682
 20
258.212682
 42
0.013868
  0
VERTEX
  8
0
 10
405.581294
 20
260.662650
 42
0.010281
  0
VERTEX
  8
0
 10
404.097657
 20
263.302171
 42
0.010408
  0
VERTEX
  8
0
 10
402.592835
 20
265.737695
 42
0.022963
  0
VERTEX
  8
0
 10
401.322408
 20
267.516535
 42
0.053684
  0
VERTEX
  8
0
 10
397.532957
 20
271.398287
 42
0.031296
  0
VERTEX
  8
0
 10
392.261069
 20
275.222714
 42
0.031324
  0
VERTEX
  8
0
 10
386.568379
 20
278.350388
 42
0.054957
  0
VERTEX
  8
0
 10
381.490138
 20
280.089621
 42
0.000000
  0
VERTEX
  8
0
 10
376.000000
 20
281.318260
 42
0.000000
  0
VERTEX
  8
0
 10
376.000000
 20
290.159130
 42
0.000000
  0
VERTEX
  8
0
 10
376.000000
 20
299.000000
 42
0.000000
  0
VERTEX
  8
0
 10
387.363510
 20
299.000000
 42
-0.013153
  0
VERTEX
  8
0
 10
396.737348
 20
298.753374
 42
-0.030434
  0
VERTEX
  8
0
 10
403.730101
 20
297.956570
 42
-0.037342
  0
VERTEX
  8
0
 10
409.635196
 20
296.455307
 42
-0.033153
  0
VERTEX
  8
0
 10
415.500000
 20
294.045314
 42
-0.056219
  0
VERTEX
  8
0
 10
422.679843
 20
289.458551
 42
-0.056335
  0
VERTEX
  8
0
 10
428.652011
 20
283.390530
 42
-0.034083
  0
VERTEX
  8
0
 10
435.159444
 20
273.811920
 42
-0.007582
  0
VERTEX
  8
0
 10
444.888648
 20
256.558099
 42
0.000000
  0
VERTEX
  8
0
 10
457.914681
 20
232.616197
 42
0.000000
  0
VERTEX
  8
0
 10
453.425640
 20
227.817049
 42
0.036151
  0
VERTEX
  8
0
 10
449.207253
 20
222.597914
 42
0.059436
  0
VERTEX
  8
0
 10
446.544886
 20
217.591451
 42
0.057908
  0
VERTEX
  8
0
 10
445.092827
 20
212.005784
 42
0.032460
  0
VERTEX
  8
0
 10
444.575230
 20
205.000000
 42
0.011402
  0
VERTEX
  8
0
 10
444.642815
 20
200.156539
 42
0.038005
  0
VERTEX
  8
0
 10
445.000400
 20
196.997904
 42
0.045268
  0
VERTEX
  8
0
 10
445.794096
 20
194.229141
 42
0.021713
  0
VERTEX
  8
0
 10
447.279350
 20
190.840339
 42
0.040075
  0
VERTEX
  8
0
 10
450.410987
 20
185.575390
 42
0.041268
  0
VERTEX
  8
0
 10
454.315034
 20
180.932708
 42
0.042101
  0
VERTEX
  8
0
 10
458.846795
 20
177.077017
 42
0.045637
  0
VERTEX
  8
0
 10
463.844616
 20
174.151360
 42
0.023114
  0
VERTEX
  8
0
 10
467.220645
 20
172.755035
 42
0.041921
  0
VERTEX
  8
0
 10
470.104801
 20
171.981106
 42
0.034199
  0
VERTEX
  8
0
 10
473.448855
 20
171.611773
 42
0.010663
  0
VERTEX
  8
0
 10
478.500000
 20
171.509208
 42
0.009926
  0
VERTEX
  8
0
 10
483.649423
 20
171.616715
 42
0.037585
  0
VERTEX
  8
0
 10
486.847312
 20
171.988893
 42
0.048334
  0
VERTEX
  8
0
 10
489.531229
 20
172.782766
 42
0.024899
  0
VERTEX
  8
0
 10
492.713085
 20
174.257347
 42
0.028167
  0
VERTEX
  8
0
 10
497.809189
 20
177.312628
 42
0.043807
  0
VERTEX
  8
0
 10
501.777505
 20
180.547671
 42
0.044711
  0
VERTEX
  8
0
 10
505.065118
 20
184.373157
 42
0.030934
  0
VERTEX
  8
0
 10
508.091903
 20
189.214782
 42
0.000000
  0
VERTEX
  8
0
 10
511.500000
 20
195.500000
 42
0.000000
  0
VERTEX
  8
0
 10
511.791302
 20
252.000000
 42
0.002096
  0
VERTEX
  8
0
 10
511.831145
 20
293.369927
 42
0.017453
  0
VERTEX
  8
0
 10
511.116598
 20
312.099238
 42
0.035344
  0
VERTEX
  8
0
 10
509.237530
 20
325.085938
 42
0.027146
  0
VERTEX
  8
0
 10
505.432610
 20
338.907691
 42
0.064241
  0
VERTEX
  8
0
 10
491.033144
 20
368.624667
 42
0.064784
  0
VERTEX
  8
0
 10
469.596890
 20
393.619391
 42
0.064474
  0
VERTEX
  8
0
 10
442.376081
 20
412.391594
 42
0.062582
  0
VERTEX
  8
0
 10
411.000000
 20
423.843292
 42
0.029474
  0
VERTEX
  8
0
 10
399.440417
 20
425.780318
 42
0.023112
  0
VERTEX
  8
0
 10
386.749046
 20
426.553915
 42
0.022871
  0
VERTEX
  8
0
 10
373.873913
 20
426.153737
 42
0.026777
  0
VERTEX
  8
0
 10
361.757592
 20
424.565400
 42
0.000000
  0
VERTEX
  8
0
 10
355.015184
 20
423.311382
 42
0.000000
  0
VERTEX
  8
0
 10
352.126836
 20
428.405691
 42
0.012161
  0
VERTEX
  8
0
 10
350.625300
 20
430.910046
 42
0.004542
  0
VERTEX
  8
0
 10
348.401046
 20
434.353547
 42
0.004497
  0
VERTEX
  8
0
 10
345.908311
 20
438.063779
 42
0.005433
  0
VERTEX
  8
0
 10
343.499275
 20
441.500000
 42
0.046573
  0
VERTEX
  8
0
 10
322.985449
 20
465.107793
 42
0.047047
  0
VERTEX
  8
0
 10
298.521560
 20
484.421903
 42
0.046394
  0
VERTEX
  8
0
 10
270.546146
 20
499.041574
 42
0.042877
  0
VERTEX
  8
0
 10
239.612443
 20
508.716792
 42
0.000000
  0
VERTEX
  8
0
 10
227.500000
 20
511.392728
 42
0.000000
  0
VERTEX
  8
0
 10
128.500000
 20
511.616860
 42
0.000735
  0
VERTEX
  8
0
 10
90.332585
 20
511.647169
 42
0.001172
  0
VERTEX
  8
0
 10
57.700000
 20
511.548655
 42
0.000220
  0
VERTEX
  8
0
 10
28.904357
 20
511.381601
 42
0.061411
  0
SEQEND
  0
POLYLINE
  8
0
 66
1
 70
1
  0
VERTEX
  8
0
 10
41.578599
 20
493.103669
 42
-0.113622
  0
VERTEX
  8
0
 10
47.866184
 20
488.298005
 42
-0.124099
  0
VERTEX
  8
0
 10
51.169187
 20
481.371880
 42
-0.122299
  0
VERTEX
  8
0
 10
50.817823
 20
473.626846
 42
-0.108373
  0
VERTEX
  8
0
 10
46.907936
 20
466.547926
 42
-0.060539
  0
VERTEX
  8
0
 10
43.926536
 20
463.883397
 42
-0.065747
  0
VERTEX
  8
0
 10
40.472180
 20
462.097748
 42
-0.063542
  0
VERTEX
  8
0
 10
36.569918
 20
461.229726
 42
-0.051095
  0
VERTEX
  8
0
 10
32.267184
 20
461.273352
 42
-0.088916
  0
VERTEX
  8
0
 10
26.492992
 20
462.993964
 42
-0.099103
  0
VERTEX
  8
0
 10
21.923484
 20
466.573672
 42
-0.096789
  0
VERTEX
  8
0
 10
19.009655
 20
471.713583
 42
-0.080863
  0
VERTEX
  8
0
 10
18.000000
 20
477.915749
 42
-0.061432
  0
VERTEX
  8
0
 10
18.609853
 20
482.860623
 42
-0.076984
  0
VERTEX
  8
0
 10
20.403163
 20
487.113022
 42
-0.079031
  0
VERTEX
  8
0
 10
23.352438
 20
490.540922
 42
-0.069197
  0
VERTEX
  8
0
 10
27.349564
 20
493.071506
 42
-0.041376
  0
VERTEX
  8
0
 10
31.095190
 20
494.411343
 42
-0.064730
  0
VERTEX
  8
0
 10
34.483985
 20
494.859692
 42
-0.065040
  0
VERTEX
  8
0
 10
37.863110
 20
494.426037
 42
-0.042223
  0
SEQEND
  0
POLYLINE
  8
0
 66
1
 70
1
  0
VERTEX
  8
0
 10
235.000000
 20
492.258279
 42
-0.060041
  0
VERTEX
  8
0
 10
274.323040
 20
478.499912
 42
-0.067534
  0
VERTEX
  8
0
 10
307.560405
 20
456.179647
 42
-0.068233
  0
VERTEX
  8
0
 10
333.385182
 20
426.031307
 42
-0.063247
  0
VERTEX
  8
0
 10
350.944073
 20
389.281614
 42
-0.018036
  0
VERTEX
  8
0
 10
354.433186
 20
377.298471
 42
-0.024760
  0
VERTEX
  8
0
 10
356.638297
 20
366.293604
 42
-0.021152
  0
VERTEX
  8
0
 10
357.958039
 20
353.883914
 42
-0.009099
  0
VERTEX
  8
0
 10
358.714631
 20
337.250000
 42
0.000000
  0
VERTEX
  8
0
 10
359.293956
 20
316.000000
 42
0.000000
  0
VERTEX
  8
0
 10
310.396978
 20
316.034297
 42
0.000000
  0
VERTEX
  8
0
 10
261.500000
 20
316.068593
 42
0.000000
  0
VERTEX
  8
0
 10
258.047075
 20
323.784297
 42
0.005000
  0
VERTEX
  8
0
 10
250.879900
 20
339.379472
 42
0.006759
  0
VERTEX
  8
0
 10
244.070369
 20
353.322617
 42
0.007163
  0
VERTEX
  8
0
 10
238.101676
 20
364.727461
 42
0.026290
  0
VERTEX
  8
0
 10
233.850491
 20
371.676224
 42
0.028411
  0
VERTEX
  8
0
 10
227.751476
 20
379.560426
 42
0.015975
  0
VERTEX
  8
0
 10
219.523062
 20
388.443253
 42
0.015979
  0
VERTEX
  8
0
 10
210.758886
 20
396.768553
 42
0.028850
  0
VERTEX
  8
0
 10
203.000000
 20
402.916621
 42
0.036678
  0
VERTEX
  8
0
 10
186.654079
 20
412.694349
 42
0.036722
  0
VERTEX
  8
0
 10
169.061252
 20
419.974204
 42
0.036677
  0
VERTEX
  8
0
 10
150.571543
 20
424.609080
 42
0.036390
  0
VERTEX
  8
0
 10
131.554195
 20
426.508419
 42
0.000000
  0
VERTEX
  8
0
 10
119.608390
 20
426.828598
 42
0.000000
  0
VERTEX
  8
0
 10
93.331013
 20
444.966398
 42
-0.001195
  0
VERTEX
  8
0
 10
83.219142
 20
451.981782
 42
-0.001907
  0
VERTEX
  8
0
 10
74.615761
 20
458.030015
 42
-0.000364
  0
VERTEX
  8
0
 10
67.056189
 20
463.395922
 42
-0.100135
  0
VERTEX
  8
0
 10
66.519664
 20
463.968183
 42
-0.148602
  0
VERTEX
  8
0
 10
66.384246
 20
464.480259
 42
-0.031377
  0
VERTEX
  8
0
 10
66.476907
 20
465.410835
 42
-0.030288
  0
VERTEX
  8
0
 10
66.727388
 20
466.517768
 42
-0.024714
  0
VERTEX
  8
0
 10
67.123940
 20
467.666084
 42
0.076326
  0
VERTEX
  8
0
 10
68.196426
 20
472.255394
 42
0.029441
  0
VERTEX
  8
0
 10
68.316742
 20
478.811131
 42
0.029636
  0
VERTEX
  8
0
 10
67.654137
 20
485.430549
 42
0.065090
  0
VERTEX
  8
0
 10
66.206494
 20
490.299120
 42
0.000000
  0
VERTEX
  8
0
 10
64.069004
 20
495.098241
 42
0.000000
  0
VERTEX
  8
0
 10
144.784502
 20
494.723662
 42
-0.000443
  0
VERTEX
  8
0
 10
195.722690
 20
494.442172
 42
-0.005227
  0
VERTEX
  8
0
 10
215.511741
 20
494.108376
 42
-0.013647
  0
VERTEX
  8
0
 10
226.801819
 20
493.491176
 42
-0.033694
  0
SEQEND
  0
POLYLINE
  8
0
 66
1
 70
1
  0
VERTEX
  8
0
 10
150.500000
 20
407.335916
 42
-0.038858
  0
VERTEX
  8
0
 10
166.288244
 20
402.952450
 42
-0.037494
  0
VERTEX
  8
0
 10
181.406389
 20
396.138422
 42
-0.037224
  0
VERTEX
  8
0
 10
195.440305
 20
387.087232
 42
-0.037054
  0
VERTEX
  8
0
 10
208.000000
 20
376.042520
 42
-0.024129
  0
VERTEX
  8
0
 10
215.164790
 20
367.990689
 42
-0.028095
  0
VERTEX
  8
0
 10
221.139413
 20
359.670199
 42
-0.022803
  0
VERTEX
  8
0
 10
227.032555
 20
349.400782
 42
-0.009456
  0
VERTEX
  8
0
 10
234.088164
 20
335.032400
 42
0.000000
  0
VERTEX
  8
0
 10
242.757472
 20
316.500000
 42
0.000000
  0
VERTEX
  8
0
 10
174.128736
 20
316.000000
 42
0.000000
  0
VERTEX
  8
0
 10
105.500000
 20
315.500000
 42
0.000000
  0
VERTEX
  8
0
 10
97.731470
 20
312.750847
 42
0.031187
  0
VERTEX
  8
0
 10
89.016517
 20
309.040684
 42
0.036639
  0
VERTEX
  8
0
 10
81.310400
 20
304.441470
 42
0.038266
  0
VERTEX
  8
0
 10
74.647417
 20
298.966621
 42
0.040689
  0
VERTEX
  8
0
 10
69.044254
 20
292.644043
 42
0.026487
  0
VERTEX
  8
0
 10
66.850020
 20
289.372923
 42
0.003192
  0
VERTEX
  8
0
 10
62.449101
 20
281.887625
 42
0.003790
  0
VERTEX
  8
0
 10
57.339294
 20
272.912064
 42
0.003110
  0
VERTEX
  8
0
 10
52.013855
 20
263.250000
 42
0.000000
  0
VERTEX
  8
0
 10
38.843996
 20
239.000000
 42
0.000000
  0
VERTEX
  8
0
 10
34.580929
 20
239.000000
 42
0.037274
  0
VERTEX
  8
0
 10
31.408595
 20
238.763183
 42
0.020617
  0
VERTEX
  8
0
 10
27.591623
 20
238.028103
 42
0.019651
  0
VERTEX
  8
0
 10
23.554560
 20
236.907431
 42
0.020715
  0
VERTEX
  8
0
 10
19.689608
 20
235.490039
 42
-0.490517
  0
VERTEX
  8
0
 10
18.591424
 20
236.117566
 42
-0.026150
  0
VERTEX
  8
0
 10
18.186359
 20
240.745602
 42
-0.010266
  0
VERTEX
  8
0
 10
18.051395
 20
250.064874
 42
-0.000694
  0
VERTEX
  8
0
 10
18.248948
 20
276.619837
 42
0.000000
  0
VERTEX
  8
0
 10
18.618679
 20
318.500000
 42
0.000000
  0
VERTEX
  8
0
 10
21.328360
 20
327.893236
 42
-0.043788
  0
VERTEX
  8
0
 10
29.026388
 20
347.837108
 42
-0.048081
  0
VERTEX
  8
0
 10
39.889687
 20
365.477377
 42
-0.048212
  0
VERTEX
  8
0
 10
53.892902
 20
380.678242
 42
-0.044466
  0
VERTEX
  8
0
 10
70.912136
 20
393.380570
 42
-0.047996
  0
VERTEX
  8
0
 10
89.213617
 20
402.365430
 42
-0.046752
  0
VERTEX
  8
0
 10
109.053338
 20
407.792560
 42
-0.046336
  0
VERTEX
  8
0
 10
129.726801
 20
409.470267
 42
-0.045409
  0
SEQEND
  0
POLYLINE
  8
0
 66
1
 70
1
  0
VERTEX
  8
0
 10
395.665619
 20
408.931009
 42
-0.021373
  0
VERTEX
  8
0
 10
404.896954
 20
407.500052
 42
-0.021096
  0
VERTEX
  8
0
 10
414.013220
 20
405.281594
 42
-0.020956
  0
VERTEX
  8
0
 10
422.969058
 20
402.285830
 42
-0.020433
  0
VERTEX
  8
0
 10
431.720204
 20
398.528316
 42
-0.016871
  0
VERTEX
  8
0
 10
440.750611
 20
393.825070
 42
-0.026218
  0
VERTEX
  8
0
 10
448.159139
 20
389.114713
 42
-0.026108
  0
VERTEX
  8
0
 10
455.056147
 20
383.639778
 42
-0.016545
  0
VERTEX
  8
0
 10
462.523894
 20
376.595202
 42
-0.023490
  0
VERTEX
  8
0
 10
471.340176
 20
366.832283
 42
-0.031610
  0
VERTEX
  8
0
 10
478.301103
 20
357.170372
 42
-0.031703
  0
VERTEX
  8
0
 10
483.973415
 20
346.731145
 42
-0.023844
  0
VERTEX
  8
0
 10
488.902642
 20
334.625017
 42
-0.028168
  0
VERTEX
  8
0
 10
492.163229
 20
323.398942
 42
-0.032636
  0
VERTEX
  8
0
 10
493.948224
 20
312.414989
 42
-0.019899
  0
VERTEX
  8
0
 10
494.780302
 20
297.587797
 42
-0.004039
  0
VERTEX
  8
0
 10
494.995979
 20
271.250000
 42
-0.000977
  0
VERTEX
  8
0
 10
494.970367
 20
257.349919
 42
-0.001629
  0
VERTEX
  8
0
 10
494.887818
 20
245.648438
 42
-0.000107
  0
VERTEX
  8
0
 10
494.777334
 20
235.153552
 42
-0.411071
  0
VERTEX
  8
0
 10
494.622124
 20
235.000000
 42
-0.088789
  0
VERTEX
  8
0
 10
494.357334
 20
235.047395
 42
-0.002311
  0
VERTEX
  8
0
 10
493.227924
 20
235.471027
 42
-0.004814
  0
VERTEX
  8
0
 10
491.904487
 20
235.989065
 42
-0.003263
  0
VERTEX
  8
0
 10
490.406544
 20
236.603495
 42
0.032105
  0
VERTEX
  8
0
 10
488.485791
 20
237.264819
 42
0.013056
  0
VERTEX
  8
0
 10
485.799537
 20
237.925874
 42
0.012855
  0
VERTEX
  8
0
 10
482.865451
 20
238.488557
 42
0.015993
  0
VERTEX
  8
0
 10
480.112232
 20
238.853495
 42
0.000000
  0
VERTEX
  8
0
 10
473.655623
 20
239.500000
 42
0.000000
  0
VERTEX
  8
0
 10
460.077811
 20
264.284392
 42
0.003795
  0
VERTEX
  8
0
 10
450.274481
 20
281.861071
 42
0.021103
  0
VERTEX
  8
0
 10
444.548749
 20
291.023035
 42
0.037521
  0
VERTEX
  8
0
 10
439.713384
 20
297.054544
 42
0.036765
  0
VERTEX
  8
0
 10
434.000000
 20
302.340148
 42
0.036457
  0
VERTEX
  8
0
 10
424.882178
 20
308.579955
 42
0.055123
  0
VERTEX
  8
0
 10
416.097343
 20
312.472844
 42
0.047851
  0
VERTEX
  8
0
 10
405.794072
 20
314.683661
 42
0.020537
  0
VERTEX
  8
0
 10
391.750000
 20
315.734295
 42
0.000000
  0
VERTEX
  8
0
 10
376.000000
 20
316.263719
 42
0.000000
  0
VERTEX
  8
0
 10
376.000000
 20
332.025905
 42
0.014668
  0
VERTEX
  8
0
 10
375.446306
 20
350.895673
 42
0.022018
  0
VERTEX
  8
0
 10
373.757684
 20
367.280458
 42
0.023936
  0
VERTEX
  8
0
 10
370.784933
 20
382.364148
 42
0.023131
  0
VERTEX
  8
0
 10
366.357498
 20
397.271080
 42
-0.004508
  0
VERTEX
  8
0
 10
365.057892
 20
401.116068
 42
-0.007250
  0
VERTEX
  8
0
 10
364.027458
 20
404.418739
 42
-0.002321
  0
VERTEX
  8
0
 10
363.198464
 20
407.266354
 42
-0.272469
  0
VERTEX
  8
0
 10
363.291215
 20
407.624549
 42
-0.166965
  0
VERTEX
  8
0
 10
364.112811
 20
408.026016
 42
-0.001496
  0
VERTEX
  8
0
 10
371.037445
 20
408.865568
 42
-0.005641
  0
VERTEX
  8
0
 10
377.606796
 20
409.567061
 42
-0.015220
  0
VERTEX
  8
0
 10
382.289414
 20
409.870265
 42
-0.021059
  0
VERTEX
  8
0
 10
384.353930
 20
409.853976
 42
-0.005025
  0
VERTEX
  8
0
 10
387.781807
 20
409.647874
 42
-0.005157
  0
VERTEX
  8
0
 10
391.717391
 20
409.330701
 42
-0.005079
  0
SEQEND
  0
POLYLINE
  8
0
 66
1
 70
1
  0
VERTEX
  8
0
 10
359.000000
 20
246.223766
 42
-0.001700
  0
VERTEX
  8
0
 10
358.927197
 20
224.809089
 42
-0.002528
  0
VERTEX
  8
0
 10
358.704952
 20
206.064619
 42
-0.001928
  0
VERTEX
  8
0
 10
358.386703
 20
190.742864
 42
-0.024263
  0
VERTEX
  8
0
 10
357.963997
 20
184.973766
 42
-0.058713
  0
VERTEX
  8
0
 10
352.006801
 20
160.518998
 42
-0.061368
  0
VERTEX
  8
0
 10
340.582028
 20
138.510683
 42
-0.061684
  0
VERTEX
  8
0
 10
324.218962
 20
120.026870
 42
-0.060394
  0
VERTEX
  8
0
 10
303.731625
 20
105.940594
 42
-0.048620
  0
VERTEX
  8
0
 10
284.465586
 20
98.144278
 42
-0.052426
  0
VERTEX
  8
0
 10
264.538922
 20
94.464631
 42
-0.052173
  0
VERTEX
  8
0
 10
244.197400
 20
95.001898
 42
-0.047332
  0
VERTEX
  8
0
 10
223.702679
 20
99.698066
 42
-0.026295
  0
VERTEX
  8
0
 10
213.313679
 20
103.756564
 42
-0.030090
  0
VERTEX
  8
0
 10
203.882185
 20
108.728753
 42
-0.029664
  0
VERTEX
  8
0
 10
195.003525
 20
114.863571
 42
-0.024274
  0
VERTEX
  8
0
 10
186.269947
 20
122.408117
 42
-0.030899
  0
VERTEX
  8
0
 10
176.238273
 20
133.219716
 42
-0.036733
  0
VERTEX
  8
0
 10
168.233042
 20
144.605771
 42
-0.036724
  0
VERTEX
  8
0
 10
161.978727
 20
157.043135
 42
-0.030858
  0
VERTEX
  8
0
 10
157.185291
 20
171.000000
 42
0.000000
  0
VERTEX
  8
0
 10
154.565006
 20
180.500000
 42
0.000000
  0
VERTEX
  8
0
 10
154.231327
 20
239.750000
 42
0.000000
  0
VERTEX
  8
0
 10
153.897648
 20
299.000000
 42
0.000000
  0
VERTEX
  8
0
 10
256.448824
 20
299.000000
 42
0.000000
  0
VERTEX
  8
0
 10
359.000000
 20
299.000000
 42
0.000000
  0
SEQEND
  0
POLYLINE
  8
0
 66
1
 70
1
  0
VERTEX
  8
0
 10
137.000000
 20
243.500000
 42
-0.001572
  0
VERTEX
  8
0
 10
136.959368
 20
230.578508
 42
-0.021805
  0
VERTEX
  8
0
 10
136.726558
 20
225.916132
 42
-0.076468
  0
VERTEX
  8
0
 10
136.177309
 20
223.729887
 42
-0.301689
  0
VERTEX
  8
0
 10
135.077739
 20
223.000000
 42
-0.142865
  0
VERTEX
  8
0
 10
132.281566
 20
223.815594
 42
-0.034859
  0
VERTEX
  8
0
 10
128.381725
 20
226.702903
 42
-0.036214
  0
VERTEX
  8
0
 10
124.657647
 20
230.382519
 42
-0.060723
  0
VERTEX
  8
0
 10
122.185152
 20
234.014378
 42
-0.070277
  0
VERTEX
  8
0
 10
120.630876
 20
238.463524
 42
-0.054548
  0
VERTEX
  8
0
 10
120.185850
 20
243.579010
 42
-0.053299
  0
VERTEX
  8
0
 10
120.861238
 20
248.797460
 42
-0.059522
  0
VERTEX
  8
0
 10
122.619184
 20
253.552625
 42
-0.075839
  0
VERTEX
  8
0
 10
124.858155
 20
256.659830
 42
-0.029463
  0
VERTEX
  8
0
 10
128.796461
 20
260.227784
 42
-0.026785
  0
VERTEX
  8
0
 10
132.958954
 20
263.222316
 42
-0.143492
  0
VERTEX
  8
0
 10
135.613014
 20
264.000000
 42
-0.370331
  0
VERTEX
  8
0
 10
136.369656
 20
263.350511
 42
-0.021143
  0
VERTEX
  8
0
 10
136.733086
 20
260.054936
 42
-0.014552
  0
VERTEX
  8
0
 10
136.948804
 20
254.447895
 42
-0.002338
  0
SEQEND
  0
POLYLINE
  8
0
 66
1
 70
1
  0
VERTEX
  8
0
 10
380.282119
 20
262.652871
 42
-0.077111
  0
VERTEX
  8
0
 10
383.751249
 20
260.524076
 42
-0.040079
  0
VERTEX
  8
0
 10
387.355023
 20
256.927336
 42
-0.039959
  0
VERTEX
  8
0
 10
390.368455
 20
252.762795
 42
-0.070988
  0
VERTEX
  8
0
 10
392.032911
 20
248.877777
 42
-0.089799
  0
VERTEX
  8
0
 10
392.601722
 20
242.115407
 42
-0.075144
  0
VERTEX
  8
0
 10
390.851001
 20
235.119315
 42
-0.076519
  0
VERTEX
  8
0
 10
387.158157
 20
229.068390
 42
-0.099920
  0
VERTEX
  8
0
 10
382.091449
 20
225.046654
 42
-0.009644
  0
VERTEX
  8
0
 10
380.479172
 20
224.262946
 42
-0.012058
  0
VERTEX
  8
0
 10
378.952682
 20
223.601205
 42
-0.010334
  0
VERTEX
  8
0
 10
377.656541
 20
223.107005
 42
-0.086112
  0
VERTEX
  8
0
 10
377.039838
 20
223.000000
 42
-0.393874
  0
VERTEX
  8
0
 10
376.547674
 20
223.458892
 42
-0.004815
  0
VERTEX
  8
0
 10
376.262681
 20
228.178652
 42
-0.009324
  0
VERTEX
  8
0
 10
376.060255
 20
234.495976
 42
-0.003346
  0
VERTEX
  8
0
 10
376.000000
 20
243.500000
 42
-0.002432
  0
VERTEX
  8
0
 10
376.038240
 20
251.360694
 42
-0.004055
  0
VERTEX
  8
0
 10
376.156310
 20
257.978125
 42
-0.000662
  0
VERTEX
  8
0
 10
376.314835
 20
263.788844
 42
-0.405862
  0
VERTEX
  8
0
 10
376.532119
 20
264.000000
 42
-0.081266
  0
VERTEX
  8
0
 10
376.877619
 20
263.943472
 42
-0.005132
  0
VERTEX
  8
0
 10
377.853180
 20
263.604281
 42
-0.007442
  0
VERTEX
  8
0
 10
379.010754
 20
263.168881
 42
-0.005456
  0
SEQEND
  0
POLYLINE
  8
0
 66
1
 70
1
  0
VERTEX
  8
0
 10
41.610493
 20
220.380543
 42
-0.113796
  0
VERTEX
  8
0
 10
47.825601
 20
215.459798
 42
-0.120472
  0
VERTEX
  8
0
 10
51.098317
 20
208.411545
 42
-0.119406
  0
VERTEX
  8
0
 10
50.763951
 20
200.598044
 42
-0.110466
  0
VERTEX
  8
0
 10
46.907936
 20
193.547926
 42
-0.129176
  0
VERTEX
  8
0
 10
40.432747
 20
189.181097
 42
-0.115956
  0
VERTEX
  8
0
 10
32.366265
 20
188.326736
 42
-0.115567
  0
VERTEX
  8
0
 10
24.742828
 20
191.156889
 42
-0.127677
  0
VERTEX
  8
0
 10
19.498949
 20
197.002033
 42
-0.082080
  0
VERTEX
  8
0
 10
18.244594
 20
200.871779
 42
-0.048870
  0
VERTEX
  8
0
 10
17.992210
 20
205.720653
 42
-0.049093
  0
VERTEX
  8
0
 10
18.681813
 20
210.484259
 42
-0.088006
  0
VERTEX
  8
0
 10
20.279571
 20
214.086889
 42
-0.088016
  0
VERTEX
  8
0
 10
24.488481
 20
218.439866
 42
-0.085139
  0
VERTEX
  8
0
 10
29.984838
 20
221.140993
 42
-0.086734
  0
VERTEX
  8
0
 10
35.975346
 20
221.826117
 42
-0.096272
  0
SEQEND
  0
POLYLINE
  8
0
 66
1
 70
1
  0
VERTEX
  8
0
 10
485.698410
 20
219.903951
 42
-0.141122
  0
VERTEX
  8
0
 10
492.272464
 20
214.006116
 42
-0.133994
  0
VERTEX
  8
0
 10
494.868822
 20
205.392764
 42
-0.133232
  0
VERTEX
  8
0
 10
492.734837
 20
196.616839
 42
-0.138891
  0
VERTEX
  8
0
 10
486.479618
 20
190.286833
 42
-0.101221
  0
VERTEX
  8
0
 10
480.153181
 20
188.235381
 42
-0.098354
  0
VERTEX
  8
0
 10
473.460076
 20
188.800709
 42
-0.098748
  0
VERTEX
  8
0
 10
467.512279
 20
191.876060
 42
-0.102938
  0
VERTEX
  8
0
 10
463.302739
 20
196.960023
 42
-0.066989
  0
VERTEX
  8
0
 10
461.403033
 20
202.121722
 42
-0.087097
  0
VERTEX
  8
0
 10
461.176175
 20
207.146066
 42
-0.087594
  0
VERTEX
  8
0
 10
462.672389
 20
211.925703
 42
-0.068591
  0
VERTEX
  8
0
 10
465.813618
 20
216.371784
 42
-0.072286
  0
VERTEX
  8
0
 10
470.169459
 20
219.854181
 42
-0.088808
  0
VERTEX
  8
0
 10
475.047559
 20
221.651153
 42
-0.087865
  0
VERTEX
  8
0
 10
480.287713
 20
221.653870
 42
-0.069130
  0
SEQEND
  0
POLYLINE
  8
0
 66
1
 70
1
  0
VERTEX
  8
0
 10
39.453076
 20
135.891347
 42
-0.100906
  0
VERTEX
  8
0
 10
45.030434
 20
133.044602
 42
-0.094724
  0
VERTEX
  8
0
 10
49.196316
 20
128.186514
 42
-0.094250
  0
VERTEX
  8
0
 10
51.290683
 20
122.111903
 42
-0.098701
  0
VERTEX
  8
0
 10
50.957557
 20
115.796339
 42
-0.181120
  0
VERTEX
  8
0
 10
44.193301
 20
106.073052
 42
-0.179113
  0
VERTEX
  8
0
 10
32.669471
 20
103.128632
 42
-0.183497
  0
VERTEX
  8
0
 10
22.207958
 20
108.406838
 42
-0.187287
  0
VERTEX
  8
0
 10
18.000000
 20
119.246754
 42
-0.067921
  0
VERTEX
  8
0
 10
18.790193
 20
125.036884
 42
-0.085632
  0
VERTEX
  8
0
 10
21.100738
 20
129.917958
 42
-0.088483
  0
VERTEX
  8
0
 10
24.840484
 20
133.627370
 42
-0.078168
  0
VERTEX
  8
0
 10
29.791359
 20
136.011592
 42
-0.023015
  0
VERTEX
  8
0
 10
32.373554
 20
136.662024
 42
-0.053345
  0
VERTEX
  8
0
 10
34.360414
 20
136.849632
 42
-0.048431
  0
VERTEX
  8
0
 10
36.455508
 20
136.619867
 42
-0.016200
  0
SEQEND
  0
POLYLINE
  8
0
 66
1
 70
1
  0
VERTEX
  8
0
 10
157.114320
 20
130.250000
 42
0.038459
  0
VERTEX
  8
0
 10
163.101725
 20
122.361859
 42
0.015402
  0
VERTEX
  8
0
 10
172.416105
 20
112.501713
 42
0.015457
  0
VERTEX
  8
0
 10
182.366542
 20
103.192037
 42
0.036416
  0
VERTEX
  8
0
 10
190.464298
 20
97.056106
 42
0.074395
  0
VERTEX
  8
0
 10
224.138954
 20
81.729571
 42
0.077718
  0
VERTEX
  8
0
 10
260.314330
 20
77.239925
 42
0.077993
  0
VERTEX
  8
0
 10
296.025213
 20
84.008565
 42
0.075691
  0
VERTEX
  8
0
 10
328.352511
 20
101.421452
 42
0.023022
  0
VERTEX
  8
0
 10
335.245787
 20
107.124800
 42
0.018383
  0
VERTEX
  8
0
 10
342.143820
 20
113.867519
 42
0.017995
  0
VERTEX
  8
0
 10
348.694410
 20
121.275734
 42
0.019213
  0
VERTEX
  8
0
 10
354.546817
 20
128.980130
 42
0.000000
  0
VERTEX
  8
0
 10
360.166487
 20
137.000000
 42
0.000000
  0
VERTEX
  8
0
 10
404.083244
 20
137.000000
 42
-0.001450
  0
VERTEX
  8
0
 10
423.929525
 20
136.942432
 42
-0.004524
  0
VERTEX
  8
0
 10
437.290242
 20
136.744025
 42
-0.001253
  0
VERTEX
  8
0
 10
447.490632
 20
136.474650
 42
-0.405772
  0
VERTEX
  8
0
 10
448.000000
 20
135.950340
 42
-0.080472
  0
VERTEX
  8
0
 10
447.904040
 20
135.357967
 42
-0.013370
  0
VERTEX
  8
0
 10
447.509055
 20
134.268918
 42
-0.014369
  0
VERTEX
  8
0
 10
446.968560
 20
133.002579
 42
-0.012282
  0
VERTEX
  8
0
 10
446.328699
 20
131.700340
 42
0.087328
  0
VERTEX
  8
0
 10
445.181552
 20
128.082529
 42
0.020939
  0
VERTEX
  8
0
 10
444.607053
 20
121.784587
 42
0.022330
  0
VERTEX
  8
0
 10
444.578037
 20
115.254113
 42
0.053026
  0
VERTEX
  8
0
 10
445.284721
 20
110.453672
 42
0.000000
  0
VERTEX
  8
0
 10
446.069443
 20
107.407343
 42
0.000000
  0
VERTEX
  8
0
 10
416.457557
 20
95.575783
 42
0.001440
  0
VERTEX
  8
0
 10
397.972057
 20
88.127992
 42
0.016826
  0
VERTEX
  8
0
 10
390.866633
 20
84.958883
 42
0.045817
  0
VERTEX
  8
0
 10
387.177113
 20
82.723377
 42
0.122991
  0
VERTEX
  8
0
 10
385.237623
 20
80.372112
 42
0.021935
  0
VERTEX
  8
0
 10
384.370925
 20
78.328490
 42
0.089072
  0
VERTEX
  8
0
 10
384.130530
 20
77.004169
 42
0.089607
  0
VERTEX
  8
0
 10
384.366639
 20
75.682992
 42
0.022351
  0
VERTEX
  8
0
 10
385.224909
 20
73.654550
 42
0.117122
  0
VERTEX
  8
0
 10
387.227339
 20
71.168940
 42
0.045279
  0
VERTEX
  8
0
 10
390.979354
 20
68.769478
 42
0.018308
  0
VERTEX
  8
0
 10
398.009987
 20
65.443605
 42
0.001919
  0
VERTEX
  8
0
 10
414.777545
 20
58.326499
 42
0.000000
  0
VERTEX
  8
0
 10
418.055089
 20
56.950142
 42
0.000000
  0
VERTEX
  8
0
 10
415.411403
 20
52.439032
 42
0.016235
  0
VERTEX
  8
0
 10
414.306381
 20
50.404825
 42
0.010908
  0
VERTEX
  8
0
 10
413.171632
 20
48.015210
 42
0.010993
  0
VERTEX
  8
0
 10
412.173469
 20
45.651294
 42
0.021284
  0
VERTEX
  8
0
 10
411.499062
 20
43.713961
 42
-0.017097
  0
VERTEX
  8
0
 10
410.644361
 20
41.190867
 42
-0.126785
  0
VERTEX
  8
0
 10
409.920641
 20
40.162041
 42
-0.163806
  0
VERTEX
  8
0
 10
408.875622
 20
39.743662
 42
-0.033815
  0
VERTEX
  8
0
 10
406.865204
 20
39.766823
 42
-0.013320
  0
VERTEX
  8
0
 10
404.272893
 20
40.042018
 42
-0.000098
  0
VERTEX
  8
0
 10
382.877388
 20
42.895767
 42
-0.000372
  0
VERTEX
  8
0
 10
358.372256
 20
46.187716
 42
-0.000238
  0
VERTEX
  8
0
 10
329.930159
 20
50.043862
 42
0.000000
  0
VERTEX
  8
0
 10
256.360317
 20
60.054080
 42
0.000000
  0
VERTEX
  8
0
 10
182.430159
 20
49.990766
 42
0.000151
  0
VERTEX
  8
0
 10
153.872432
 20
46.094706
 42
0.000237
  0
VERTEX
  8
0
 10
129.323277
 20
42.726080
 42
0.000058
  0
VERTEX
  8
0
 10
107.828820
 20
39.763694
 42
0.009334
  0
VERTEX
  8
0
 10
105.457592
 20
39.391380
 42
-0.041273
  0
VERTEX
  8
0
 10
103.608413
 20
39.220940
 42
-0.203729
  0
VERTEX
  8
0
 10
102.662589
 20
39.612543
 42
-0.120878
  0
VERTEX
  8
0
 10
102.013629
 20
40.705790
 42
-0.011057
  0
VERTEX
  8
0
 10
101.154740
 20
43.773297
 42
0.024698
  0
VERTEX
  8
0
 10
100.487013
 20
45.929756
 42
0.016096
  0
VERTEX
  8
0
 10
99.515627
 20
48.348769
 42
0.016196
  0
VERTEX
  8
0
 10
98.412860
 20
50.652624
 42
0.029515
  0
VERTEX
  8
0
 10
97.344765
 20
52.443260
 42
-0.023955
  0
VERTEX
  8
0
 10
96.429954
 20
53.938893
 42
-0.036068
  0
VERTEX
  8
0
 10
95.794546
 20
55.328262
 42
-0.039911
  0
VERTEX
  8
0
 10
95.474329
 20
56.454337
 42
-0.259073
  0
VERTEX
  8
0
 10
95.647617
 20
56.995813
 42
-0.080610
  0
VERTEX
  8
0
 10
96.350847
 20
57.469927
 42
-0.001666
  0
VERTEX
  8
0
 10
100.215237
 20
59.237508
 42
-0.003855
  0
VERTEX
  8
0
 10
104.764941
 20
61.258113
 42
-0.002579
  0
VERTEX
  8
0
 10
110.000000
 20
63.502896
 42
0.006467
  0
VERTEX
  8
0
 10
115.334261
 20
65.839482
 42
0.008205
  0
VERTEX
  8
0
 10
120.195312
 20
68.141063
 42
0.006656
  0
VERTEX
  8
0
 10
124.198020
 20
70.183997
 42
0.064697
  0
VERTEX
  8
0
 10
125.750000
 20
71.279014
 42
0.115351
  0
VERTEX
  8
0
 10
127.453409
 20
73.782573
 42
0.092200
  0
VERTEX
  8
0
 10
128.051736
 20
76.999715
 42
0.091984
  0
VERTEX
  8
0
 10
127.453593
 20
80.223559
 42
0.114066
  0
VERTEX
  8
0
 10
125.750000
 20
82.745749
 42
0.081796
  0
VERTEX
  8
0
 10
123.948235
 20
83.942666
 42
0.002570
  0
VERTEX
  8
0
 10
115.853286
 20
87.538215
 42
0.004942
  0
VERTEX
  8
0
 10
106.218101
 20
91.645712
 42
0.003399
  0
VERTEX
  8
0
 10
95.218632
 20
96.119484
 42
0.000000
  0
VERTEX
  8
0
 10
66.937264
 20
107.398841
 42
0.000000
  0
VERTEX
  8
0
 10
67.718632
 20
111.949420
 42
0.029795
  0
VERTEX
  8
0
 10
68.299527
 20
117.186119
 42
0.031942
  0
VERTEX
  8
0
 10
68.232818
 20
122.333319
 42
0.033177
  0
VERTEX
  8
0
 10
67.525881
 20
127.237935
 42
0.038742
  0
VERTEX
  8
0
 10
66.194512
 20
131.750000
 42
0.000000
  0
VERTEX
  8
0
 10
64.192148
 20
137.000000
 42
0.000000
  0
VERTEX
  8
0
 10
108.478615
 20
137.000000
 42
0.000000
  0
VERTEX
  8
0
 10
152.765083
 20
137.000000
 42
0.000000
  0
SEQEND
  0
POLYLINE
  8
0
 66
1
 70
1
  0
VERTEX
  8
0
 10
484.541370
 20
135.120336
 42
-0.105719
  0
VERTEX
  8
0
 10
490.842729
 20
130.457742
 42
-0.116242
  0
VERTEX
  8
0
 10
494.423324
 20
123.771662
 42
-0.117913
  0
VERTEX
  8
0
 10
494.614555
 20
116.267319
 42
-0.111037
  0
VERTEX
  8
0
 10
491.415964
 20
109.300935
 42
-0.062800
  0
VERTEX
  8
0
 10
488.489142
 20
106.324766
 42
-0.071296
  0
VERTEX
  8
0
 10
485.030956
 20
104.317229
 42
-0.067619
  0
VERTEX
  8
0
 10
480.993077
 20
103.292265
 42
-0.049113
  0
VERTEX
  8
0
 10
476.351648
 20
103.220745
 42
-0.166882
  0
VERTEX
  8
0
 10
466.493637
 20
107.545891
 42
-0.169593
  0
VERTEX
  8
0
 10
461.451195
 20
116.985000
 42
-0.166403
  0
VERTEX
  8
0
 10
463.338438
 20
127.650518
 42
-0.161278
  0
VERTEX
  8
0
 10
471.383912
 20
135.086884
 42
-0.035610
  0
VERTEX
  8
0
 10
474.979160
 20
136.420006
 42
-0.070454
  0
VERTEX
  8
0
 10
477.984711
 20
136.853426
 42
-0.070896
  0
VERTEX
  8
0
 10
480.980117
 20
136.434320
 42
-0.036467
  0
SEQEND
  0
POLYLINE
  8
0
 66
1
 70
1
  0
VERTEX
  8
0
 10
76.688109
 20
49.343713
 42
-0.076058
  0
VERTEX
  8
0
 10
79.512866
 20
47.432310
 42
-0.048221
  0
VERTEX
  8
0
 10
82.161852
 20
44.458634
 42
-0.047078
  0
VERTEX
  8
0
 10
84.266498
 20
40.925661
 42
-0.060058
  0
VERTEX
  8
0
 10
85.469637
 20
37.333679
 42
-0.107909
  0
VERTEX
  8
0
 10
85.400230
 20
31.427254
 42
-0.085932
  0
VERTEX
  8
0
 10
82.922923
 20
25.538002
 42
-0.084731
  0
VERTEX
  8
0
 10
78.567237
 20
20.755071
 42
-0.100341
  0
VERTEX
  8
0
 10
73.105919
 20
18.028521
 42
-0.113727
  0
VERTEX
  8
0
 10
65.352463
 20
17.744989
 42
-0.120512
  0
VERTEX
  8
0
 10
58.440767
 20
20.913139
 42
-0.118566
  0
VERTEX
  8
0
 10
53.693497
 20
26.965937
 42
-0.107681
  0
VERTEX
  8
0
 10
52.000000
 20
34.738271
 42
-0.131929
  0
VERTEX
  8
0
 10
54.149340
 20
42.742319
 42
-0.128676
  0
VERTEX
  8
0
 10
60.033205
 20
48.682546
 42
-0.124971
  0
VERTEX
  8
0
 10
68.222662
 20
51.086882
 42
-0.120573
  0
SEQEND
  0
POLYLINE
  8
0
 66
1
 70
1
  0
VERTEX
  8
0
 10
453.086889
 20
48.720429
 42
-0.112256
  0
VERTEX
  8
0
 10
458.485004
 20
42.974833
 42
-0.114636
  0
VERTEX
  8
0
 10
460.815557
 20
35.503651
 42
-0.116982
  0
VERTEX
  8
0
 10
459.596146
 20
27.889764
 42
-0.120472
  0
VERTEX
  8
0
 10
455.090506
 20
21.729609
 42
-0.084190
  0
VERTEX
  8
0
 10
449.705464
 20
18.563396
 42
-0.095190
  0
VERTEX
  8
0
 10
443.806141
 20
17.528063
 42
-0.094583
  0
VERTEX
  8
0
 10
437.913160
 20
18.751383
 42
-0.081995
  0
VERTEX
  8
0
 10
432.547926
 20
22.092064
 42
-0.123102
  0
VERTEX
  8
0
 10
428.194596
 20
28.383606
 42
-0.116810
  0
VERTEX
  8
0
 10
427.201759
 20
36.112707
 42
-0.114787
  0
VERTEX
  8
0
 10
429.784806
 20
43.571460
 42
-0.115828
  0
VERTEX
  8
0
 10
435.388562
 20
49.095225
 42
-0.088313
  0
VERTEX
  8
0
 10
439.323041
 20
50.627662
 42
-0.054157
  0
VERTEX
  8
0
 10
444.294663
 20
51.061463
 42
-0.054196
  0
VERTEX
  8
0
 10
449.238007
 20
50.417901
 42
-0.089046
  0
SEQEND
  0
POLYLINE
  8
0
 66
1
 70
1
  0
VERTEX
  8
0
 10
103.000000
 20
469.500000
 42
0.000000
  0
VERTEX
  8
0
 10
103.000000
 20
461.000000
 42
0.000000
  0
VERTEX
  8
0
 10
111.500000
 20
461.000000
 42
0.000000
  0
VERTEX
  8
0
 10
120.000000
 20
461.000000
 42
0.000000
  0
VERTEX
  8
0
 10
120.000000
 20
469.500000
 42
0.000000
  0
VERTEX
  8
0
 10
120.000000
 20
478.000000
 42
0.000000
  0
VERTEX
  8
0
 10
111.500000
 20
478.000000
 42
0.000000
  0
VERTEX
  8
0
 10
103.000000
 20
478.000000
 42
0.000000
  0
SEQEND
  0
POLYLINE
  8
0
 66
1
 70
1
  0
VERTEX
  8
0
 10
137.000000
 20
469.500000
 42
0.000000
  0
VERTEX
  8
0
 10
137.000000
 20
461.000000
 42
0.000000
  0
VERTEX
  8
0
 10
174.276234
 20
461.000000
 42
-0.002514
  0
VERTEX
  8
0
 10
189.146381
 20
460.925240
 42
-0.003109
  0
VERTEX
  8
0
 10
202.996363
 20
460.699844
 42
-0.002557
  0
VERTEX
  8
0
 10
214.623270
 20
460.378820
 42
-0.023010
  0
VERTEX
  8
0
 10
219.701535
 20
459.978193
 42
-0.024981
  0
VERTEX
  8
0
 10
231.901125
 20
457.825099
 42
-0.024359
  0
VERTEX
  8
0
 10
243.930277
 20
454.452515
 42
-0.024902
  0
VERTEX
  8
0
 10
255.294193
 20
450.020663
 42
-0.029609
  0
VERTEX
  8
0
 10
265.500000
 20
444.696444
 42
0.004179
  0
VERTEX
  8
0
 10
268.233986
 20
443.088352
 42
0.006241
  0
VERTEX
  8
0
 10
270.652744
 20
441.732706
 42
0.002924
  0
VERTEX
  8
0
 10
272.724694
 20
440.620844
 42
0.122271
  0
VERTEX
  8
0
 10
273.211470
 20
440.500000
 42
0.243068
  0
VERTEX
  8
0
 10
274.375167
 20
441.101238
 42
0.004474
  0
VERTEX
  8
0
 10
278.451594
 20
446.957737
 42
0.004089
  0
VERTEX
  8
0
 10
282.450127
 20
452.917470
 42
0.291983
  0
VERTEX
  8
0
 10
282.466715
 20
454.053856
 42
0.108653
  0
VERTEX
  8
0
 10
282.033040
 20
454.501068
 42
0.003126
  0
VERTEX
  8
0
 10
279.798717
 20
455.958726
 42
0.006185
  0
VERTEX
  8
0
 10
277.124147
 20
457.633442
 42
0.004203
  0
VERTEX
  8
0
 10
274.040787
 20
459.476088
 42
0.027692
  0
VERTEX
  8
0
 10
262.046876
 20
465.642467
 42
0.024848
  0
VERTEX
  8
0
 10
249.008591
 20
470.696950
 42
0.024526
  0
VERTEX
  8
0
 10
235.350042
 20
474.493249
 42
0.025155
  0
VERTEX
  8
0
 10
221.500000
 20
476.895807
 42
0.021562
  0
VERTEX
  8
0
 10
215.925478
 20
477.333427
 42
0.002918
  0
VERTEX
  8
0
 10
204.201542
 20
477.678089
 42
0.003302
  0
VERTEX
  8
0
 10
190.094860
 20
477.917227
 42
0.002568
  0
VERTEX
  8
0
 10
174.750000
 20
477.997183
 42
0.000000
  0
VERTEX
  8
0
 10
137.000000
 20
478.000000
 42
0.000000
  0
SEQEND
  0
POLYLINE
  8
0
 66
1
 70
1
  0
VERTEX
  8
0
 10
107.686529
 20
390.168399
 42
0.010063
  0
VERTEX
  8
0
 10
105.068100
 20
389.471089
 42
0.015682
  0
VERTEX
  8
0
 10
102.846074
 20
388.755013
 42
0.009884
  0
VERTEX
  8
0
 10
101.067724
 20
388.079780
 42
0.273463
  0
VERTEX
  8
0
 10
100.776236
 20
387.699729
 42
0.093655
  0
VERTEX
  8
0
 10
100.813590
 20
387.137677
 42
0.003027
  0
VERTEX
  8
0
 10
101.397401
 20
384.935842
 42
0.005728
  0
VERTEX
  8
0
 10
102.134418
 20
382.340512
 42
0.003938
  0
VERTEX
  8
0
 10
103.026803
 20
379.414536
 42
0.010369
  0
VERTEX
  8
0
 10
104.184264
 20
375.975282
 42
0.035508
  0
VERTEX
  8
0
 10
105.137641
 20
373.819368
 42
0.061379
  0
VERTEX
  8
0
 10
105.971659
 20
372.625948
 42
0.310610
  0
VERTEX
  8
0
 10
106.720006
 20
372.446051
 42
-0.033950
  0
VERTEX
  8
0
 10
107.572351
 20
372.708343
 42
-0.003796
  0
VERTEX
  8
0
 10
109.553318
 20
373.157710
 42
-0.004600
  0
VERTEX
  8
0
 10
111.922594
 20
373.653485
 42
-0.003716
  0
VERTEX
  8
0
 10
114.475457
 20
374.143510
 42
0.007274
  0
VERTEX
  8
0
 10
118.463563
 20
374.938501
 42
0.087529
  0
VERTEX
  8
0
 10
119.909379
 20
375.525929
 42
0.217362
  0
VERTEX
  8
0
 10
120.480582
 20
376.393607
 42
0.077547
  0
VERTEX
  8
0
 10
120.479590
 20
377.912266
 42
-0.006709
  0
VERTEX
  8
0
 10
120.283668
 20
379.282521
 42
-0.001880
  0
VERTEX
  8
0
 10
120.014309
 20
381.428916
 42
-0.001896
  0
VERTEX
  8
0
 10
119.727996
 20
383.858795
 42
-0.001995
  0
VERTEX
  8
0
 10
119.465087
 20
386.250000
 42
0.033361
  0
VERTEX
  8
0
 10
118.752390
 20
390.347388
 42
0.258201
  0
VERTEX
  8
0
 10
117.481840
 20
391.726975
 42
0.133649
  0
VERTEX
  8
0
 10
115.072872
 20
391.860644
 42
0.007463
  0
SEQEND
  0
POLYLINE
  8
0
 66
1
 70
1
  0
VERTEX
  8
0
 10
74.409677
 20
375.146192
 42
0.028068
  0
VERTEX
  8
0
 10
68.535715
 20
370.503155
 42
0.015795
  0
VERTEX
  8
0
 10
61.923883
 20
364.261640
 42
0.015805
  0
VERTEX
  8
0
 10
55.752726
 20
357.650704
 42
0.029503
  0
VERTEX
  8
0
 10
51.261645
 20
351.868897
 42
0.035726
  0
VERTEX
  8
0
 10
45.451155
 20
341.951969
 42
0.027899
  0
VERTEX
  8
0
 10
40.556335
 20
330.464244
 42
0.028145
  0
VERTEX
  8
0
 10
37.020688
 20
318.647826
 42
0.039232
  0
VERTEX
  8
0
 10
35.306281
 20
307.750000
 42
0.000000
  0
VERTEX
  8
0
 10
34.703565
 20
300.000000
 42
0.000000
  0
VERTEX
  8
0
 10
43.351783
 20
300.000000
 42
0.000000
  0
VERTEX
  8
0
 10
52.000000
 20
300.000000
 42
0.000000
  0
VERTEX
  8
0
 10
52.000000
 20
304.340037
 42
-0.047143
  0
VERTEX
  8
0
 10
52.501223
 20
309.644250
 42
-0.017663
  0
VERTEX
  8
0
 10
54.160639
 20
316.936360
 42
-0.017770
  0
VERTEX
  8
0
 10
56.458480
 20
324.508977
 42
-0.026886
  0
VERTEX
  8
0
 10
59.037485
 20
330.893462
 42
-0.036046
  0
VERTEX
  8
0
 10
64.063271
 20
339.884151
 42
-0.030191
  0
VERTEX
  8
0
 10
70.609500
 20
348.637086
 42
-0.030563
  0
VERTEX
  8
0
 10
78.052277
 20
356.411317
 42
-0.040388
  0
VERTEX
  8
0
 10
85.763042
 20
362.461886
 42
0.000000
  0
VERTEX
  8
0
 10
90.024708
 20
365.282124
 42
0.000000
  0
VERTEX
  8
0
 10
87.334549
 20
369.891062
 42
0.000780
  0
VERTEX
  8
0
 10
86.182770
 20
371.857308
 42
0.000640
  0
VERTEX
  8
0
 10
84.946260
 20
373.954524
 42
0.000646
  0
VERTEX
  8
0
 10
83.804745
 20
375.879293
 42
0.001710
  0
VERTEX
  8
0
 10
82.981872
 20
377.252000
 42
0.000000
  0
VERTEX
  8
0
 10
81.319353
 20
380.003999
 42
0.000000
  0
SEQEND
  0
POLYLINE
  8
0
 66
1
 70
1
  0
VERTEX
  8
0
 10
393.597790
 20
389.831234
 42
0.015579
  0
VERTEX
  8
0
 10
393.374843
 20
388.550527
 42
0.003672
  0
VERTEX
  8
0
 10
393.084924
 20
386.397530
 42
0.003778
  0
VERTEX
  8
0
 10
392.788345
 20
383.916032
 42
0.003712
  0
VERTEX
  8
0
 10
392.527438
 20
381.415677
 42
0.000000
  0
VERTEX
  8
0
 10
391.938176
 20
375.331354
 42
0.000000
  0
VERTEX
  8
0
 10
398.719088
 20
374.119538
 42
0.003303
  0
VERTEX
  8
0
 10
401.389361
 20
373.660513
 42
0.004508
  0
VERTEX
  8
0
 10
403.801857
 20
373.284499
 42
0.002995
  0
VERTEX
  8
0
 10
405.828730
 20
372.999673
 42
0.051128
  0
VERTEX
  8
0
 10
406.500000
 20
372.978552
 42
0.291886
  0
VERTEX
  8
0
 10
407.555926
 20
373.762612
 42
0.007115
  0
VERTEX
  8
0
 10
409.730218
 20
379.721560
 42
0.009383
  0
VERTEX
  8
0
 10
411.667552
 20
385.629494
 42
0.167674
  0
VERTEX
  8
0
 10
411.600253
 20
387.599341
 42
0.213919
  0
VERTEX
  8
0
 10
410.705532
 20
388.489609
 42
0.019243
  0
VERTEX
  8
0
 10
407.633325
 20
389.517728
 42
0.020665
  0
VERTEX
  8
0
 10
403.494385
 20
390.544342
 42
0.010929
  0
VERTEX
  8
0
 10
398.289441
 20
391.491211
 42
0.013100
  0
VERTEX
  8
0
 10
395.781579
 20
391.823913
 42
0.111905
  0
VERTEX
  8
0
 10
394.662982
 20
391.692225
 42
0.200649
  0
VERTEX
  8
0
 10
394.024283
 20
391.113578
 42
0.058853
  0
SEQEND
  0
POLYLINE
  8
0
 66
1
 70
1
  0
VERTEX
  8
0
 10
427.110870
 20
372.954521
 42
0.001559
  0
VERTEX
  8
0
 10
425.534977
 20
370.201365
 42
0.002490
  0
VERTEX
  8
0
 10
424.207568
 20
367.838130
 42
0.000499
  0
VERTEX
  8
0
 10
423.052211
 20
365.752098
 42
0.126874
  0
VERTEX
  8
0
 10
423.000000
 20
365.549652
 42
0.229755
  0
VERTEX
  8
0
 10
423.084945
 20
365.374551
 42
0.000751
  0
VERTEX
  8
0
 10
425.034695
 20
363.842661
 42
0.003873
  0
VERTEX
  8
0
 10
427.271091
 20
362.118764
 42
0.002390
  0
VERTEX
  8
0
 10
429.926620
 20
360.124310
 42
-0.012639
  0
VERTEX
  8
0
 10
432.880875
 20
357.809292
 42
-0.009358
  0
VERTEX
  8
0
 10
436.031917
 20
355.108179
 42
-0.009471
  0
VERTEX
  8
0
 10
438.913145
 20
352.443755
 42
-0.020939
  0
VERTEX
  8
0
 10
440.983864
 20
350.280991
 42
-0.041244
  0
VERTEX
  8
0
 10
448.054767
 20
340.771072
 42
-0.033696
  0
VERTEX
  8
0
 10
454.018008
 20
329.578763
 42
-0.034076
  0
VERTEX
  8
0
 10
458.352252
 20
317.852661
 42
-0.045835
  0
VERTEX
  8
0
 10
460.537253
 20
306.750000
 42
0.000000
  0
VERTEX
  8
0
 10
461.232994
 20
300.000000
 42
0.000000
  0
VERTEX
  8
0
 10
469.616497
 20
300.000000
 42
0.000000
  0
VERTEX
  8
0
 10
478.000000
 20
300.000000
 42
0.000000
  0
VERTEX
  8
0
 10
477.986863
 20
303.750000
 42
0.028595
  0
VERTEX
  8
0
 10
477.864278
 20
305.767808
 42
0.007145
  0
VERTEX
  8
0
 10
477.429063
 20
309.042188
 42
0.007277
  0
VERTEX
  8
0
 10
476.822200
 20
312.779295
 42
0.007260
  0
VERTEX
  8
0
 10
476.106418
 20
316.500000
 42
0.047891
  0
VERTEX
  8
0
 10
470.352335
 20
335.082621
 42
0.050799
  0
VERTEX
  8
0
 10
461.250777
 20
351.842134
 42
0.050953
  0
VERTEX
  8
0
 10
448.985427
 20
366.379400
 42
0.048731
  0
VERTEX
  8
0
 10
433.860870
 20
378.380548
 42
0.000000
  0
VERTEX
  8
0
 10
431.221740
 20
380.084730
 42
0.000000
  0
SEQEND
  0
POLYLINE
  8
0
 66
1
 70
1
  0
VERTEX
  8
0
 10
197.000000
 20
272.600000
 42
0.000000
  0
VERTEX
  8
0
 10
197.000000
 20
263.200000
 42
0.000000
  0
VERTEX
  8
0
 10
193.400000
 20
259.600000
 42
0.000000
  0
VERTEX
  8
0
 10
189.800000
 20
256.000000
 42
0.000000
  0
VERTEX
  8
0
 10
180.400000
 20
256.000000
 42
0.000000
  0
VERTEX
  8
0
 10
171.000000
 20
256.000000
 42
0.000000
  0
VERTEX
  8
0
 10
171.000000
 20
247.500000
 42
0.000000
  0
VERTEX
  8
0
 10
171.000000
 20
239.000000
 42
0.000000
  0
VERTEX
  8
0
 10
180.533333
 20
239.000000
 42
0.000000
  0
VERTEX
  8
0
 10
190.066667
 20
239.000000
 42
0.000000
  0
VERTEX
  8
0
 10
193.533333
 20
235.533333
 42
0.000000
  0
VERTEX
  8
0
 10
197.000000
 20
232.066667
 42
0.000000
  0
VERTEX
  8
0
 10
197.000000
 20
222.492891
 42
0.000000
  0
VERTEX
  8
0
 10
197.000000
 20
212.919115
 42
0.000000
  0
VERTEX
  8
0
 10
205.250000
 20
213.209558
 42
0.000000
  0
VERTEX
  8
0
 10
213.500000
 20
213.500000
 42
0.000000
  0
VERTEX
  8
0
 10
214.000000
 20
223.066526
 42
-0.007439
  0
VERTEX
  8
0
 10
214.372868
 20
228.615400
 42
-0.040736
  0
VERTEX
  8
0
 10
214.861286
 20
231.577838
 42
-0.067791
  0
VERTEX
  8
0
 10
215.705964
 20
233.691399
 42
-0.046324
  0
VERTEX
  8
0
 10
217.185440
 20
235.816526
 42
-0.040386
  0
VERTEX
  8
0
 10
219.084100
 20
237.730164
 42
-0.114078
  0
VERTEX
  8
0
 10
220.742586
 20
238.596597
 42
-0.058451
  0
VERTEX
  8
0
 10
223.190825
 20
238.935324
 42
-0.005178
  0
VERTEX
  8
0
 10
229.435440
 20
239.000000
 42
0.000000
  0
VERTEX
  8
0
 10
239.000000
 20
239.000000
 42
0.000000
  0
VERTEX
  8
0
 10
239.000000
 20
247.500000
 42
0.000000
  0
VERTEX
  8
0
 10
239.000000
 20
256.000000
 42
0.000000
  0
VERTEX
  8
0
 10
229.696167
 20
256.000000
 42
-0.005892
  0
VERTEX
  8
0
 10
223.673653
 20
256.070970
 42
-0.058658
  0
VERTEX
  8
0
 10
221.178557
 20
256.424492
 42
-0.102690
  0
VERTEX
  8
0
 10
219.393680
 20
257.314581
 42
-0.033453
  0
VERTEX
  8
0
 10
217.196167
 20
259.297607
 42
-0.034781
  0
VERTEX
  8
0
 10
215.288247
 20
261.561647
 42
-0.097717
  0
VERTEX
  8
0
 10
214.417324
 20
263.431488
 42
-0.054702
  0
VERTEX
  8
0
 10
214.070250
 20
266.049912
 42
-0.005622
  0
VERTEX
  8
0
 10
214.000000
 20
272.297607
 42
0.000000
  0
VERTEX
  8
0
 10
214.000000
 20
282.000000
 42
0.000000
  0
VERTEX
  8
0
 10
205.500000
 20
282.000000
 42
0.000000
  0
VERTEX
  8
0
 10
197.000000
 20
282.000000
 42
0.000000
  0
SEQEND
  0
POLYLINE
  8
0
 66
1
 70
1
  0
VERTEX
  8
0
 10
298.989352
 20
272.250000
 42
-0.005356
  0
VERTEX
  8
0
 10
298.914048
 20
265.871145
 42
-0.057600
  0
VERTEX
  8
0
 10
298.560201
 20
263.315657
 42
-0.103982
  0
VERTEX
  8
0
 10
297.661009
 20
261.500225
 42
-0.033213
  0
VERTEX
  8
0
 10
295.632991
 20
259.250000
 42
-0.033530
  0
VERTEX
  8
0
 10
293.338507
 20
257.302217
 42
-0.098226
  0
VERTEX
  8
0
 10
291.471482
 20
256.420986
 42
-0.055676
  0
VERTEX
  8
0
 10
288.871692
 20
256.070686
 42
-0.005675
  0
VERTEX
  8
0
 10
282.643639
 20
256.000000
 42
0.000000
  0
VERTEX
  8
0
 10
273.000000
 20
256.000000
 42
0.000000
  0
VERTEX
  8
0
 10
273.000000
 20
247.500000
 42
0.000000
  0
VERTEX
  8
0
 10
273.000000
 20
239.000000
 42
0.000000
  0
VERTEX
  8
0
 10
282.803833
 20
239.000000
 42
-0.005283
  0
VERTEX
  8
0
 10
289.209183
 20
238.932318
 42
-0.056884
  0
VERTEX
  8
0
 10
291.774912
 20
238.584407
 42
-0.104169
  0
VERTEX
  8
0
 10
293.586812
 20
237.695686
 42
-0.034368
  0
VERTEX
  8
0
 10
295.803833
 20
235.702393
 42
-0.034781
  0
VERTEX
  8
0
 10
297.711753
 20
233.438353
 42
-0.097717
  0
VERTEX
  8
0
 10
298.582676
 20
231.568512
 42
-0.054702
  0
VERTEX
  8
0
 10
298.929750
 20
228.950088
 42
-0.005622
  0
VERTEX
  8
0
 10
299.000000
 20
222.702393
 42
0.000000
  0
VERTEX
  8
0
 10
299.000000
 20
213.000000
 42
0.000000
  0
VERTEX
  8
0
 10
307.500000
 20
213.000000
 42
0.000000
  0
VERTEX
  8
0
 10
316.000000
 20
213.000000
 42
0.000000
  0
VERTEX
  8
0
 10
316.000000
 20
222.803833
 42
-0.005283
  0
VERTEX
  8
0
 10
316.067682
 20
229.209183
 42
-0.056884
  0
VERTEX
  8
0
 10
316.415593
 20
231.774912
 42
-0.104169
  0
VERTEX
  8
0
 10
317.304314
 20
233.586812
 42
-0.034368
  0
VERTEX
  8
0
 10
319.297607
 20
235.803833
 42
-0.034781
  0
VERTEX
  8
0
 10
321.561647
 20
237.711753
 42
-0.097717
  0
VERTEX
  8
0
 10
323.431488
 20
238.582676
 42
-0.054702
  0
VERTEX
  8
0
 10
326.049912
 20
238.929750
 42
-0.005622
  0
VERTEX
  8
0
 10
332.297607
 20
239.000000
 42
0.000000
  0
VERTEX
  8
0
 10
342.000000
 20
239.000000
 42
0.000000
  0
VERTEX
  8
0
 10
342.000000
 20
247.500000
 42
0.000000
  0
VERTEX
  8
0
 10
342.000000
 20
256.000000
 42
0.000000
  0
VERTEX
  8
0
 10
332.351019
 20
256.000000
 42
0.000000
  0
VERTEX
  8
0
 10
322.702038
 20
256.000000
 42
0.000000
  0
VERTEX
  8
0
 10
319.351019
 20
259.450434
 42
-0.031250
  0
VERTEX
  8
0
 10
317.328267
 20
261.811860
 42
-0.098704
  0
VERTEX
  8
0
 10
316.428057
 20
263.679967
 42
-0.057356
  0
VERTEX
  8
0
 10
316.071615
 20
266.252252
 42
-0.005777
  0
VERTEX
  8
0
 10
316.000000
 20
272.450434
 42
0.000000
  0
VERTEX
  8
0
 10
316.000000
 20
282.000000
 42
0.000000
  0
VERTEX
  8
0
 10
307.500000
 20
282.000000
 42
0.000000
  0
VERTEX
  8
0
 10
299.000000
 20
282.000000
 42
0.000000
  0
SEQEND
  0
POLYLINE
  8
0
 66
1
 70
1
  0
VERTEX
  8
0
 10
199.031280
 20
193.533296
 42
0.054356
  0
VERTEX
  8
0
 10
197.753413
 20
191.836842
 42
0.094185
  0
VERTEX
  8
0
 10
197.151670
 20
190.184055
 42
0.050601
  0
VERTEX
  8
0
 10
197.007507
 20
187.793327
 42
0.006885
  0
VERTEX
  8
0
 10
197.281617
 20
182.783296
 42
0.083831
  0
VERTEX
  8
0
 10
201.684759
 20
164.449157
 42
0.081764
  0
VERTEX
  8
0
 10
211.884777
 20
148.399421
 42
0.080627
  0
VERTEX
  8
0
 10
226.837549
 20
136.293042
 42
0.078309
  0
VERTEX
  8
0
 10
245.000000
 20
129.386330
 42
0.066658
  0
VERTEX
  8
0
 10
259.590953
 20
128.305072
 42
0.063697
  0
VERTEX
  8
0
 10
274.191145
 20
131.058061
 42
0.062999
  0
VERTEX
  8
0
 10
287.770729
 20
137.441489
 42
0.062620
  0
VERTEX
  8
0
 10
299.363742
 20
147.016077
 42
0.029226
  0
VERTEX
  8
0
 10
304.415023
 20
153.050412
 42
0.033629
  0
VERTEX
  8
0
 10
308.474959
 20
159.366623
 42
0.033725
  0
VERTEX
  8
0
 10
311.642278
 20
166.153757
 42
0.029712
  0
VERTEX
  8
0
 10
314.024555
 20
173.596011
 42
0.020109
  0
VERTEX
  8
0
 10
315.591961
 20
180.943438
 42
0.048532
  0
VERTEX
  8
0
 10
315.996671
 20
186.479353
 42
0.069286
  0
VERTEX
  8
0
 10
315.321095
 20
190.603657
 42
0.121768
  0
VERTEX
  8
0
 10
313.545455
 20
193.545455
 42
0.000000
  0
VERTEX
  8
0
 10
311.090909
 20
196.000000
 42
0.000000
  0
VERTEX
  8
0
 10
256.219769
 20
196.000000
 42
0.000000
  0
VERTEX
  8
0
 10
201.348628
 20
196.000000
 42
0.000000
  0
SEQEND
  0
POLYLINE
  8
0
 66
1
 70
1
  0
VERTEX
  8
0
 10
297.470959
 20
176.750000
 42
-0.088179
  0
VERTEX
  8
0
 10
290.528769
 20
162.835923
 42
-0.088518
  0
VERTEX
  8
0
 10
279.224731
 20
152.187867
 42
-0.090197
  0
VERTEX
  8
0
 10
265.133058
 20
146.245890
 42
-0.096132
  0
VERTEX
  8
0
 10
250.176406
 20
145.835052
 42
-0.072507
  0
VERTEX
  8
0
 10
238.495729
 20
149.563471
 42
-0.066448
  0
VERTEX
  8
0
 10
227.976605
 20
156.552418
 42
-0.068369
  0
VERTEX
  8
0
 10
219.919746
 20
165.829216
 42
-0.086433
  0
VERTEX
  8
0
 10
215.437916
 20
176.250000
 42
0.000000
  0
VERTEX
  8
0
 10
214.783184
 20
179.000000
 42
0.000000
  0
VERTEX
  8
0
 10
256.458980
 20
179.000000
 42
0.000000
  0
VERTEX
  8
0
 10
298.134775
 20
179.000000
 42
0.000000
  0
SEQEND
  0
ENDSEC
  0
EOF
