  0
SECTION
  2
HEADER
  9
$ACADVER
  1
AC1006
  9
$EXTMIN
 10
0.000000
 20
0.000000
 30
0.000000
  9
$EXTMAX
 10
512.000000
 20
512.000000
 30
0.000000
  0
ENDSEC
  0
SECTION
  2
ENTITIES
  0
POLYLINE
  8
0
 66
1
 70
1
  0
VERTEX
  8
0
 10
217.923077
 20
509.076923
 42
0.033685
  0
VERTEX
  8
0
 10
216.550557
 20
507.505871
 42
0.057087
  0
VERTEX
  8
0
 10
215.658602
 20
506.006527
 42
0.060942
  0
VERTEX
  8
0
 10
215.165208
 20
504.416441
 42
0.044815
  0
VERTEX
  8
0
 10
215.000000
 20
502.576923
 42
-0.021261
  0
VERTEX
  8
0
 10
214.918907
 20
500.670720
 42
-0.111552
  0
VERTEX
  8
0
 10
214.603721
 20
499.677265
 42
-0.182852
  0
VERTEX
  8
0
 10
213.978183
 20
499.171743
 42
-0.079662
  0
VERTEX
  8
0
 10
212.907084
 20
499.000000
 42
0.075952
  0
VERTEX
  8
0
 10
195.191045
 20
496.293258
 42
0.010740
  0
VERTEX
  8
0
 10
160.127173
 20
484.490102
 42
0.007652
  0
VERTEX
  8
0
 10
124.785183
 20
471.127241
 42
0.146789
  0
VERTEX
  8
0
 10
115.657208
 20
463.920984
 42
0.083956
  0
VERTEX
  8
0
 10
114.476748
 20
461.436098
 42
0.068325
  0
VERTEX
  8
0
 10
114.066330
 20
458.513932
 42
0.068501
  0
VERTEX
  8
0
 10
114.458656
 20
455.596833
 42
0.085340
  0
VERTEX
  8
0
 10
115.623767
 20
453.126761
 42
-0.026270
  0
VERTEX
  8
0
 10
116.516991
 20
451.697237
 42
-0.140933
  0
VERTEX
  8
0
 10
116.720617
 20
450.811359
 42
-0.134912
  0
VERTEX
  8
0
 10
116.427111
 20
449.932428
 42
-0.023323
  0
VERTEX
  8
0
 10
115.373767
 20
448.509177
 42
0.000014
  0
VERTEX
  8
0
 10
114.286281
 20
447.174629
 42
0.000002
  0
VERTEX
  8
0
 10
112.211048
 20
444.627763
 42
0.000003
  0
VERTEX
  8
0
 10
109.773024
 20
441.635596
 42
0.000002
  0
VERTEX
  8
0
 10
107.238313
 20
438.524703
 42
-0.011487
  0
VERTEX
  8
0
 10
104.488087
 20
435.303317
 42
-0.009353
  0
VERTEX
  8
0
 10
101.401233
 20
431.978766
 42
-0.009475
  0
VERTEX
  8
0
 10
98.442111
 20
429.023183
 42
-0.024244
  0
VERTEX
  8
0
 10
96.160411
 20
427.032563
 42
0.025859
  0
VERTEX
  8
0
 10
94.055570
 20
425.184239
 42
0.014778
  0
VERTEX
  8
0
 10
91.702801
 20
422.752701
 42
0.014733
  0
VERTEX
  8
0
 10
89.474664
 20
420.159988
 42
0.023620
  0
VERTEX
  8
0
 10
87.748764
 20
417.808817
 42
0.033274
  0
VERTEX
  8
0
 10
85.111836
 20
413.197604
 42
0.019279
  0
VERTEX
  8
0
 10
82.540271
 20
407.351250
 42
0.017892
  0
VERTEX
  8
0
 10
80.541134
 20
401.700771
 42
0.076216
  0
VERTEX
  8
0
 10
80.000000
 20
398.171393
 42
-0.083527
  0
VERTEX
  8
0
 10
79.803253
 20
397.001866
 42
-0.007664
  0
VERTEX
  8
0
 10
78.793460
 20
394.223988
 42
-0.009731
  0
VERTEX
  8
0
 10
77.465651
 20
390.932599
 42
-0.007475
  0
VERTEX
  8
0
 10
75.892630
 20
387.389847
 42
0.014070
  0
VERTEX
  8
0
 10
68.856649
 20
370.962696
 42
0.011162
  0
VERTEX
  8
0
 10
62.159598
 20
352.853298
 42
0.011413
  0
VERTEX
  8
0
 10
56.571080
 20
335.350712
 42
0.021304
  0
VERTEX
  8
0
 10
52.982452
 20
320.913890
 42
0.049520
  0
VERTEX
  8
0
 10
49.219669
 20
284.179387
 42
0.042495
  0
VERTEX
  8
0
 10
52.396904
 20
245.435232
 42
0.040675
  0
VERTEX
  8
0
 10
62.356042
 20
206.115208
 42
0.037170
  0
VERTEX
  8
0
 10
78.777289
 20
167.670091
 42
0.013174
  0
VERTEX
  8
0
 10
83.282770
 20
159.507037
 42
0.067257
  0
VERTEX
  8
0
 10
86.473669
 20
155.437660
 42
0.123288
  0
VERTEX
  8
0
 10
89.641949
 20
153.597616
 42
0.098318
  0
VERTEX
  8
0
 10
93.591775
 20
153.261805
 42
0.000000
  0
VERTEX
  8
0
 10
97.683550
 20
153.718657
 42
0.000000
  0
VERTEX
  8
0
 10
102.995465
 20
140.109329
 42
0.009826
  0
VERTEX
  8
0
 10
113.520443
 20
114.633555
 42
0.008459
  0
VERTEX
  8
0
 10
125.556703
 20
88.274210
 42
0.003932
  0
VERTEX
  8
0
 10
137.311442
 20
64.133174
 42
0.133221
  0
VERTEX
  8
0
 10
141.512115
 20
59.400105
 42
0.049549
  0
VERTEX
  8
0
 10
142.856533
 20
58.698439
 42
0.051866
  0
VERTEX
  8
0
 10
144.292437
 20
58.288079
 42
0.048603
  0
VERTEX
  8
0
 10
145.862652
 20
58.165990
 42
0.035350
  0
VERTEX
  8
0
 10
147.608597
 20
58.323910
 42
0.044754
  0
VERTEX
  8
0
 10
150.553163
 20
59.076797
 42
0.086478
  0
VERTEX
  8
0
 10
152.666362
 20
60.265218
 42
0.083181
  0
VERTEX
  8
0
 10
154.304229
 20
62.132683
 42
0.038901
  0
VERTEX
  8
0
 10
155.783345
 20
65.000000
 42
-0.008401
  0
VERTEX
  8
0
 10
156.712580
 20
67.107427
 42
-0.147958
  0
VERTEX
  8
0
 10
157.202114
 20
67.659002
 42
-0.372175
  0
VERTEX
  8
0
 10
157.683079
 20
67.580669
 42
-0.041182
  0
VERTEX
  8
0
 10
158.378441
 20
66.595122
 42
0.040599
  0
VERTEX
  8
0
 10
165.639699
 20
56.278180
 42
0.019919
  0
VERTEX
  8
0
 10
176.411013
 20
44.345039
 42
0.019861
  0
VERTEX
  8
0
 10
188.366499
 20
33.050557
 42
0.032872
  0
VERTEX
  8
0
 10
199.401097
 20
24.635187
 42
0.028971
  0
VERTEX
  8
0
 10
213.307193
 20
16.526685
 42
0.016525
  0
VERTEX
  8
0
 10
230.937024
 20
8.293150
 42
0.014047
  0
VERTEX
  8
0
 10
247.875868
 20
1.610314
 42
0.087141
  0
VERTEX
  8
0
 10
257.045382
 20
-0.000000
 42
0.068706
  0
VERTEX
  8
0
 10
261.058461
 20
0.554060
 42
0.008453
  0
VERTEX
  8
0
 10
269.554531
 20
3.101420
 42
0.010613
  0
VERTEX
  8
0
 10
278.872142
 20
6.287015
 42
0.013428
  0
VERTEX
  8
0
 10
287.333786
 20
9.642318
 42
0.033382
  0
VERTEX
  8
0
 10
306.200299
 20
19.252142
 42
0.032328
  0
VERTEX
  8
0
 10
323.833636
 20
31.380057
 42
0.033346
  0
VERTEX
  8
0
 10
339.190079
 20
45.227732
 42
0.042611
  0
VERTEX
  8
0
 10
351.241602
 20
59.973975
 42
0.000000
  0
VERTEX
  8
0
 10
356.862489
 20
68.189869
 42
0.000000
  0
VERTEX
  8
0
 10
358.851035
 20
64.291995
 42
0.088372
  0
VERTEX
  8
0
 10
361.693848
 20
60.537122
 42
0.114793
  0
VERTEX
  8
0
 10
365.431894
 20
58.407287
 42
0.124430
  0
VERTEX
  8
0
 10
369.492855
 20
58.237751
 42
0.115675
  0
VERTEX
  8
0
 10
373.272086
 20
59.999383
 42
0.108591
  0
VERTEX
  8
0
 10
377.501457
 20
65.145304
 42
0.006114
  0
VERTEX
  8
0
 10
386.712811
 20
83.766086
 42
0.008985
  0
VERTEX
  8
0
 10
397.236340
 20
106.761444
 42
0.005977
  0
VERTEX
  8
0
 10
408.507372
 20
133.474783
 42
0.000000
  0
VERTEX
  8
0
 10
416.655345
 20
153.449565
 42
0.000000
  0
VERTEX
  8
0
 10
420.828096
 20
153.148283
 42
0.029764
  0
VERTEX
  8
0
 10
423.161242
 20
153.118959
 42
0.078851
  0
VERTEX
  8
0
 10
424.790317
 20
153.456518
 42
0.077740
  0
VERTEX
  8
0
 10
426.248221
 20
154.285193
 42
0.028350
  0
VERTEX
  8
0
 10
428.024984
 20
155.871138
 42
0.075275
  0
VERTEX
  8
0
 10
431.419336
 20
160.476753
 42
0.006463
  0
VERTEX
  8
0
 10
438.091768
 20
173.549535
 42
0.009377
  0
VERTEX
  8
0
 10
444.662761
 20
187.497824
 42
0.017291
  0
VERTEX
  8
0
 10
449.393811
 20
199.108690
 42
0.015693
  0
VERTEX
  8
0
 10
454.363475
 20
214.056745
 42
0.013415
  0
VERTEX
  8
0
 10
458.674998
 20
230.086262
 42
0.013831
  0
VERTEX
  8
0
 10
461.928820
 20
245.483069
 42
0.024074
  0
VERTEX
  8
0
 10
463.652861
 20
258.421581
 42
0.007751
  0
VERTEX
  8
0
 10
463.970334
 20
263.026760
 42
0.054527
  0
VERTEX
  8
0
 10
463.845578
 20
265.267515
 42
0.096719
  0
VERTEX
  8
0
 10
463.253880
 20
266.851965
 42
0.051031
  0
VERTEX
  8
0
 10
461.974699
 20
268.526932
 42
0.134813
  0
VERTEX
  8
0
 10
458.499010
 20
270.651197
 42
0.145691
  0
VERTEX
  8
0
 10
454.536870
 20
270.616495
 42
0.146207
  0
VERTEX
  8
0
 10
451.248824
 20
268.422279
 42
0.136013
  0
VERTEX
  8
0
 10
449.588898
 20
264.721258
 42
0.002057
  0
VERTEX
  8
0
 10
449.326279
 20
262.949197
 42
0.000470
  0
VERTEX
  8
0
 10
448.897191
 20
259.949369
 42
0.000486
  0
VERTEX
  8
0
 10
448.409187
 20
256.490468
 42
0.000474
  0
VERTEX
  8
0
 10
447.923561
 20
253.000000
 42
-0.021973
  0
VERTEX
  8
0
 10
445.214350
 20
238.215313
 42
-0.015241
  0
VERTEX
  8
0
 10
440.917255
 20
221.774703
 42
-0.014880
  0
VERTEX
  8
0
 10
435.460668
 20
205.079377
 42
-0.017079
  0
VERTEX
  8
0
 10
429.241648
 20
189.500000
 42
-0.002304
  0
VERTEX
  8
0
 10
424.768980
 20
179.445678
 42
-0.025398
  0
VERTEX
  8
0
 10
422.757414
 20
175.524130
 42
-0.080875
  0
VERTEX
  8
0
 10
421.367509
 20
173.826776
 42
-0.292458
  0
VERTEX
  8
0
 10
420.050310
 20
173.622023
 42
0.033075
  0
VERTEX
  8
0
 10
419.245768
 20
173.914528
 42
0.011376
  0
VERTEX
  8
0
 10
418.048037
 20
174.232936
 42
0.011248
  0
VERTEX
  8
0
 10
416.707398
 20
174.525119
 42
0.012792
  0
VERTEX
  8
0
 10
415.411092
 20
174.742983
 42
0.170505
  0
VERTEX
  8
0
 10
411.566679
 20
173.976345
 42
0.116015
  0
VERTEX
  8
0
 10
408.321512
 20
170.857247
 42
0.043534
  0
VERTEX
  8
0
 10
404.637331
 20
163.903220
 42
0.005367
  0
VERTEX
  8
0
 10
398.110478
 20
148.000000
 42
-0.003946
  0
VERTEX
  8
0
 10
391.068936
 20
130.702914
 42
-0.004022
  0
VERTEX
  8
0
 10
383.799276
 20
113.629751
 42
-0.004215
  0
VERTEX
  8
0
 10
377.062094
 20
98.503466
 42
-0.010405
  0
VERTEX
  8
0
 10
371.797305
 20
87.555876
 42
0.000000
  0
VERTEX
  8
0
 10
368.278070
 20
80.611752
 42
0.000000
  0
VERTEX
  8
0
 10
366.504190
 20
84.349927
 42
0.065456
  0
VERTEX
  8
0
 10
364.863184
 20
86.888886
 42
0.057600
  0
VERTEX
  8
0
 10
362.556181
 20
89.043290
 42
0.060686
  0
VERTEX
  8
0
 10
359.967812
 20
90.507853
 42
0.098741
  0
VERTEX
  8
0
 10
357.500000
 20
91.000000
 42
0.109970
  0
VERTEX
  8
0
 10
354.614607
 20
90.357617
 42
0.079576
  0
VERTEX
  8
0
 10
351.881361
 20
88.499962
 42
0.056651
  0
VERTEX
  8
0
 10
349.133009
 20
85.249280
 42
0.023663
  0
VERTEX
  8
0
 10
346.171539
 20
80.323981
 42
-0.020050
  0
VERTEX
  8
0
 10
341.485836
 20
72.402047
 42
-0.021970
  0
VERTEX
  8
0
 10
336.312215
 20
65.126922
 42
-0.021113
  0
VERTEX
  8
0
 10
330.333458
 20
58.090544
 42
-0.016025
  0
VERTEX
  8
0
 10
323.222279
 20
50.881771
 42
-0.030355
  0
VERTEX
  8
0
 10
311.020120
 20
40.615005
 42
-0.027599
  0
VERTEX
  8
0
 10
297.282344
 20
31.543615
 42
-0.027175
  0
VERTEX
  8
0
 10
282.402141
 20
23.908454
 42
-0.027194
  0
VERTEX
  8
0
 10
266.785112
 20
17.934259
 42
0.000000
  0
VERTEX
  8
0
 10
257.070223
 20
14.811677
 42
0.000000
  0
VERTEX
  8
0
 10
247.285112
 20
18.023885
 42
-0.018252
  0
VERTEX
  8
0
 10
237.279714
 20
21.718039
 42
-0.015396
  0
VERTEX
  8
0
 10
226.976025
 20
26.331475
 42
-0.015412
  0
VERTEX
  8
0
 10
216.989074
 20
31.563691
 42
-0.018429
  0
VERTEX
  8
0
 10
207.935954
 20
37.117502
 42
-0.034409
  0
VERTEX
  8
0
 10
195.924631
 20
46.361093
 42
-0.027369
  0
VERTEX
  8
0
 10
184.284270
 20
57.863266
 42
-0.027712
  0
VERTEX
  8
0
 10
174.157897
 20
70.354071
 42
-0.039317
  0
VERTEX
  8
0
 10
166.719080
 20
82.562814
 42
0.023721
  0
VERTEX
  8
0
 10
164.397541
 20
86.654675
 42
0.082088
  0
VERTEX
  8
0
 10
162.379206
 20
88.922238
 42
0.109158
  0
VERTEX
  8
0
 10
160.073961
 20
90.070747
 42
0.061267
  0
VERTEX
  8
0
 10
156.953564
 20
90.454545
 42
0.072319
  0
VERTEX
  8
0
 10
154.003076
 20
90.025550
 42
0.083227
  0
VERTEX
  8
0
 10
151.449768
 20
88.776871
 42
0.073904
  0
VERTEX
  8
0
 10
149.222150
 20
86.623482
 42
0.043861
  0
VERTEX
  8
0
 10
147.234208
 20
83.502361
 42
0.000000
  0
VERTEX
  8
0
 10
145.673174
 20
80.500000
 42
0.000000
  0
VERTEX
  8
0
 10
140.741733
 20
91.000000
 42
-0.003743
  0
VERTEX
  8
0
 10
133.982085
 20
105.677184
 42
-0.004402
  0
VERTEX
  8
0
 10
127.805514
 20
119.684452
 42
-0.004401
  0
VERTEX
  8
0
 10
121.875586
 20
133.800435
 42
-0.003740
  0
VERTEX
  8
0
 10
115.857958
 20
148.804725
 42
0.004160
  0
VERTEX
  8
0
 10
111.900507
 20
158.648221
 42
0.012073
  0
VERTEX
  8
0
 10
108.944281
 20
165.362936
 42
0.015445
  0
VERTEX
  8
0
 10
106.608604
 20
169.963799
 42
0.077299
  0
VERTEX
  8
0
 10
104.852745
 20
172.250000
 42
0.064233
  0
VERTEX
  8
0
 10
102.516839
 20
173.964896
 42
0.083244
  0
VERTEX
  8
0
 10
100.014592
 20
174.846889
 42
0.087337
  0
VERTEX
  8
0
 10
97.456908
 20
174.843170
 42
0.079092
  0
VERTEX
  8
0
 10
94.956992
 20
173.976983
 42
-0.183339
  0
VERTEX
  8
0
 10
93.756958
 20
173.821624
 42
-0.160956
  0
VERTEX
  8
0
 10
92.676589
 20
174.488589
 42
-0.052423
  0
VERTEX
  8
0
 10
91.370327
 20
176.423609
 42
-0.005792
  0
VERTEX
  8
0
 10
88.911890
 20
181.175241
 42
-0.021437
  0
VERTEX
  8
0
 10
81.984585
 20
196.562870
 42
-0.017226
  0
VERTEX
  8
0
 10
75.832740
 20
213.644009
 42
-0.016799
  0
VERTEX
  8
0
 10
70.711774
 20
231.611625
 42
-0.017421
  0
VERTEX
  8
0
 10
66.878210
 20
249.666878
 42
-0.026565
  0
VERTEX
  8
0
 10
65.141279
 20
263.920542
 42
-0.015102
  0
VERTEX
  8
0
 10
64.482193
 20
281.283722
 42
-0.015098
  0
VERTEX
  8
0
 10
64.865246
 20
298.338904
 42
-0.031718
  0
VERTEX
  8
0
 10
66.399693
 20
311.500000
 42
-0.015468
  0
VERTEX
  8
0
 10
68.549702
 20
321.566723
 42
-0.009662
  0
VERTEX
  8
0
 10
71.657456
 20
333.217578
 42
-0.009167
  0
VERTEX
  8
0
 10
75.460909
 20
345.586294
 42
-0.009049
  0
VERTEX
  8
0
 10
79.730849
 20
357.861461
 42
0.000000
  0
VERTEX
  8
0
 10
84.309718
 20
370.294940
 42
0.000000
  0
VERTEX
  8
0
 10
86.332246
 20
367.397470
 42
0.051295
  0
VERTEX
  8
0
 10
92.578545
 20
360.158297
 42
0.042865
  0
VERTEX
  8
0
 10
100.534881
 20
353.845621
 42
0.044922
  0
VERTEX
  8
0
 10
108.736684
 20
349.415395
 42
0.101667
  0
VERTEX
  8
0
 10
115.615141
 20
348.000789
 42
0.085889
  0
VERTEX
  8
0
 10
119.602840
 20
348.690094
 42
0.106678
  0
VERTEX
  8
0
 10
122.794668
 20
350.669389
 42
0.069505
  0
VERTEX
  8
0
 10
125.798629
 20
354.505160
 42
0.018995
  0
VERTEX
  8
0
 10
129.408858
 20
361.312848
 42
-0.035693
  0
VERTEX
  8
0
 10
135.163440
 20
371.340715
 42
-0.037704
  0
VERTEX
  8
0
 10
142.192086
 20
380.254385
 42
-0.037311
  0
VERTEX
  8
0
 10
150.551560
 20
388.091082
 42
-0.033543
  0
VERTEX
  8
0
 10
160.274244
 20
394.907939
 42
0.109679
  0
VERTEX
  8
0
 10
165.226659
 20
399.642458
 42
0.148607
  0
VERTEX
  8
0
 10
167.011904
 20
405.531329
 42
0.115776
  0
VERTEX
  8
0
 10
165.358838
 20
412.552473
 42
0.052339
  0
VERTEX
  8
0
 10
160.256160
 20
420.577902
 42
0.059411
  0
VERTEX
  8
0
 10
153.980178
 20
426.801326
 42
0.043833
  0
VERTEX
  8
0
 10
145.760975
 20
432.126569
 42
0.044792
  0
VERTEX
  8
0
 10
137.034361
 20
435.793147
 42
0.077213
  0
VERTEX
  8
0
 10
129.265848
 20
437.000000
 42
0.000000
  0
VERTEX
  8
0
 10
125.709886
 20
437.000000
 42
0.000000
  0
VERTEX
  8
0
 10
130.686921
 20
442.262482
 42
0.025845
  0
VERTEX
  8
0
 10
134.100134
 20
446.267010
 42
0.068083
  0
VERTEX
  8
0
 10
135.963690
 20
449.535299
 42
0.094458
  0
VERTEX
  8
0
 10
136.545265
 20
452.496969
 42
0.092478
  0
VERTEX
  8
0
 10
136.004294
 20
455.488707
 42
-0.083652
  0
VERTEX
  8
0
 10
135.679955
 20
457.118785
 42
-0.213423
  0
VERTEX
  8
0
 10
136.129062
 20
458.208115
 42
-0.077434
  0
VERTEX
  8
0
 10
137.645316
 20
459.255836
 42
-0.005648
  0
VERTEX
  8
0
 10
142.252659
 20
461.418139
 42
-0.018706
  0
VERTEX
  8
0
 10
162.139206
 20
469.594892
 42
-0.014737
  0
VERTEX
  8
0
 10
184.219871
 20
476.991164
 42
-0.013886
  0
VERTEX
  8
0
 10
204.496934
 20
482.515271
 42
-0.059622
  0
VERTEX
  8
0
 10
216.903866
 20
484.000000
 42
0.047131
  0
VERTEX
  8
0
 10
221.373391
 20
484.422245
 42
0.084645
  0
VERTEX
  8
0
 10
224.815730
 20
485.707242
 42
0.094042
  0
VERTEX
  8
0
 10
227.399311
 20
487.944547
 42
0.070655
  0
VERTEX
  8
0
 10
229.299627
 20
491.199086
 42
0.000000
  0
VERTEX
  8
0
 10
230.520472
 20
494.191041
 42
0.000000
  0
VERTEX
  8
0
 10
236.583947
 20
489.727364
 42
-0.010152
  0
VERTEX
  8
0
 10
239.051623
 20
487.832329
 42
-0.010008
  0
VERTEX
  8
0
 10
241.452336
 20
485.829839
 42
-0.009923
  0
VERTEX
  8
0
 10
243.484049
 20
483.993012
 42
-0.037360
  0
VERTEX
  8
0
 10
244.642517
 20
482.727336
 42
0.055470
  0
VERTEX
  8
0
 10
247.180909
 20
480.147718
 42
0.044817
  0
VERTEX
  8
0
 10
250.405407
 20
477.974452
 42
0.046354
  0
VERTEX
  8
0
 10
253.803626
 20
476.494100
 42
0.079436
  0
VERTEX
  8
0
 10
256.848871
 20
476.003738
 42
0.065406
  0
VERTEX
  8
0
 10
260.352488
 20
476.460044
 42
0.058418
  0
VERTEX
  8
0
 10
263.765599
 20
477.810785
 42
0.049162
  0
VERTEX
  8
0
 10
267.256531
 20
480.157191
 42
0.027769
  0
VERTEX
  8
0
 10
271.006837
 20
483.619936
 42
-0.021697
  0
VERTEX
  8
0
 10
274.469557
 20
486.895886
 42
-0.014017
  0
VERTEX
  8
0
 10
278.740305
 20
490.393989
 42
-0.008243
  0
VERTEX
  8
0
 10
282.907035
 20
493.507669
 42
-0.157603
  0
VERTEX
  8
0
 10
284.430175
 20
494.000000
 42
-0.274044
  0
VERTEX
  8
0
 10
284.649807
 20
493.869848
 42
-0.053999
  0
VERTEX
  8
0
 10
284.832614
 20
493.428881
 42
-0.043574
  0
VERTEX
  8
0
 10
284.958645
 20
492.800720
 42
-0.027735
  0
VERTEX
  8
0
 10
285.000000
 20
492.055764
 42
0.084671
  0
VERTEX
  8
0
 10
285.159142
 20
491.122737
 42
0.031367
  0
VERTEX
  8
0
 10
285.680607
 20
489.891394
 42
0.030000
  0
VERTEX
  8
0
 10
286.430244
 20
488.592056
 42
0.031784
  0
VERTEX
  8
0
 10
287.316961
 20
487.417899
 42
0.059403
  0
VERTEX
  8
0
 10
288.946327
 20
485.924862
 42
0.081532
  0
VERTEX
  8
0
 10
290.724061
 20
485.043212
 42
0.045633
  0
VERTEX
  8
0
 10
293.382812
 20
484.486274
 42
0.007659
  0
VERTEX
  8
0
 10
298.566961
 20
483.966303
 42
-0.012733
  0
VERTEX
  8
0
 10
302.603285
 20
483.520051
 42
-0.007633
  0
VERTEX
  8
0
 10
307.372795
 20
482.795103
 42
-0.007640
  0
VERTEX
  8
0
 10
312.099731
 20
481.928168
 42
-0.013177
  0
VERTEX
  8
0
 10
316.000000
 20
481.043618
 42
-0.013728
  0
VERTEX
  8
0
 10
327.147175
 20
477.876466
 42
-0.006723
  0
VERTEX
  8
0
 10
341.174310
 20
473.263363
 42
-0.006728
  0
VERTEX
  8
0
 10
355.222789
 20
468.220569
 42
-0.012351
  0
VERTEX
  8
0
 10
366.500000
 20
463.679798
 42
0.000000
  0
VERTEX
  8
0
 10
378.500000
 20
458.500000
 42
0.000000
  0
VERTEX
  8
0
 10
378.188224
 20
453.500000
 42
0.025525
  0
VERTEX
  8
0
 10
378.152983
 20
450.363470
 42
0.101624
  0
VERTEX
  8
0
 10
378.612390
 20
448.505148
 42
0.076877
  0
VERTEX
  8
0
 10
379.827353
 20
446.722986
 42
0.010874
  0
VERTEX
  8
0
 10
382.938224
 20
443.537592
 42
-0.006090
  0
VERTEX
  8
0
 10
384.878035
 20
441.588961
 42
-0.009222
  0
VERTEX
  8
0
 10
386.513103
 20
439.842632
 42
-0.004580
  0
VERTEX
  8
0
 10
387.846922
 20
438.336821
 42
-0.180870
  0
VERTEX
  8
0
 10
388.000000
 20
437.927495
 42
-0.340476
  0
VERTEX
  8
0
 10
387.784710
 20
437.647985
 42
-0.011170
  0
VERTEX
  8
0
 10
386.324409
 20
437.297128
 42
-0.017118
  0
VERTEX
  8
0
 10
384.482627
 20
436.963460
 42
-0.010537
  0
VERTEX
  8
0
 10
382.295859
 20
436.691086
 42
0.074715
  0
VERTEX
  8
0
 10
372.969371
 20
434.289791
 42
0.052126
  0
VERTEX
  8
0
 10
363.447132
 20
429.021961
 42
0.051991
  0
VERTEX
  8
0
 10
355.190896
 20
421.877219
 42
0.072942
  0
VERTEX
  8
0
 10
349.630996
 20
413.887033
 42
0.056699
  0
VERTEX
  8
0
 10
347.227672
 20
407.283145
 42
0.157991
  0
VERTEX
  8
0
 10
347.605696
 20
402.424185
 42
0.117651
  0
VERTEX
  8
0
 10
350.924821
 20
397.826307
 42
0.025031
  0
VERTEX
  8
0
 10
358.768484
 20
391.722967
 42
-0.030223
  0
VERTEX
  8
0
 10
367.640441
 20
384.670474
 42
-0.037284
  0
VERTEX
  8
0
 10
374.949909
 20
377.044344
 42
-0.037498
  0
VERTEX
  8
0
 10
381.013305
 20
368.455296
 42
-0.031164
  0
VERTEX
  8
0
 10
386.153321
 20
358.520135
 42
0.042203
  0
VERTEX
  8
0
 10
388.986884
 20
353.326963
 42
0.093487
  0
VERTEX
  8
0
 10
392.116296
 20
350.101419
 42
0.108364
  0
VERTEX
  8
0
 10
395.885230
 20
348.515902
 42
0.070511
  0
VERTEX
  8
0
 10
400.622396
 20
348.319045
 42
0.065438
  0
VERTEX
  8
0
 10
407.488452
 20
349.926303
 42
0.054176
  0
VERTEX
  8
0
 10
414.193449
 20
353.322797
 42
0.051274
  0
VERTEX
  8
0
 10
420.352547
 20
358.299220
 42
0.046441
  0
VERTEX
  8
0
 10
425.600759
 20
364.581772
 42
0.000000
  0
VERTEX
  8
0
 10
429.482712
 20
370.218196
 42
0.000000
  0
VERTEX
  8
0
 10
431.837234
 20
364.859098
 42
-0.022667
  0
VERTEX
  8
0
 10
437.017848
 20
351.448064
 42
-0.012909
  0
VERTEX
  8
0
 10
442.113871
 20
334.826523
 42
-0.012897
  0
VERTEX
  8
0
 10
446.363448
 20
317.893408
 42
-0.021832
  0
VERTEX
  8
0
 10
448.929649
 20
303.500000
 42
0.010736
  0
VERTEX
  8
0
 10
449.595890
 20
299.215123
 42
0.041079
  0
VERTEX
  8
0
 10
450.284175
 20
296.605067
 42
0.063899
  0
VERTEX
  8
0
 10
451.203792
 20
294.783743
 42
0.063564
  0
VERTEX
  8
0
 10
452.554851
 20
293.250000
 42
0.055741
  0
VERTEX
  8
0
 10
454.829529
 20
291.659117
 42
0.120278
  0
VERTEX
  8
0
 10
456.881484
 20
291.114259
 42
0.118730
  0
VERTEX
  8
0
 10
458.971336
 20
291.573301
 42
0.053537
  0
VERTEX
  8
0
 10
461.365141
 20
293.072580
 42
0.047722
  0
VERTEX
  8
0
 10
462.753455
 20
294.397103
 42
0.092308
  0
VERTEX
  8
0
 10
463.525888
 20
295.717117
 42
0.068850
  0
VERTEX
  8
0
 10
463.897248
 20
297.477842
 42
0.017598
  0
VERTEX
  8
0
 10
464.000000
 20
300.396364
 42
0.052883
  0
VERTEX
  8
0
 10
462.350714
 20
315.946551
 42
0.017293
  0
VERTEX
  8
0
 10
456.730559
 20
338.337844
 42
0.017401
  0
VERTEX
  8
0
 10
448.920711
 20
362.281272
 42
0.022454
  0
VERTEX
  8
0
 10
440.021782
 20
383.626387
 42
-0.012640
  0
VERTEX
  8
0
 10
438.075562
 20
388.048300
 42
-0.009729
  0
VERTEX
  8
0
 10
436.169281
 20
392.964879
 42
-0.009857
  0
VERTEX
  8
0
 10
434.566574
 20
397.633157
 42
-0.023025
  0
VERTEX
  8
0
 10
433.599589
 20
401.196966
 42
0.050050
  0
VERTEX
  8
0
 10
430.865925
 20
409.475734
 42
0.040773
  0
VERTEX
  8
0
 10
426.384249
 20
417.670687
 42
0.041938
  0
VERTEX
  8
0
 10
420.836596
 20
424.734178
 42
0.067111
  0
VERTEX
  8
0
 10
414.917123
 20
429.591695
 42
-0.059653
  0
VERTEX
  8
0
 10
414.145117
 20
430.206241
 42
-0.010492
  0
VERTEX
  8
0
 10
412.867409
 20
431.555061
 42
-0.011240
  0
VERTEX
  8
0
 10
411.430371
 20
433.210579
 42
-0.009892
  0
VERTEX
  8
0
 10
410.005094
 20
435.000000
 42
0.005446
  0
VERTEX
  8
0
 10
408.341449
 20
437.127236
 42
0.002540
  0
VERTEX
  8
0
 10
406.141291
 20
439.849740
 42
0.002516
  0
VERTEX
  8
0
 10
403.803709
 20
442.683197
 42
0.003518
  0
VERTEX
  8
0
 10
401.683747
 20
445.190604
 42
-0.006311
  0
VERTEX
  8
0
 10
398.648819
 20
448.821144
 42
-0.073413
  0
VERTEX
  8
0
 10
397.704375
 20
450.407160
 42
-0.176539
  0
VERTEX
  8
0
 10
397.653268
 20
451.651446
 42
-0.075791
  0
VERTEX
  8
0
 10
398.401694
 20
453.163110
 42
0.085982
  0
VERTEX
  8
0
 10
399.542553
 20
455.589782
 42
0.066509
  0
VERTEX
  8
0
 10
399.936757
 20
458.489741
 42
0.066625
  0
VERTEX
  8
0
 10
399.555828
 20
461.386111
 42
0.087016
  0
VERTEX
  8
0
 10
398.425999
 20
463.802188
 42
0.138576
  0
VERTEX
  8
0
 10
391.331488
 20
469.590883
 42
0.008322
  0
VERTEX
  8
0
 10
365.619574
 20
480.230356
 42
0.013568
  0
VERTEX
  8
0
 10
338.354965
 20
490.138343
 42
0.025205
  0
VERTEX
  8
0
 10
315.688255
 20
496.436670
 42
0.003521
  0
VERTEX
  8
0
 10
311.161968
 20
497.418411
 42
0.004627
  0
VERTEX
  8
0
 10
307.016729
 20
498.247022
 42
0.003408
  0
VERTEX
  8
0
 10
303.536832
 20
498.884657
 42
0.043629
  0
VERTEX
  8
0
 10
302.217493
 20
499.000000
 42
-0.103540
  0
VERTEX
  8
0
 10
301.185675
 20
499.215985
 42
-0.140879
  0
VERTEX
  8
0
 10
300.457651
 20
499.820046
 42
-0.086002
  0
VERTEX
  8
0
 10
299.934216
 20
500.971408
 42
-0.021939
  0
VERTEX
  8
0
 10
299.502941
 20
502.982593
 42
0.085791
  0
VERTEX
  8
0
 10
298.330437
 20
506.312773
 42
0.073691
  0
VERTEX
  8
0
 10
296.060069
 20
509.257462
 42
0.077312
  0
VERTEX
  8
0
 10
293.156911
 20
511.297594
 42
0.115063
  0
VERTEX
  8
0
 10
290.145063
 20
512.000000
 42
0.115056
  0
VERTEX
  8
0
 10
284.367885
 20
510.652770
 42
0.019482
  0
VERTEX
  8
0
 10
274.345588
 20
505.214367
 42
0.021479
  0
VERTEX
  8
0
 10
264.670177
 20
498.888085
 42
0.075774
  0
VERTEX
  8
0
 10
259.368478
 20
493.713259
 42
0.000000
  0
VERTEX
  8
0
 10
257.519988
 20
491.262660
 42
0.000000
  0
VERTEX
  8
0
 10
251.076642
 20
497.166817
 42
0.038509
  0
VERTEX
  8
0
 10
244.803563
 20
502.083587
 42
0.022352
  0
VERTEX
  8
0
 10
236.603171
 20
507.033776
 42
0.019978
  0
VERTEX
  8
0
 10
228.594030
 20
510.986487
 42
0.105009
  0
VERTEX
  8
0
 10
223.821427
 20
512.000000
 42
0.063249
  0
VERTEX
  8
0
 10
222.347671
 20
511.812824
 42
0.051907
  0
VERTEX
  8
0
 10
220.859390
 20
511.258772
 42
0.046777
  0
VERTEX
  8
0
 10
219.377453
 20
510.342856
 42
0.034595
  0
SEQEND
  0
POLYLINE
  8
0
 66
1
 70
1
  0
VERTEX
  8
0
 10
137.218515
 20
419.772384
 42
-0.012960
  0
VERTEX
  8
0
 10
141.656274
 20
417.762263
 42
-0.146431
  0
VERTEX
  8
0
 10
143.063528
 20
416.472081
 42
-0.586318
  0
VERTEX
  8
0
 10
142.644940
 20
415.745423
 42
-0.034562
  0
VERTEX
  8
0
 10
139.466392
 20
416.005100
 42
0.071962
  0
VERTEX
  8
0
 10
131.495819
 20
416.060395
 42
0.051035
  0
VERTEX
  8
0
 10
122.794356
 20
413.942809
 42
0.051339
  0
VERTEX
  8
0
 10
114.768233
 20
410.131971
 42
0.076244
  0
VERTEX
  8
0
 10
108.817419
 20
405.139270
 42
0.045740
  0
VERTEX
  8
0
 10
105.135255
 20
400.079711
 42
0.040562
  0
VERTEX
  8
0
 10
102.262649
 20
394.232157
 42
0.040945
  0
VERTEX
  8
0
 10
100.395865
 20
388.059852
 42
0.049151
  0
VERTEX
  8
0
 10
99.708225
 20
382.034399
 42
0.000000
  0
VERTEX
  8
0
 10
99.600751
 20
375.059797
 42
0.000000
  0
VERTEX
  8
0
 10
97.853837
 20
377.722813
 42
-0.081258
  0
VERTEX
  8
0
 10
95.245793
 20
383.587891
 42
-0.059506
  0
VERTEX
  8
0
 10
94.268483
 20
390.656794
 42
-0.057593
  0
VERTEX
  8
0
 10
94.980511
 20
398.008722
 42
-0.064443
  0
VERTEX
  8
0
 10
97.354158
 20
404.712194
 42
-0.047868
  0
VERTEX
  8
0
 10
99.742531
 20
408.482334
 42
-0.024633
  0
VERTEX
  8
0
 10
103.387226
 20
412.726072
 42
-0.024574
  0
VERTEX
  8
0
 10
107.371388
 20
416.534102
 42
-0.055623
  0
VERTEX
  8
0
 10
110.803116
 20
418.894631
 42
-0.059828
  0
VERTEX
  8
0
 10
116.966819
 20
421.298672
 42
-0.054843
  0
VERTEX
  8
0
 10
123.710300
 20
422.268197
 42
-0.053984
  0
VERTEX
  8
0
 10
130.606049
 20
421.752489
 42
-0.054274
  0
SEQEND
  0
POLYLINE
  8
0
 66
1
 70
1
  0
VERTEX
  8
0
 10
403.876610
 20
418.470641
 42
-0.044258
  0
VERTEX
  8
0
 10
408.213683
 20
415.586219
 42
-0.041929
  0
VERTEX
  8
0
 10
412.061258
 20
411.935441
 42
-0.041783
  0
VERTEX
  8
0
 10
415.258006
 20
407.680287
 42
-0.043244
  0
VERTEX
  8
0
 10
417.661156
 20
403.000000
 42
-0.062347
  0
VERTEX
  8
0
 10
419.082587
 20
397.728759
 42
-0.039229
  0
VERTEX
  8
0
 10
419.468411
 20
391.353149
 42
-0.039206
  0
VERTEX
  8
0
 10
418.853298
 20
384.988655
 42
-0.061814
  0
VERTEX
  8
0
 10
417.243164
 20
379.750000
 42
-0.005044
  0
VERTEX
  8
0
 10
416.404268
 20
377.929249
 42
-0.008104
  0
VERTEX
  8
0
 10
415.648400
 20
376.396103
 42
-0.002841
  0
VERTEX
  8
0
 10
414.975773
 20
375.103906
 42
-0.280522
  0
VERTEX
  8
0
 10
414.806230
 20
375.002693
 42
-0.395000
  0
VERTEX
  8
0
 10
414.680972
 20
375.122024
 42
-0.001738
  0
VERTEX
  8
0
 10
414.572704
 20
377.133491
 42
-0.006589
  0
VERTEX
  8
0
 10
414.485803
 20
379.473578
 42
-0.003959
  0
VERTEX
  8
0
 10
414.441272
 20
382.252693
 42
0.017005
  0
VERTEX
  8
0
 10
414.279010
 20
386.103620
 42
0.032023
  0
VERTEX
  8
0
 10
413.844518
 20
389.183654
 42
0.034081
  0
VERTEX
  8
0
 10
413.043138
 20
392.053530
 42
0.022354
  0
VERTEX
  8
0
 10
411.753101
 20
395.235790
 42
0.081412
  0
VERTEX
  8
0
 10
405.429180
 20
404.633801
 42
0.076047
  0
VERTEX
  8
0
 10
396.300472
 20
411.780624
 42
0.077387
  0
VERTEX
  8
0
 10
385.609479
 20
415.779816
 42
0.089468
  0
VERTEX
  8
0
 10
374.750000
 20
416.051657
 42
-0.005011
  0
VERTEX
  8
0
 10
372.928509
 20
415.788627
 42
-0.008447
  0
VERTEX
  8
0
 10
371.395312
 20
415.609203
 42
-0.002880
  0
VERTEX
  8
0
 10
370.098147
 20
415.487114
 42
-0.440254
  0
VERTEX
  8
0
 10
370.000000
 20
415.576976
 42
-0.266577
  0
VERTEX
  8
0
 10
370.348961
 20
416.184984
 42
-0.004221
  0
VERTEX
  8
0
 10
373.938404
 20
418.241492
 42
-0.010956
  0
VERTEX
  8
0
 10
377.426083
 20
420.101453
 42
-0.039086
  0
VERTEX
  8
0
 10
379.764045
 20
421.062166
 42
-0.052647
  0
VERTEX
  8
0
 10
381.314242
 20
421.386998
 42
-0.011364
  0
VERTEX
  8
0
 10
384.049952
 20
421.602551
 42
-0.011740
  0
VERTEX
  8
0
 10
387.244229
 20
421.706164
 42
-0.010976
  0
VERTEX
  8
0
 10
390.512388
 20
421.663663
 42
-0.013510
  0
VERTEX
  8
0
 10
394.922854
 20
421.389983
 42
-0.036400
  0
VERTEX
  8
0
 10
398.020506
 20
420.884494
 42
-0.042105
  0
VERTEX
  8
0
 10
400.746699
 20
419.985032
 42
-0.023900
  0
SEQEND
  0
POLYLINE
  8
0
 66
1
 70
1
  0
VERTEX
  8
0
 10
141.000000
 20
400.480369
 42
-0.197146
  0
VERTEX
  8
0
 10
140.918966
 20
400.282839
 42
-0.000635
  0
VERTEX
  8
0
 10
139.006967
 20
398.349586
 42
-0.003373
  0
VERTEX
  8
0
 10
136.816305
 20
396.169805
 42
-0.002089
  0
VERTEX
  8
0
 10
134.215206
 20
393.637570
 42
0.016948
  0
VERTEX
  8
0
 10
131.258555
 20
390.582930
 42
0.010381
  0
VERTEX
  8
0
 10
127.973816
 20
386.795553
 42
0.010403
  0
VERTEX
  8
0
 10
124.874191
 20
382.906183
 42
0.018194
  0
VERTEX
  8
0
 10
122.495505
 20
379.543702
 42
-0.006070
  0
VERTEX
  8
0
 10
120.553470
 20
376.652265
 42
-0.009479
  0
VERTEX
  8
0
 10
118.804804
 20
374.215962
 42
-0.004188
  0
VERTEX
  8
0
 10
117.274967
 20
372.203042
 42
-0.232178
  0
VERTEX
  8
0
 10
116.861284
 20
372.000000
 42
-0.295499
  0
VERTEX
  8
0
 10
116.541570
 20
372.207028
 42
-0.017330
  0
VERTEX
  8
0
 10
116.083329
 20
373.331889
 42
-0.021689
  0
VERTEX
  8
0
 10
115.616139
 20
374.796308
 42
-0.013831
  0
VERTEX
  8
0
 10
115.194942
 20
376.534092
 42
-0.097024
  0
VERTEX
  8
0
 10
115.058203
 20
384.727391
 42
-0.101159
  0
VERTEX
  8
0
 10
118.042199
 20
392.233463
 42
-0.102701
  0
VERTEX
  8
0
 10
123.684033
 20
397.883141
 42
-0.103100
  0
VERTEX
  8
0
 10
131.100813
 20
400.810596
 42
-0.028643
  0
VERTEX
  8
0
 10
134.160990
 20
401.158465
 42
-0.022320
  0
VERTEX
  8
0
 10
137.508924
 20
401.196252
 42
-0.013879
  0
VERTEX
  8
0
 10
140.513217
 20
401.012450
 42
-0.388420
  0
SEQEND
  0
POLYLINE
  8
0
 66
1
 70
1
  0
VERTEX
  8
0
 10
390.929953
 20
397.665052
 42
-0.083818
  0
VERTEX
  8
0
 10
395.265850
 20
393.610739
 42
-0.072870
  0
VERTEX
  8
0
 10
398.284618
 20
388.165670
 42
-0.072814
  0
VERTEX
  8
0
 10
399.616059
 20
382.079284
 42
-0.083450
  0
VERTEX
  8
0
 10
399.042876
 20
376.159228
 42
-0.015114
  0
VERTEX
  8
0
 10
398.562167
 20
374.567290
 42
-0.023461
  0
VERTEX
  8
0
 10
398.042911
 20
373.230104
 42
-0.019909
  0
VERTEX
  8
0
 10
397.545130
 20
372.218088
 42
-0.285851
  0
VERTEX
  8
0
 10
397.211456
 20
372.028362
 42
-0.222075
  0
VERTEX
  8
0
 10
396.808826
 20
372.236392
 42
-0.007240
  0
VERTEX
  8
0
 10
395.691939
 20
373.729124
 42
-0.012628
  0
VERTEX
  8
0
 10
394.416073
 20
375.583595
 42
-0.008297
  0
VERTEX
  8
0
 10
393.037700
 20
377.778362
 42
0.026527
  0
VERTEX
  8
0
 10
391.141826
 20
380.566147
 42
0.009297
  0
VERTEX
  8
0
 10
388.136831
 20
384.368033
 42
0.009202
  0
VERTEX
  8
0
 10
384.670242
 20
388.435153
 42
0.010633
  0
VERTEX
  8
0
 10
381.215847
 20
392.176644
 42
-0.002442
  0
VERTEX
  8
0
 10
375.777536
 20
397.876684
 42
-0.051413
  0
VERTEX
  8
0
 10
374.350721
 20
399.736965
 42
-0.362838
  0
VERTEX
  8
0
 10
374.482235
 20
400.640242
 42
-0.155148
  0
VERTEX
  8
0
 10
375.678147
 20
401.177524
 42
-0.045948
  0
VERTEX
  8
0
 10
379.599143
 20
401.266028
 42
-0.039292
  0
VERTEX
  8
0
 10
383.687582
 20
400.657284
 42
-0.039693
  0
VERTEX
  8
0
 10
387.583682
 20
399.427719
 42
-0.049932
  0
SEQEND
  0
POLYLINE
  8
0
 66
1
 70
1
  0
VERTEX
  8
0
 10
203.500000
 20
407.520148
 42
0.061675
  0
VERTEX
  8
0
 10
188.663082
 20
402.273789
 42
0.052579
  0
VERTEX
  8
0
 10
174.664673
 20
393.338029
 42
0.046442
  0
VERTEX
  8
0
 10
161.363203
 20
380.542508
 42
0.031244
  0
VERTEX
  8
0
 10
148.605950
 20
363.743731
 42
0.019901
  0
VERTEX
  8
0
 10
141.663992
 20
352.350550
 42
0.012645
  0
VERTEX
  8
0
 10
134.459133
 20
338.583608
 42
0.012641
  0
VERTEX
  8
0
 10
128.215088
 20
325.025341
 42
0.029312
  0
VERTEX
  8
0
 10
124.400535
 20
314.500000
 42
0.038084
  0
VERTEX
  8
0
 10
122.247914
 20
304.544894
 42
0.030622
  0
VERTEX
  8
0
 10
121.420315
 20
293.618476
 42
0.031484
  0
VERTEX
  8
0
 10
121.927831
 20
283.178325
 42
0.055324
  0
VERTEX
  8
0
 10
123.829214
 20
274.756962
 42
0.040426
  0
VERTEX
  8
0
 10
127.087613
 20
267.329242
 42
0.028873
  0
VERTEX
  8
0
 10
131.849778
 20
259.595652
 42
0.023663
  0
VERTEX
  8
0
 10
138.438508
 20
251.053167
 42
0.012649
  0
VERTEX
  8
0
 10
147.327270
 20
241.112727
 42
-0.014460
  0
VERTEX
  8
0
 10
155.357527
 20
232.066646
 42
-0.032599
  0
VERTEX
  8
0
 10
160.769830
 20
224.672889
 42
-0.043816
  0
VERTEX
  8
0
 10
163.976721
 20
218.500012
 42
-0.098204
  0
VERTEX
  8
0
 10
165.000000
 20
213.340278
 42
0.000000
  0
VERTEX
  8
0
 10
165.000000
 20
210.000000
 42
0.000000
  0
VERTEX
  8
0
 10
145.434259
 20
210.000000
 42
0.004576
  0
VERTEX
  8
0
 10
137.807056
 20
209.930190
 42
0.006672
  0
VERTEX
  8
0
 10
131.088053
 20
209.717476
 42
0.003577
  0
VERTEX
  8
0
 10
125.430535
 20
209.422202
 42
0.108447
  0
VERTEX
  8
0
 10
124.071409
 20
209.038217
 42
0.073545
  0
VERTEX
  8
0
 10
123.295773
 20
208.462862
 42
0.031916
  0
VERTEX
  8
0
 10
122.445020
 20
207.496647
 42
0.030717
  0
VERTEX
  8
0
 10
121.656061
 20
206.335253
 42
0.035664
  0
VERTEX
  8
0
 10
121.058366
 20
205.140909
 42
0.033744
  0
VERTEX
  8
0
 10
120.502191
 20
203.491576
 42
0.078358
  0
VERTEX
  8
0
 10
120.370453
 20
202.196579
 42
0.075755
  0
VERTEX
  8
0
 10
120.642321
 20
200.897093
 42
0.029957
  0
VERTEX
  8
0
 10
121.384231
 20
199.223873
 42
0.030749
  0
VERTEX
  8
0
 10
122.093596
 20
198.037052
 42
0.029988
  0
VERTEX
  8
0
 10
122.948641
 20
196.935709
 42
0.031403
  0
VERTEX
  8
0
 10
123.816614
 20
196.063397
 42
0.089916
  0
VERTEX
  8
0
 10
124.544802
 20
195.621181
 42
0.082075
  0
VERTEX
  8
0
 10
125.755769
 20
195.372397
 42
0.002165
  0
VERTEX
  8
0
 10
131.257165
 20
195.182472
 42
0.004493
  0
VERTEX
  8
0
 10
137.740278
 20
195.045057
 42
0.003052
  0
VERTEX
  8
0
 10
145.122230
 20
195.000000
 42
0.000000
  0
VERTEX
  8
0
 10
164.080885
 20
195.000000
 42
0.000000
  0
VERTEX
  8
0
 10
163.790442
 20
186.812314
 42
0.000000
  0
VERTEX
  8
0
 10
163.500000
 20
178.624629
 42
0.000000
  0
VERTEX
  8
0
 10
155.000000
 20
176.794990
 42
0.000210
  0
VERTEX
  8
0
 10
151.212852
 20
175.978137
 42
0.000137
  0
VERTEX
  8
0
 10
146.846969
 20
175.033286
 42
0.000138
  0
VERTEX
  8
0
 10
142.593078
 20
174.110220
 42
0.000265
  0
VERTEX
  8
0
 10
139.181169
 20
173.366981
 42
0.028624
  0
VERTEX
  8
0
 10
134.078914
 20
171.942533
 42
0.072630
  0
VERTEX
  8
0
 10
130.664423
 20
170.188773
 42
0.107765
  0
VERTEX
  8
0
 10
128.703065
 20
168.026025
 42
0.131221
  0
VERTEX
  8
0
 10
128.000000
 20
165.393226
 42
0.047886
  0
VERTEX
  8
0
 10
128.237779
 20
162.916179
 42
0.091621
  0
VERTEX
  8
0
 10
128.965474
 20
161.062761
 42
0.096529
  0
VERTEX
  8
0
 10
130.276461
 20
159.653605
 42
0.057810
  0
VERTEX
  8
0
 10
132.275261
 20
158.526308
 42
0.084772
  0
VERTEX
  8
0
 10
134.531779
 20
158.000609
 42
0.042224
  0
VERTEX
  8
0
 10
137.474367
 20
158.073164
 42
0.021127
  0
VERTEX
  8
0
 10
142.067765
 20
158.773491
 42
0.003474
  0
VERTEX
  8
0
 10
150.867869
 20
160.561908
 42
-0.002789
  0
VERTEX
  8
0
 10
156.883869
 20
161.793114
 42
-0.004515
  0
VERTEX
  8
0
 10
162.015044
 20
162.765369
 42
-0.000976
  0
VERTEX
  8
0
 10
166.509899
 20
163.566022
 42
-0.244643
  0
VERTEX
  8
0
 10
166.885910
 20
163.447424
 42
-0.096191
  0
VERTEX
  8
0
 10
167.377089
 20
162.719526
 42
-0.001127
  0
VERTEX
  8
0
 10
169.638667
 20
157.363853
 42
-0.002250
  0
VERTEX
  8
0
 10
171.754476
 20
152.257404
 42
-0.040753
  0
VERTEX
  8
0
 10
172.287763
 20
150.574336
 42
-0.341989
  0
VERTEX
  8
0
 10
172.045254
 20
150.050618
 42
-0.002027
  0
VERTEX
  8
0
 10
167.003280
 20
147.463744
 42
-0.007055
  0
VERTEX
  8
0
 10
161.077804
 20
144.558294
 42
-0.004295
  0
VERTEX
  8
0
 10
154.000000
 20
141.284954
 42
0.002991
  0
VERTEX
  8
0
 10
146.816006
 20
137.985223
 42
0.004403
  0
VERTEX
  8
0
 10
140.548808
 20
134.993588
 42
0.002119
  0
VERTEX
  8
0
 10
135.261370
 20
132.384426
 42
0.080512
  0
VERTEX
  8
0
 10
134.187431
 20
131.612334
 42
0.136834
  0
VERTEX
  8
0
 10
132.953508
 20
129.431115
 42
0.090283
  0
VERTEX
  8
0
 10
132.771694
 20
126.538152
 42
0.085161
  0
VERTEX
  8
0
 10
133.636821
 20
123.609406
 42
0.101167
  0
VERTEX
  8
0
 10
135.398846
 20
121.333351
 42
0.023926
  0
VERTEX
  8
0
 10
136.543616
 20
120.440251
 42
0.025877
  0
VERTEX
  8
0
 10
137.739761
 20
119.685422
 42
0.026578
  0
VERTEX
  8
0
 10
138.824238
 20
119.150745
 42
0.101575
  0
VERTEX
  8
0
 10
139.558623
 20
119.000000
 42
0.097897
  0
VERTEX
  8
0
 10
140.604487
 20
119.206756
 42
0.001364
  0
VERTEX
  8
0
 10
146.594596
 20
121.690564
 42
0.003760
  0
VERTEX
  8
0
 10
153.527731
 20
124.649017
 42
0.002460
  0
VERTEX
  8
0
 10
161.478778
 20
128.159367
 42
0.000000
  0
VERTEX
  8
0
 10
181.951837
 20
137.318735
 42
0.000000
  0
VERTEX
  8
0
 10
186.889529
 20
132.700102
 42
0.016099
  0
VERTEX
  8
0
 10
188.956703
 20
130.887678
 42
0.017403
  0
VERTEX
  8
0
 10
191.084553
 20
129.260551
 42
0.017163
  0
VERTEX
  8
0
 10
192.996998
 20
127.997423
 42
0.076015
  0
VERTEX
  8
0
 10
194.236682
 20
127.476733
 42
-0.100071
  0
VERTEX
  8
0
 10
195.461042
 20
126.892258
 42
-0.054307
  0
VERTEX
  8
0
 10
196.682385
 20
125.746757
 42
-0.041716
  0
VERTEX
  8
0
 10
197.921811
 20
124.030827
 42
-0.021022
  0
VERTEX
  8
0
 10
199.203158
 20
121.685998
 42
0.043047
  0
VERTEX
  8
0
 10
204.971446
 20
112.152395
 42
0.038488
  0
VERTEX
  8
0
 10
212.487170
 20
103.356954
 42
0.038842
  0
VERTEX
  8
0
 10
221.180138
 20
95.898505
 42
0.046175
  0
VERTEX
  8
0
 10
230.454827
 20
90.349268
 42
0.015959
  0
VERTEX
  8
0
 10
235.816832
 20
87.986924
 42
0.073016
  0
VERTEX
  8
0
 10
239.115945
 20
87.189021
 42
0.116279
  0
VERTEX
  8
0
 10
241.707096
 20
87.554158
 42
0.073885
  0
VERTEX
  8
0
 10
244.365141
 20
89.072580
 42
0.134460
  0
VERTEX
  8
0
 10
246.737891
 20
92.279724
 42
0.171362
  0
VERTEX
  8
0
 10
246.848301
 20
95.932527
 42
0.136922
  0
VERTEX
  8
0
 10
244.531466
 20
99.458278
 42
0.076678
  0
VERTEX
  8
0
 10
240.164476
 20
102.221931
 42
-0.035319
  0
VERTEX
  8
0
 10
234.515941
 20
105.175385
 42
-0.025115
  0
VERTEX
  8
0
 10
228.627665
 20
109.226324
 42
-0.025374
  0
VERTEX
  8
0
 10
223.284317
 20
113.759595
 42
-0.041467
  0
VERTEX
  8
0
 10
219.309193
 20
118.169344
 42
-0.013264
  0
VERTEX
  8
0
 10
214.499846
 20
124.846546
 42
-0.310398
  0
VERTEX
  8
0
 10
214.509302
 20
127.061994
 42
-0.165939
  0
VERTEX
  8
0
 10
216.718331
 20
128.692026
 42
-0.003842
  0
VERTEX
  8
0
 10
229.292985
 20
132.570016
 42
-0.004643
  0
VERTEX
  8
0
 10
239.268140
 20
135.461904
 42
-0.024622
  0
VERTEX
  8
0
 10
244.810112
 20
136.722480
 42
-0.031896
  0
VERTEX
  8
0
 10
249.803611
 20
137.277275
 42
-0.011282
  0
VERTEX
  8
0
 10
257.000000
 20
137.452291
 42
-0.011189
  0
VERTEX
  8
0
 10
264.225350
 20
137.303242
 42
-0.032560
  0
VERTEX
  8
0
 10
269.186622
 20
136.764833
 42
-0.025016
  0
VERTEX
  8
0
 10
274.694508
 20
135.514537
 42
-0.004554
  0
VERTEX
  8
0
 10
284.750000
 20
132.597458
 42
-0.003972
  0
VERTEX
  8
0
 10
290.980221
 20
130.674322
 42
-0.006492
  0
VERTEX
  8
0
 10
296.226562
 20
128.933834
 42
-0.001758
  0
VERTEX
  8
0
 10
300.726653
 20
127.358031
 42
-0.317698
  0
VERTEX
  8
0
 10
301.000000
 20
126.971252
 42
-0.141583
  0
VERTEX
  8
0
 10
300.857228
 20
126.477160
 42
-0.004296
  0
VERTEX
  8
0
 10
299.691605
 20
124.663363
 42
-0.008177
  0
VERTEX
  8
0
 10
298.252632
 20
122.542461
 42
-0.005525
  0
VERTEX
  8
0
 10
296.545888
 20
120.169535
 42
-0.032281
  0
VERTEX
  8
0
 10
292.113369
 20
114.897692
 42
-0.030890
  0
VERTEX
  8
0
 10
286.976957
 20
110.156840
 42
-0.030965
  0
VERTEX
  8
0
 10
281.308870
 20
106.095757
 42
-0.032834
  0
VERTEX
  8
0
 10
275.289422
 20
102.852906
 42
0.047941
  0
VERTEX
  8
0
 10
269.977042
 20
99.780743
 42
0.135814
  0
VERTEX
  8
0
 10
267.306343
 20
96.482847
 42
0.191178
  0
VERTEX
  8
0
 10
267.192348
 20
93.021971
 42
0.110579
  0
VERTEX
  8
0
 10
269.454545
 20
89.454545
 42
0.099668
  0
VERTEX
  8
0
 10
272.174970
 20
87.645969
 42
0.124966
  0
VERTEX
  8
0
 10
275.164871
 20
87.226466
 42
0.074123
  0
VERTEX
  8
0
 10
279.136514
 20
88.271201
 42
0.017574
  0
VERTEX
  8
0
 10
285.347305
 20
91.197710
 42
0.042196
  0
VERTEX
  8
0
 10
293.226953
 20
96.135967
 42
0.032617
  0
VERTEX
  8
0
 10
300.919949
 20
102.740052
 42
0.031988
  0
VERTEX
  8
0
 10
307.855136
 20
110.454577
 42
0.035771
  0
VERTEX
  8
0
 10
313.470819
 20
118.719898
 42
-0.012854
  0
VERTEX
  8
0
 10
315.431787
 20
121.911297
 42
-0.017113
  0
VERTEX
  8
0
 10
317.384177
 20
124.699348
 42
-0.014437
  0
VERTEX
  8
0
 10
319.129450
 20
126.884247
 42
-0.141072
  0
VERTEX
  8
0
 10
320.102825
 20
127.532636
 42
0.064025
  0
VERTEX
  8
0
 10
321.138225
 20
128.014032
 42
0.009913
  0
VERTEX
  8
0
 10
323.030946
 20
129.261959
 42
0.010914
  0
VERTEX
  8
0
 10
325.213960
 20
130.835503
 42
0.009298
  0
VERTEX
  8
0
 10
327.447928
 20
132.587196
 42
0.000000
  0
VERTEX
  8
0
 10
332.925159
 20
137.048917
 42
0.000000
  0
VERTEX
  8
0
 10
350.808185
 20
129.058408
 42
0.001043
  0
VERTEX
  8
0
 10
366.719198
 20
121.988830
 42
0.021119
  0
VERTEX
  8
0
 10
371.638287
 20
120.059349
 42
0.076859
  0
VERTEX
  8
0
 10
374.491589
 20
119.545575
 42
0.104740
  0
VERTEX
  8
0
 10
377.054154
 20
120.022431
 42
0.088361
  0
VERTEX
  8
0
 10
378.892094
 20
121.197807
 42
0.060240
  0
VERTEX
  8
0
 10
380.503768
 20
123.091049
 42
0.060083
  0
VERTEX
  8
0
 10
381.621948
 20
125.320543
 42
0.086428
  0
VERTEX
  8
0
 10
382.000000
 20
127.491289
 42
0.202923
  0
VERTEX
  8
0
 10
380.901796
 20
130.085826
 42
0.050859
  0
VERTEX
  8
0
 10
377.215695
 20
132.996261
 42
0.030503
  0
VERTEX
  8
0
 10
370.780978
 20
136.559612
 42
0.007907
  0
VERTEX
  8
0
 10
360.005042
 20
141.487769
 42
-0.000921
  0
VERTEX
  8
0
 10
353.271817
 20
144.454036
 42
-0.001479
  0
VERTEX
  8
0
 10
347.541869
 20
147.011227
 42
-0.000242
  0
VERTEX
  8
0
 10
342.476544
 20
149.292748
 42
-0.090675
  0
VERTEX
  8
0
 10
342.144609
 20
149.522057
 42
-0.291366
  0
VERTEX
  8
0
 10
342.029938
 20
150.038826
 42
-0.000845
  0
VERTEX
  8
0
 10
344.528931
 20
156.877174
 42
-0.000818
  0
VERTEX
  8
0
 10
347.053593
 20
163.715121
 42
-0.313580
  0
VERTEX
  8
0
 10
347.463165
 20
164.000000
 42
-0.053733
  0
VERTEX
  8
0
 10
347.581461
 20
163.987250
 42
-0.000022
  0
VERTEX
  8
0
 10
351.663411
 20
163.096849
 42
-0.000341
  0
VERTEX
  8
0
 10
356.197949
 20
162.104270
 42
-0.000208
  0
VERTEX
  8
0
 10
361.555179
 20
160.925442
 42
0.006008
  0
VERTEX
  8
0
 10
372.645822
 20
158.619543
 42
0.038175
  0
VERTEX
  8
0
 10
378.358762
 20
157.950001
 42
0.085037
  0
VERTEX
  8
0
 10
381.829624
 20
158.401350
 42
0.148875
  0
VERTEX
  8
0
 10
384.209816
 20
160.010784
 42
0.091068
  0
VERTEX
  8
0
 10
385.502585
 20
162.382684
 42
0.082617
  0
VERTEX
  8
0
 10
385.926922
 20
165.143075
 42
0.085456
  0
VERTEX
  8
0
 10
385.434029
 20
167.808906
 42
0.108440
  0
VERTEX
  8
0
 10
384.087728
 20
169.912272
 42
0.101271
  0
VERTEX
  8
0
 10
382.093805
 20
171.228754
 42
0.028013
  0
VERTEX
  8
0
 10
378.520242
 20
172.435570
 42
0.013405
  0
VERTEX
  8
0
 10
372.303815
 20
173.975707
 42
0.001759
  0
VERTEX
  8
0
 10
359.000000
 20
176.846618
 42
0.000000
  0
VERTEX
  8
0
 10
350.500000
 20
178.649621
 42
0.000000
  0
VERTEX
  8
0
 10
350.209558
 20
186.824811
 42
0.000000
  0
VERTEX
  8
0
 10
349.919115
 20
195.000000
 42
0.000000
  0
VERTEX
  8
0
 10
369.505012
 20
195.000000
 42
0.001767
  0
VERTEX
  8
0
 10
382.385119
 20
195.045514
 42
0.025966
  0
VERTEX
  8
0
 10
386.908710
 20
195.312661
 42
0.078751
  0
VERTEX
  8
0
 10
389.464952
 20
196.014856
 42
0.090278
  0
VERTEX
  8
0
 10
391.545455
 20
197.454545
 42
0.082654
  0
VERTEX
  8
0
 10
393.287091
 20
199.891723
 42
0.114378
  0
VERTEX
  8
0
 10
393.891660
 20
202.500000
 42
0.114378
  0
VERTEX
  8
0
 10
393.287091
 20
205.108277
 42
0.082654
  0
VERTEX
  8
0
 10
391.545455
 20
207.545455
 42
0.091514
  0
VERTEX
  8
0
 10
389.451253
 20
208.987043
 42
0.078083
  0
VERTEX
  8
0
 10
386.860467
 20
209.688776
 42
0.025466
  0
VERTEX
  8
0
 10
382.255397
 20
209.954967
 42
0.001705
  0
VERTEX
  8
0
 10
369.045455
 20
210.000000
 42
0.000000
  0
VERTEX
  8
0
 10
349.000000
 20
210.000000
 42
0.000000
  0
VERTEX
  8
0
 10
349.000000
 20
212.865643
 42
-0.106620
  0
VERTEX
  8
0
 10
350.130196
 20
218.105529
 42
-0.036940
  0
VERTEX
  8
0
 10
353.850467
 20
224.936228
 42
-0.029264
  0
VERTEX
  8
0
 10
359.838250
 20
233.130099
 42
-0.014762
  0
VERTEX
  8
0
 10
368.271124
 20
242.762258
 42
0.017803
  0
VERTEX
  8
0
 10
380.090069
 20
256.428843
 42
0.047720
  0
VERTEX
  8
0
 10
387.155225
 20
267.164329
 42
0.061009
  0
VERTEX
  8
0
 10
391.057777
 20
277.382634
 42
0.048465
  0
VERTEX
  8
0
 10
392.778752
 20
289.078026
 42
0.043126
  0
VERTEX
  8
0
 10
392.316180
 20
301.590733
 42
0.037639
  0
VERTEX
  8
0
 10
389.733065
 20
314.439694
 42
0.032762
  0
VERTEX
  8
0
 10
384.835113
 20
328.324231
 42
0.020075
  0
VERTEX
  8
0
 10
377.363546
 20
344.000000
 42
0.027629
  0
VERTEX
  8
0
 10
363.721620
 20
366.749590
 42
0.042970
  0
VERTEX
  8
0
 10
349.326002
 20
384.504270
 42
0.050020
  0
VERTEX
  8
0
 10
334.067545
 20
397.451986
 42
0.065957
  0
VERTEX
  8
0
 10
317.834604
 20
405.738183
 42
0.017657
  0
VERTEX
  8
0
 10
313.604064
 20
407.069789
 42
0.030333
  0
VERTEX
  8
0
 10
309.989580
 20
407.836351
 42
0.026697
  0
VERTEX
  8
0
 10
306.005264
 20
408.215819
 42
0.010550
  0
VERTEX
  8
0
 10
300.500000
 20
408.328550
 42
0.034437
  0
VERTEX
  8
0
 10
291.416436
 20
407.696486
 42
0.041930
  0
VERTEX
  8
0
 10
283.102201
 20
405.818663
 42
0.039253
  0
VERTEX
  8
0
 10
274.792298
 20
402.457052
 42
0.024991
  0
VERTEX
  8
0
 10
265.698035
 20
397.336092
 42
0.000000
  0
VERTEX
  8
0
 10
256.896070
 20
391.783121
 42
0.000000
  0
VERTEX
  8
0
 10
250.952687
 20
395.952166
 42
0.024585
  0
VERTEX
  8
0
 10
244.766489
 20
399.852574
 42
0.025250
  0
VERTEX
  8
0
 10
238.281048
 20
403.089214
 42
0.025550
  0
VERTEX
  8
0
 10
231.579316
 20
405.621866
 42
0.026641
  0
VERTEX
  8
0
 10
224.746380
 20
407.417357
 42
0.015842
  0
VERTEX
  8
0
 10
218.585751
 20
408.487618
 42
0.033885
  0
VERTEX
  8
0
 10
213.772806
 20
408.837568
 42
0.035728
  0
VERTEX
  8
0
 10
209.118766
 20
408.527211
 42
0.019671
  0
SEQEND
  0
POLYLINE
  8
0
 66
1
 70
1
  0
VERTEX
  8
0
 10
221.109177
 20
392.979295
 42
-0.038502
  0
VERTEX
  8
0
 10
226.469569
 20
391.528104
 42
-0.022274
  0
VERTEX
  8
0
 10
232.659819
 20
389.013230
 42
-0.021874
  0
VERTEX
  8
0
 10
238.818753
 20
385.852284
 42
-0.028836
  0
VERTEX
  8
0
 10
244.112656
 20
382.417303
 42
0.055471
  0
VERTEX
  8
0
 10
251.018025
 20
378.441530
 42
0.113127
  0
VERTEX
  8
0
 10
257.132817
 20
377.289145
 42
0.099798
  0
VERTEX
  8
0
 10
263.643373
 20
378.868317
 42
0.036933
  0
VERTEX
  8
0
 10
271.914508
 20
383.502776
 42
-0.043162
  0
VERTEX
  8
0
 10
284.749071
 20
390.485908
 42
-0.078110
  0
VERTEX
  8
0
 10
296.291696
 20
393.508588
 42
-0.083411
  0
VERTEX
  8
0
 10
307.678947
 20
392.753429
 42
-0.055786
  0
VERTEX
  8
0
 10
320.000000
 20
388.337938
 42
-0.023796
  0
VERTEX
  8
0
 10
324.183021
 20
386.035597
 42
-0.027438
  0
VERTEX
  8
0
 10
327.926160
 20
383.443903
 42
-0.022236
  0
VERTEX
  8
0
 10
331.940301
 20
380.028917
 42
-0.009230
  0
VERTEX
  8
0
 10
337.064313
 20
375.081691
 42
-0.022527
  0
VERTEX
  8
0
 10
344.868070
 20
366.525598
 42
-0.022513
  0
VERTEX
  8
0
 10
351.872139
 20
357.300317
 42
-0.020486
  0
VERTEX
  8
0
 10
358.562589
 20
346.708960
 42
-0.013399
  0
VERTEX
  8
0
 10
365.433639
 20
334.000000
 42
-0.012022
  0
VERTEX
  8
0
 10
371.071365
 20
322.172242
 42
-0.027064
  0
VERTEX
  8
0
 10
374.631701
 20
312.900555
 42
-0.033249
  0
VERTEX
  8
0
 10
376.716505
 20
304.599160
 42
-0.031412
  0
VERTEX
  8
0
 10
377.732854
 20
295.935145
 42
-0.048547
  0
VERTEX
  8
0
 10
377.237602
 20
284.437593
 42
-0.077684
  0
VERTEX
  8
0
 10
374.385341
 20
275.055157
 42
-0.058770
  0
VERTEX
  8
0
 10
368.164241
 20
265.297608
 42
-0.017534
  0
VERTEX
  8
0
 10
356.500000
 20
252.000000
 42
0.015351
  0
VERTEX
  8
0
 10
346.459016
 20
240.653273
 42
0.039881
  0
VERTEX
  8
0
 10
340.176690
 20
231.740849
 42
0.051609
  0
VERTEX
  8
0
 10
336.355497
 20
223.434315
 42
0.046681
  0
VERTEX
  8
0
 10
334.155911
 20
214.236614
 42
0.000000
  0
VERTEX
  8
0
 10
333.481448
 20
209.500000
 42
0.000000
  0
VERTEX
  8
0
 10
321.990724
 20
209.000000
 42
0.006374
  0
VERTEX
  8
0
 10
317.493304
 20
208.746827
 42
0.008965
  0
VERTEX
  8
0
 10
313.490093
 20
208.398028
 42
0.005807
  0
VERTEX
  8
0
 10
310.160309
 20
208.008500
 42
0.111807
  0
VERTEX
  8
0
 10
309.188317
 20
207.652861
 42
0.115836
  0
VERTEX
  8
0
 10
307.721695
 20
206.130362
 42
0.073195
  0
VERTEX
  8
0
 10
306.779850
 20
203.838642
 42
0.070432
  0
VERTEX
  8
0
 10
306.514154
 20
201.272499
 42
0.089044
  0
VERTEX
  8
0
 10
307.022431
 20
198.945846
 42
0.118940
  0
VERTEX
  8
0
 10
308.818646
 20
196.479526
 42
0.105851
  0
VERTEX
  8
0
 10
311.616721
 20
194.973936
 42
0.057763
  0
VERTEX
  8
0
 10
316.171678
 20
194.204551
 42
0.012985
  0
VERTEX
  8
0
 10
324.047053
 20
194.000000
 42
0.000000
  0
VERTEX
  8
0
 10
335.000000
 20
194.000000
 42
0.000000
  0
VERTEX
  8
0
 10
335.000000
 20
188.000000
 42
-0.003905
  0
VERTEX
  8
0
 10
334.982034
 20
185.699684
 42
-0.006515
  0
VERTEX
  8
0
 10
334.926562
 20
183.764018
 42
-0.001700
  0
VERTEX
  8
0
 10
334.851494
 20
182.099876
 42
-0.406091
  0
VERTEX
  8
0
 10
334.750000
 20
182.005168
 42
-0.046099
  0
VERTEX
  8
0
 10
334.552016
 20
182.027595
 42
-0.000078
  0
VERTEX
  8
0
 10
331.200163
 20
182.724830
 42
-0.000604
  0
VERTEX
  8
0
 10
327.437013
 20
183.512979
 42
-0.000374
  0
VERTEX
  8
0
 10
323.016511
 20
184.447825
 42
0.005335
  0
VERTEX
  8
0
 10
316.853685
 20
185.687387
 42
0.024793
  0
VERTEX
  8
0
 10
313.260622
 20
186.187286
 42
0.044204
  0
VERTEX
  8
0
 10
310.855870
 20
186.188044
 42
0.089968
  0
VERTEX
  8
0
 10
309.039776
 20
185.690333
 42
0.102548
  0
VERTEX
  8
0
 10
307.103722
 20
184.214493
 42
0.083806
  0
VERTEX
  8
0
 10
305.744626
 20
181.987123
 42
0.079342
  0
VERTEX
  8
0
 10
305.141552
 20
179.319047
 42
0.077618
  0
VERTEX
  8
0
 10
305.391937
 20
176.574535
 42
0.141304
  0
VERTEX
  8
0
 10
306.671426
 20
174.373944
 42
0.087402
  0
VERTEX
  8
0
 10
309.176514
 20
172.700152
 42
0.045038
  0
VERTEX
  8
0
 10
313.577078
 20
171.219069
 42
0.009515
  0
VERTEX
  8
0
 10
321.500000
 20
169.483803
 42
-0.005566
  0
VERTEX
  8
0
 10
325.008403
 20
168.744381
 42
-0.007974
  0
VERTEX
  8
0
 10
328.099944
 20
168.004857
 42
-0.004749
  0
VERTEX
  8
0
 10
330.673240
 20
167.319637
 42
-0.112642
  0
VERTEX
  8
0
 10
331.329595
 20
166.966099
 42
-0.309155
  0
VERTEX
  8
0
 10
331.702819
 20
165.520792
 42
-0.018007
  0
VERTEX
  8
0
 10
329.909970
 20
161.070486
 42
-0.017822
  0
VERTEX
  8
0
 10
327.818038
 20
156.790471
 42
-0.386326
  0
VERTEX
  8
0
 10
326.604800
 20
156.356919
 42
-0.003187
  0
VERTEX
  8
0
 10
325.817471
 20
156.690253
 42
-0.000100
  0
VERTEX
  8
0
 10
322.609758
 20
158.073246
 42
-0.000195
  0
VERTEX
  8
0
 10
318.829395
 20
159.705779
 42
-0.000135
  0
VERTEX
  8
0
 10
314.556080
 20
161.554535
 42
0.004190
  0
VERTEX
  8
0
 10
307.894888
 20
164.372447
 42
0.037774
  0
VERTEX
  8
0
 10
304.888015
 20
165.356602
 42
0.091491
  0
VERTEX
  8
0
 10
302.912281
 20
165.471971
 42
0.097134
  0
VERTEX
  8
0
 10
301.070543
 20
164.866119
 42
0.072768
  0
VERTEX
  8
0
 10
298.923635
 20
163.211058
 42
0.080218
  0
VERTEX
  8
0
 10
297.424180
 20
161.059610
 42
0.083728
  0
VERTEX
  8
0
 10
296.720874
 20
158.627700
 42
0.089362
  0
VERTEX
  8
0
 10
296.878718
 20
156.156915
 42
0.116760
  0
VERTEX
  8
0
 10
297.689350
 20
154.578764
 42
0.061525
  0
VERTEX
  8
0
 10
299.324212
 20
153.083232
 42
0.033682
  0
VERTEX
  8
0
 10
302.188926
 20
151.324160
 42
0.007361
  0
VERTEX
  8
0
 10
307.355480
 20
148.708666
 42
-0.005201
  0
VERTEX
  8
0
 10
312.707107
 20
146.028459
 42
-0.038313
  0
VERTEX
  8
0
 10
315.139959
 20
144.532522
 42
-0.117566
  0
VERTEX
  8
0
 10
316.073480
 20
143.443914
 42
-0.300461
  0
VERTEX
  8
0
 10
315.965696
 20
142.458666
 42
-0.191265
  0
VERTEX
  8
0
 10
313.820471
 20
141.286427
 42
-0.065488
  0
VERTEX
  8
0
 10
310.211930
 20
141.317634
 42
-0.032146
  0
VERTEX
  8
0
 10
304.336238
 20
142.531393
 42
-0.005978
  0
VERTEX
  8
0
 10
293.737366
 20
145.578374
 42
0.003882
  0
VERTEX
  8
0
 10
287.426967
 20
147.421167
 42
0.003841
  0
VERTEX
  8
0
 10
281.066601
 20
149.172397
 42
0.003772
  0
VERTEX
  8
0
 10
275.477074
 20
150.620206
 42
0.014820
  0
VERTEX
  8
0
 10
272.000000
 20
151.384141
 42
0.000000
  0
VERTEX
  8
0
 10
265.500000
 20
152.611534
 42
0.000000
  0
VERTEX
  8
0
 10
265.205899
 20
159.820229
 42
-0.007576
  0
VERTEX
  8
0
 10
265.102583
 20
163.851234
 42
-0.050070
  0
VERTEX
  8
0
 10
265.282679
 20
165.856238
 42
-0.116922
  0
VERTEX
  8
0
 10
265.786855
 20
166.977914
 42
-0.148534
  0
VERTEX
  8
0
 10
266.705899
 20
167.634960
 42
0.059022
  0
VERTEX
  8
0
 10
274.391110
 20
171.287494
 42
0.041196
  0
VERTEX
  8
0
 10
282.074760
 20
177.055245
 42
0.041136
  0
VERTEX
  8
0
 10
288.723403
 20
184.018246
 42
0.058109
  0
VERTEX
  8
0
 10
293.303532
 20
191.259248
 42
0.027364
  0
VERTEX
  8
0
 10
295.943704
 20
197.624325
 42
0.047237
  0
VERTEX
  8
0
 10
297.328010
 20
203.182947
 42
0.056263
  0
VERTEX
  8
0
 10
297.513101
 20
208.148125
 42
0.067676
  0
VERTEX
  8
0
 10
296.538697
 20
212.713184
 42
-0.028002
  0
VERTEX
  8
0
 10
295.557662
 20
216.007324
 42
-0.001580
  0
VERTEX
  8
0
 10
293.126845
 20
226.375123
 42
-0.002422
  0
VERTEX
  8
0
 10
290.330985
 20
238.744497
 42
-0.001773
  0
VERTEX
  8
0
 10
287.342879
 20
252.500000
 42
0.002580
  0
VERTEX
  8
0
 10
284.103230
 20
267.298221
 42
0.005336
  0
VERTEX
  8
0
 10
281.389236
 20
278.819139
 42
0.003258
  0
VERTEX
  8
0
 10
279.104805
 20
287.820457
 42
0.091450
  0
VERTEX
  8
0
 10
278.085499
 20
290.000000
 42
0.164140
  0
VERTEX
  8
0
 10
274.673590
 20
292.464615
 42
0.135484
  0
VERTEX
  8
0
 10
270.165545
 20
292.603802
 42
0.144998
  0
VERTEX
  8
0
 10
266.437484
 20
290.437197
 42
0.191375
  0
VERTEX
  8
0
 10
265.000000
 20
286.819071
 42
0.047727
  0
VERTEX
  8
0
 10
265.152939
 20
285.220512
 42
0.000896
  0
VERTEX
  8
0
 10
266.762500
 20
276.965230
 42
0.002182
  0
VERTEX
  8
0
 10
268.700731
 20
267.340121
 42
0.001458
  0
VERTEX
  8
0
 10
271.000000
 20
256.336660
 42
-0.000682
  0
VERTEX
  8
0
 10
273.299982
 20
245.414416
 42
-0.001081
  0
VERTEX
  8
0
 10
275.237500
 20
236.049820
 42
-0.000226
  0
VERTEX
  8
0
 10
276.920360
 20
227.807537
 42
-0.050281
  0
VERTEX
  8
0
 10
277.000000
 20
227.017588
 42
-0.394264
  0
VERTEX
  8
0
 10
276.558804
 20
226.545043
 42
-0.004439
  0
VERTEX
  8
0
 10
271.836421
 20
226.262720
 42
-0.009177
  0
VERTEX
  8
0
 10
265.626788
 20
226.060945
 42
-0.003532
  0
VERTEX
  8
0
 10
257.000000
 20
226.000000
 42
-0.002119
  0
VERTEX
  8
0
 10
249.331019
 20
226.032494
 42
-0.003533
  0
VERTEX
  8
0
 10
242.875000
 20
226.132825
 42
-0.000503
  0
VERTEX
  8
0
 10
237.180376
 20
226.267298
 42
-0.407022
  0
VERTEX
  8
0
 10
237.000000
 20
226.452170
 42
-0.051642
  0
VERTEX
  8
0
 10
237.037377
 20
226.813085
 42
-0.000048
  0
VERTEX
  8
0
 10
238.762500
 20
235.048866
 42
-0.000499
  0
VERTEX
  8
0
 10
240.699629
 20
244.246610
 42
-0.000306
  0
VERTEX
  8
0
 10
243.000000
 20
255.082556
 42
0.001781
  0
VERTEX
  8
0
 10
245.299009
 20
266.071618
 42
0.002608
  0
VERTEX
  8
0
 10
247.237500
 20
275.761009
 42
0.001254
  0
VERTEX
  8
0
 10
248.821961
 20
284.011567
 42
0.046840
  0
VERTEX
  8
0
 10
249.000000
 20
285.907880
 42
0.047874
  0
VERTEX
  8
0
 10
248.887195
 20
287.083319
 42
0.029523
  0
VERTEX
  8
0
 10
248.542718
 20
288.430261
 42
0.029456
  0
VERTEX
  8
0
 10
248.039715
 20
289.733665
 42
0.045985
  0
VERTEX
  8
0
 10
247.443296
 20
290.777494
 42
0.147972
  0
VERTEX
  8
0
 10
245.353273
 20
292.419664
 42
0.085643
  0
VERTEX
  8
0
 10
242.195825
 20
293.063956
 42
0.084110
  0
VERTEX
  8
0
 10
238.947694
 20
292.614821
 42
0.133282
  0
VERTEX
  8
0
 10
236.597326
 20
291.107544
 42
0.120169
  0
VERTEX
  8
0
 10
235.581155
 20
289.231310
 42
0.003886
  0
VERTEX
  8
0
 10
233.445688
 20
280.847462
 42
0.006063
  0
VERTEX
  8
0
 10
230.817267
 20
269.596967
 42
0.002310
  0
VERTEX
  8
0
 10
227.417001
 20
253.857544
 42
-0.002185
  0
VERTEX
  8
0
 10
224.441044
 20
240.065567
 42
-0.003152
  0
VERTEX
  8
0
 10
221.678684
 20
227.895121
 42
-0.001655
  0
VERTEX
  8
0
 10
219.241255
 20
217.615186
 42
-0.050529
  0
VERTEX
  8
0
 10
218.368831
 20
215.125848
 42
0.046188
  0
VERTEX
  8
0
 10
217.675229
 20
213.200341
 42
0.033652
  0
VERTEX
  8
0
 10
217.253863
 20
210.963068
 42
0.028020
  0
VERTEX
  8
0
 10
217.086124
 20
208.297845
 42
0.015819
  0
VERTEX
  8
0
 10
217.166480
 20
205.059499
 42
0.089977
  0
VERTEX
  8
0
 10
219.852886
 20
193.884433
 42
0.062786
  0
VERTEX
  8
0
 10
226.543345
 20
182.743145
 42
0.062388
  0
VERTEX
  8
0
 10
235.849870
 20
173.536908
 42
0.085602
  0
VERTEX
  8
0
 10
246.250000
 20
168.061815
 42
0.000000
  0
VERTEX
  8
0
 10
250.000000
 20
166.844896
 42
0.000000
  0
VERTEX
  8
0
 10
250.000000
 20
160.029437
 42
-0.017611
  0
VERTEX
  8
0
 10
249.838958
 20
155.458582
 42
-0.123076
  0
VERTEX
  8
0
 10
249.151749
 20
153.352152
 42
-0.197006
  0
VERTEX
  8
0
 10
247.711871
 20
152.320966
 42
-0.058181
  0
VERTEX
  8
0
 10
244.962862
 20
152.000000
 42
0.062722
  0
VERTEX
  8
0
 10
243.635570
 20
151.832840
 42
0.001768
  0
VERTEX
  8
0
 10
238.058348
 20
150.384375
 42
0.003582
  0
VERTEX
  8
0
 10
231.505253
 20
148.607404
 42
0.002452
  0
VERTEX
  8
0
 10
224.089092
 20
146.500000
 42
-0.003172
  0
VERTEX
  8
0
 10
210.771910
 20
142.736467
 42
-0.027527
  0
VERTEX
  8
0
 10
204.755504
 20
141.428680
 42
-0.068247
  0
VERTEX
  8
0
 10
201.154802
 20
141.346867
 42
-0.130180
  0
VERTEX
  8
0
 10
198.477174
 20
142.393032
 42
-0.130912
  0
VERTEX
  8
0
 10
197.763031
 20
143.277812
 42
-0.327424
  0
VERTEX
  8
0
 10
197.929641
 20
144.044045
 42
-0.072088
  0
VERTEX
  8
0
 10
199.300004
 20
144.941697
 42
-0.004940
  0
VERTEX
  8
0
 10
203.536045
 20
146.864511
 42
0.004475
  0
VERTEX
  8
0
 10
210.291310
 20
149.923263
 42
0.030023
  0
VERTEX
  8
0
 10
213.532682
 20
151.669502
 42
0.060537
  0
VERTEX
  8
0
 10
215.462886
 20
153.214825
 42
0.065920
  0
VERTEX
  8
0
 10
216.903604
 20
155.137328
 42
0.119492
  0
VERTEX
  8
0
 10
217.662293
 20
157.840668
 42
0.103507
  0
VERTEX
  8
0
 10
217.161405
 20
160.749473
 42
0.099483
  0
VERTEX
  8
0
 10
215.505135
 20
163.304613
 42
0.101513
  0
VERTEX
  8
0
 10
213.000998
 20
164.999587
 42
0.086372
  0
VERTEX
  8
0
 10
211.035929
 20
165.439802
 42
0.074123
  0
VERTEX
  8
0
 10
208.924957
 20
165.228189
 42
0.035464
  0
VERTEX
  8
0
 10
205.850683
 20
164.213556
 42
0.005247
  0
VERTEX
  8
0
 10
199.826093
 20
161.665143
 42
-0.002179
  0
VERTEX
  8
0
 10
195.758736
 20
159.915139
 42
-0.003031
  0
VERTEX
  8
0
 10
192.100628
 20
158.386191
 42
-0.001863
  0
VERTEX
  8
0
 10
189.011206
 20
157.130311
 42
-0.038625
  0
VERTEX
  8
0
 10
188.057133
 20
156.829770
 42
-0.315056
  0
VERTEX
  8
0
 10
186.601077
 20
157.415506
 42
-0.022903
  0
VERTEX
  8
0
 10
184.283097
 20
161.352616
 42
-0.022849
  0
VERTEX
  8
0
 10
182.336558
 20
165.480667
 42
-0.324816
  0
VERTEX
  8
0
 10
182.692201
 20
166.977977
 42
-0.114014
  0
VERTEX
  8
0
 10
183.352579
 20
167.323809
 42
-0.003182
  0
VERTEX
  8
0
 10
186.493959
 20
168.122615
 42
-0.006365
  0
VERTEX
  8
0
 10
190.226417
 20
168.996206
 42
-0.004311
  0
VERTEX
  8
0
 10
194.500000
 20
169.900661
 42
0.009624
  0
VERTEX
  8
0
 10
199.148728
 20
170.936231
 42
0.016123
  0
VERTEX
  8
0
 10
203.005979
 20
172.006563
 42
0.016380
  0
VERTEX
  8
0
 10
205.967792
 20
173.039877
 42
0.102007
  0
VERTEX
  8
0
 10
207.312337
 20
173.905000
 42
0.115051
  0
VERTEX
  8
0
 10
208.583590
 20
175.903044
 42
0.068221
  0
VERTEX
  8
0
 10
209.150974
 20
178.683165
 42
0.068644
  0
VERTEX
  8
0
 10
208.948489
 20
181.491271
 42
0.121510
  0
VERTEX
  8
0
 10
207.942292
 20
183.569534
 42
0.102634
  0
VERTEX
  8
0
 10
205.664987
 20
185.386825
 42
0.104185
  0
VERTEX
  8
0
 10
202.864944
 20
186.135741
 42
0.056187
  0
VERTEX
  8
0
 10
198.694560
 20
185.891372
 42
0.011295
  0
VERTEX
  8
0
 10
191.384863
 20
184.459976
 42
-0.001051
  0
VERTEX
  8
0
 10
187.159133
 20
183.542221
 42
-0.001590
  0
VERTEX
  8
0
 10
183.477116
 20
182.762895
 42
-0.000594
  0
VERTEX
  8
0
 10
180.305752
 20
182.106114
 42
-0.038784
  0
VERTEX
  8
0
 10
179.750000
 20
182.036002
 42
-0.374397
  0
VERTEX
  8
0
 10
179.453357
 20
182.270304
 42
-0.014746
  0
VERTEX
  8
0
 10
179.220313
 20
183.749118
 42
-0.019805
  0
VERTEX
  8
0
 10
179.053960
 20
185.651811
 42
-0.011901
  0
VERTEX
  8
0
 10
179.000000
 20
187.918443
 42
0.000000
  0
VERTEX
  8
0
 10
179.000000
 20
193.836887
 42
0.000000
  0
VERTEX
  8
0
 10
191.590595
 20
194.168443
 42
0.003723
  0
VERTEX
  8
0
 10
199.324695
 20
194.429753
 42
0.035607
  0
VERTEX
  8
0
 10
202.603063
 20
194.799815
 42
0.087347
  0
VERTEX
  8
0
 10
204.539775
 20
195.524025
 42
0.089896
  0
VERTEX
  8
0
 10
206.090595
 20
196.860784
 42
0.072715
  0
VERTEX
  8
0
 10
207.462080
 20
199.175400
 42
0.102078
  0
VERTEX
  8
0
 10
207.905599
 20
201.528664
 42
0.098648
  0
VERTEX
  8
0
 10
207.385295
 20
203.924755
 42
0.064095
  0
VERTEX
  8
0
 10
205.927420
 20
206.365141
 42
0.069308
  0
VERTEX
  8
0
 10
204.338439
 20
207.893287
 42
0.108876
  0
VERTEX
  8
0
 10
202.608469
 20
208.646403
 42
0.044600
  0
VERTEX
  8
0
 10
199.773375
 20
208.943908
 42
0.003853
  0
VERTEX
  8
0
 10
192.494808
 20
209.000000
 42
-0.006042
  0
VERTEX
  8
0
 10
184.042047
 20
209.102153
 42
-0.134093
  0
VERTEX
  8
0
 10
181.709093
 20
209.800282
 42
-0.205219
  0
VERTEX
  8
0
 10
180.493255
 20
211.545014
 42
-0.017331
  0
VERTEX
  8
0
 10
179.550048
 20
217.068208
 42
0.051353
  0
VERTEX
  8
0
 10
178.415062
 20
221.765188
 42
0.022740
  0
VERTEX
  8
0
 10
176.015174
 20
227.684452
 42
0.022634
  0
VERTEX
  8
0
 10
172.964797
 20
233.602548
 42
0.034926
  0
VERTEX
  8
0
 10
169.758924
 20
238.380265
 42
0.013861
  0
VERTEX
  8
0
 10
167.918327
 20
240.617010
 42
0.002999
  0
VERTEX
  8
0
 10
164.607954
 20
244.374203
 42
0.003126
  0
VERTEX
  8
0
 10
160.721375
 20
248.677924
 42
0.002985
  0
VERTEX
  8
0
 10
156.721243
 20
253.000000
 42
-0.010001
  0
VERTEX
  8
0
 10
149.101165
 20
261.468709
 42
-0.026102
  0
VERTEX
  8
0
 10
144.077412
 20
267.934991
 42
-0.034480
  0
VERTEX
  8
0
 10
140.629806
 20
273.694577
 42
-0.036394
  0
VERTEX
  8
0
 10
138.076666
 20
279.772419
 42
-0.100122
  0
VERTEX
  8
0
 10
136.211050
 20
294.576814
 42
-0.056030
  0
VERTEX
  8
0
 10
139.583373
 20
312.481872
 42
-0.045171
  0
VERTEX
  8
0
 10
148.004752
 20
333.063418
 42
-0.026561
  0
VERTEX
  8
0
 10
161.498553
 20
356.000000
 42
-0.035482
  0
VERTEX
  8
0
 10
173.675022
 20
371.825203
 42
-0.052747
  0
VERTEX
  8
0
 10
186.590274
 20
383.585853
 42
-0.061754
  0
VERTEX
  8
0
 10
199.861370
 20
391.007316
 42
-0.086375
  0
VERTEX
  8
0
 10
213.113510
 20
393.890434
 42
-0.029908
  0
VERTEX
  8
0
 10
214.474076
 20
393.866079
 42
-0.008942
  0
VERTEX
  8
0
 10
216.540310
 20
393.667983
 42
-0.008932
  0
VERTEX
  8
0
 10
218.856892
 20
393.361989
 42
-0.009557
  0
SEQEND
  0
POLYLINE
  8
0
 66
1
 70
1
  0
VERTEX
  8
0
 10
280.000000
 20
209.675978
 42
-0.049714
  0
VERTEX
  8
0
 10
281.261004
 20
208.854946
 42
-0.113998
  0
VERTEX
  8
0
 10
281.958377
 20
207.969790
 42
-0.099192
  0
VERTEX
  8
0
 10
282.251082
 20
206.786702
 42
-0.031951
  0
VERTEX
  8
0
 10
282.216438
 20
204.971309
 42
-0.095366
  0
VERTEX
  8
0
 10
280.613972
 20
199.250649
 42
-0.049795
  0
VERTEX
  8
0
 10
276.650142
 20
192.967173
 42
-0.048295
  0
VERTEX
  8
0
 10
271.280004
 20
187.303555
 42
-0.065207
  0
VERTEX
  8
0
 10
265.401948
 20
183.408226
 42
-0.075500
  0
VERTEX
  8
0
 10
259.006577
 20
181.399731
 42
-0.097292
  0
VERTEX
  8
0
 10
252.865933
 20
181.647868
 42
-0.088746
  0
VERTEX
  8
0
 10
246.859843
 20
184.268224
 42
-0.053042
  0
VERTEX
  8
0
 10
240.855121
 20
189.268725
 42
-0.048473
  0
VERTEX
  8
0
 10
235.875873
 20
195.508108
 42
-0.067050
  0
VERTEX
  8
0
 10
232.811266
 20
201.971171
 42
-0.096862
  0
VERTEX
  8
0
 10
232.205378
 20
207.182123
 42
-0.285185
  0
VERTEX
  8
0
 10
234.250000
 20
209.968838
 42
-0.093720
  0
VERTEX
  8
0
 10
239.126138
 20
210.933405
 42
-0.003700
  0
VERTEX
  8
0
 10
257.404084
 20
210.951654
 42
-0.003175
  0
VERTEX
  8
0
 10
275.901240
 20
210.715794
 42
-0.115180
  0
SEQEND
  0
POLYLINE
  8
0
 66
1
 70
1
  0
VERTEX
  8
0
 10
190.168383
 20
323.396619
 42
0.144870
  0
VERTEX
  8
0
 10
180.457249
 20
314.349010
 42
0.143216
  0
VERTEX
  8
0
 10
177.179136
 20
301.431102
 42
0.142748
  0
VERTEX
  8
0
 10
181.375124
 20
288.750618
 42
0.143685
  0
VERTEX
  8
0
 10
191.717881
 20
280.348462
 42
0.094944
  0
VERTEX
  8
0
 10
198.974928
 20
278.820618
 42
0.071243
  0
VERTEX
  8
0
 10
207.093783
 20
279.833073
 42
0.071608
  0
VERTEX
  8
0
 10
214.560463
 20
283.071947
 42
0.098222
  0
VERTEX
  8
0
 10
219.914059
 20
288.040060
 42
0.165933
  0
VERTEX
  8
0
 10
224.507911
 20
302.994294
 42
0.168724
  0
VERTEX
  8
0
 10
218.956099
 20
317.517752
 42
0.169415
  0
VERTEX
  8
0
 10
205.620565
 20
325.434230
 42
0.167128
  0
SEQEND
  0
POLYLINE
  8
0
 66
1
 70
1
  0
VERTEX
  8
0
 10
206.810301
 20
308.701925
 42
-0.068363
  0
VERTEX
  8
0
 10
208.850713
 20
305.829739
 42
-0.105738
  0
VERTEX
  8
0
 10
209.660870
 20
302.907732
 42
-0.110518
  0
VERTEX
  8
0
 10
209.191113
 20
300.003659
 42
-0.079918
  0
VERTEX
  8
0
 10
207.499703
 20
297.182016
 42
-0.031159
  0
VERTEX
  8
0
 10
205.946848
 20
295.554101
 42
-0.075005
  0
VERTEX
  8
0
 10
204.572896
 20
294.620240
 42
-0.077291
  0
VERTEX
  8
0
 10
203.010535
 20
294.148971
 42
-0.034685
  0
VERTEX
  8
0
 10
200.865652
 20
294.000000
 42
-0.149355
  0
VERTEX
  8
0
 10
195.595599
 20
295.610132
 42
-0.169737
  0
VERTEX
  8
0
 10
192.448124
 20
299.824379
 42
-0.165555
  0
VERTEX
  8
0
 10
192.570555
 20
305.167310
 42
-0.142190
  0
VERTEX
  8
0
 10
195.913343
 20
309.718197
 42
-0.116954
  0
VERTEX
  8
0
 10
198.328640
 20
310.802402
 42
-0.070636
  0
VERTEX
  8
0
 10
201.477378
 20
310.953799
 42
-0.070194
  0
VERTEX
  8
0
 10
204.567004
 20
310.220104
 42
-0.111280
  0
SEQEND
  0
POLYLINE
  8
0
 66
1
 70
1
  0
VERTEX
  8
0
 10
303.500000
 20
324.152799
 42
0.068737
  0
VERTEX
  8
0
 10
297.806859
 20
320.402833
 42
0.074838
  0
VERTEX
  8
0
 10
293.531443
 20
315.344230
 42
0.074028
  0
VERTEX
  8
0
 10
290.901679
 20
309.201524
 42
0.065221
  0
VERTEX
  8
0
 10
290.021962
 20
302.282119
 42
0.092599
  0
VERTEX
  8
0
 10
291.785015
 20
293.038582
 42
0.105776
  0
VERTEX
  8
0
 10
296.740170
 20
285.539532
 42
0.105131
  0
VERTEX
  8
0
 10
304.357925
 20
280.692980
 42
0.090478
  0
VERTEX
  8
0
 10
313.717881
 20
279.021962
 42
0.045892
  0
VERTEX
  8
0
 10
318.945514
 20
279.522821
 42
0.059997
  0
VERTEX
  8
0
 10
323.518703
 20
280.973073
 42
0.060674
  0
VERTEX
  8
0
 10
327.577933
 20
283.451422
 42
0.048416
  0
VERTEX
  8
0
 10
331.276273
 20
287.009659
 42
0.038178
  0
VERTEX
  8
0
 10
334.236532
 20
291.055882
 42
0.062571
  0
VERTEX
  8
0
 10
336.005444
 20
294.909536
 42
0.060043
  0
VERTEX
  8
0
 10
336.809059
 20
299.194020
 42
0.032275
  0
VERTEX
  8
0
 10
336.814114
 20
304.578342
 42
0.053818
  0
VERTEX
  8
0
 10
335.897593
 20
309.881936
 42
0.064796
  0
VERTEX
  8
0
 10
333.891536
 20
314.522014
 42
0.061871
  0
VERTEX
  8
0
 10
330.676318
 20
318.655719
 42
0.043410
  0
VERTEX
  8
0
 10
326.159053
 20
322.455822
 42
0.028307
  0
VERTEX
  8
0
 10
323.586249
 20
324.054619
 42
0.054714
  0
VERTEX
  8
0
 10
321.347613
 20
324.975097
 42
0.045550
  0
VERTEX
  8
0
 10
318.704421
 20
325.482748
 42
0.014356
  0
VERTEX
  8
0
 10
314.686980
 20
325.764437
 42
0.014299
  0
VERTEX
  8
0
 10
310.989689
 20
325.811385
 42
0.031806
  0
VERTEX
  8
0
 10
308.184165
 20
325.587906
 42
0.038966
  0
VERTEX
  8
0
 10
305.812502
 20
325.055137
 42
0.036600
  0
SEQEND
  0
POLYLINE
  8
0
 66
1
 70
1
  0
VERTEX
  8
0
 10
319.545455
 20
308.545455
 42
-0.147308
  0
VERTEX
  8
0
 10
321.909017
 20
304.144861
 42
-0.151765
  0
VERTEX
  8
0
 10
321.411437
 20
299.228095
 42
-0.150278
  0
VERTEX
  8
0
 10
318.205517
 20
295.425070
 42
-0.143998
  0
VERTEX
  8
0
 10
313.359906
 20
294.000000
 42
-0.081339
  0
VERTEX
  8
0
 10
309.900635
 20
294.566497
 42
-0.113560
  0
VERTEX
  8
0
 10
307.238875
 20
296.201345
 42
-0.114781
  0
VERTEX
  8
0
 10
305.577910
 20
298.819752
 42
-0.084381
  0
VERTEX
  8
0
 10
305.000000
 20
302.219769
 42
-0.140771
  0
VERTEX
  8
0
 10
306.416928
 20
307.152780
 42
-0.151434
  0
VERTEX
  8
0
 10
310.205992
 20
310.414886
 42
-0.154277
  0
VERTEX
  8
0
 10
315.118451
 20
310.928020
 42
-0.146877
  0
SEQEND
  0
ENDSEC
  0
EOF
