  0
SECTION
  2
HEADER
  9
$ACADVER
  1
AC1006
  9
$EXTMIN
 10
0.000000
 20
0.000000
 30
0.000000
  9
$EXTMAX
 10
512.000000
 20
512.000000
 30
0.000000
  0
ENDSEC
  0
SECTION
  2
ENTITIES
  0
POLYLINE
  8
0
 66
1
 70
1
  0
VERTEX
  8
0
 10
16.243421
 20
510.396568
 42
0.090627
  0
VERTEX
  8
0
 10
9.500423
 20
506.412790
 42
0.076247
  0
VERTEX
  8
0
 10
4.121563
 20
500.081046
 42
0.075881
  0
VERTEX
  8
0
 10
0.867823
 20
492.396743
 42
0.088205
  0
VERTEX
  8
0
 10
0.288789
 20
484.490851
 42
0.041259
  0
VERTEX
  8
0
 10
1.066051
 20
480.344707
 42
0.033611
  0
VERTEX
  8
0
 10
2.551560
 20
476.077261
 42
0.034687
  0
VERTEX
  8
0
 10
4.438588
 20
472.376399
 42
0.084500
  0
VERTEX
  8
0
 10
6.426912
 20
470.060658
 42
-0.195872
  0
VERTEX
  8
0
 10
7.336116
 20
468.361093
 42
-0.015032
  0
VERTEX
  8
0
 10
7.728968
 20
463.084600
 42
-0.009821
  0
VERTEX
  8
0
 10
7.951492
 20
454.045803
 42
-0.001243
  0
VERTEX
  8
0
 10
8.000000
 20
434.537518
 42
0.001489
  0
VERTEX
  8
0
 10
8.059765
 20
414.469746
 42
0.010278
  0
VERTEX
  8
0
 10
8.320865
 20
404.623210
 42
0.020932
  0
VERTEX
  8
0
 10
8.892927
 20
398.207016
 42
0.029911
  0
VERTEX
  8
0
 10
9.975445
 20
392.596011
 42
0.029657
  0
VERTEX
  8
0
 10
12.475511
 20
384.782844
 42
0.037512
  0
VERTEX
  8
0
 10
15.732184
 20
377.935940
 42
0.037407
  0
VERTEX
  8
0
 10
19.983621
 20
371.637395
 42
0.029228
  0
VERTEX
  8
0
 10
25.469602
 20
365.469602
 42
0.029228
  0
VERTEX
  8
0
 10
31.637395
 20
359.983621
 42
0.037407
  0
VERTEX
  8
0
 10
37.935940
 20
355.732184
 42
0.037512
  0
VERTEX
  8
0
 10
44.782844
 20
352.475511
 42
0.029657
  0
VERTEX
  8
0
 10
52.596011
 20
349.975445
 42
0.044281
  0
VERTEX
  8
0
 10
62.721158
 20
348.321857
 42
0.046718
  0
VERTEX
  8
0
 10
72.795572
 20
348.523231
 42
0.045912
  0
VERTEX
  8
0
 10
82.811588
 20
350.606966
 42
0.040127
  0
VERTEX
  8
0
 10
92.763134
 20
354.548149
 42
0.000000
  0
VERTEX
  8
0
 10
100.026267
 20
358.122234
 42
0.000000
  0
VERTEX
  8
0
 10
102.763134
 20
354.851210
 42
0.002036
  0
VERTEX
  8
0
 10
104.620568
 20
352.649536
 42
0.000117
  0
VERTEX
  8
0
 10
110.347790
 20
345.919897
 42
0.000179
  0
VERTEX
  8
0
 10
117.170774
 20
337.912314
 42
0.000131
  0
VERTEX
  8
0
 10
124.739982
 20
329.040093
 42
0.000000
  0
VERTEX
  8
0
 10
143.979963
 20
306.500000
 42
0.000000
  0
VERTEX
  8
0
 10
143.989982
 20
291.183278
 42
-0.002831
  0
VERTEX
  8
0
 10
143.940686
 20
281.341305
 42
-0.031887
  0
VERTEX
  8
0
 10
143.650407
 20
277.448143
 42
-0.075440
  0
VERTEX
  8
0
 10
142.907536
 20
274.947512
 42
-0.053110
  0
VERTEX
  8
0
 10
141.382860
 20
272.435309
 42
0.138690
  0
VERTEX
  8
0
 10
136.208598
 20
259.327970
 42
0.147327
  0
VERTEX
  8
0
 10
138.842731
 20
245.791258
 42
0.143482
  0
VERTEX
  8
0
 10
148.611524
 20
235.712044
 42
0.129725
  0
VERTEX
  8
0
 10
162.678139
 20
232.000000
 42
0.000000
  0
VERTEX
  8
0
 10
168.000000
 20
232.000000
 42
0.000000
  0
VERTEX
  8
0
 10
168.000000
 20
226.181501
 42
0.036212
  0
VERTEX
  8
0
 10
168.382644
 20
220.905039
 42
0.029655
  0
VERTEX
  8
0
 10
169.529008
 20
215.365958
 42
0.029600
  0
VERTEX
  8
0
 10
171.326063
 20
209.989212
 42
0.035628
  0
VERTEX
  8
0
 10
173.657710
 20
205.198649
 42
-0.051470
  0
VERTEX
  8
0
 10
175.111164
 20
201.955658
 42
-0.057134
  0
VERTEX
  8
0
 10
175.807424
 20
198.596014
 42
-0.022018
  0
VERTEX
  8
0
 10
176.056938
 20
193.196566
 42
-0.001752
  0
VERTEX
  8
0
 10
176.037563
 20
178.887866
 42
0.008972
  0
VERTEX
  8
0
 10
176.276485
 20
160.630270
 42
0.054585
  0
VERTEX
  8
0
 10
177.593709
 20
151.289251
 42
0.066802
  0
VERTEX
  8
0
 10
180.818614
 20
143.274757
 42
0.017183
  0
VERTEX
  8
0
 10
188.131694
 20
131.355617
 42
0.004770
  0
VERTEX
  8
0
 10
191.757768
 20
125.989224
 42
0.005047
  0
VERTEX
  8
0
 10
195.418733
 20
120.794060
 42
0.004828
  0
VERTEX
  8
0
 10
198.660141
 20
116.381989
 42
0.022864
  0
VERTEX
  8
0
 10
200.653926
 20
113.961303
 42
0.046348
  0
VERTEX
  8
0
 10
206.697583
 20
108.404504
 42
0.035288
  0
VERTEX
  8
0
 10
214.222577
 20
103.471377
 42
0.034806
  0
VERTEX
  8
0
 10
222.499981
 20
99.573035
 42
0.041050
  0
VERTEX
  8
0
 10
230.799221
 20
97.109882
 42
0.046422
  0
VERTEX
  8
0
 10
239.495920
 20
96.116957
 42
0.007122
  0
VERTEX
  8
0
 10
256.923701
 20
96.000914
 42
0.006966
  0
VERTEX
  8
0
 10
274.354464
 20
96.376033
 42
0.049064
  0
VERTEX
  8
0
 10
282.753568
 20
97.504006
 42
0.036229
  0
VERTEX
  8
0
 10
289.548107
 20
99.635423
 42
0.028814
  0
VERTEX
  8
0
 10
296.524297
 20
102.868781
 42
0.028716
  0
VERTEX
  8
0
 10
303.110931
 20
106.898381
 42
0.035125
  0
VERTEX
  8
0
 10
308.738202
 20
111.418107
 42
0.000000
  0
VERTEX
  8
0
 10
314.666822
 20
116.906963
 42
0.000000
  0
VERTEX
  8
0
 10
319.545819
 20
111.953481
 42
0.010129
  0
VERTEX
  8
0
 10
321.492235
 20
110.055822
 42
0.014378
  0
VERTEX
  8
0
 10
323.303755
 20
108.455085
 42
0.010359
  0
VERTEX
  8
0
 10
324.857270
 20
107.213567
 42
0.164848
  0
VERTEX
  8
0
 10
325.487436
 20
107.000000
 42
0.177039
  0
VERTEX
  8
0
 10
326.153753
 20
107.243563
 42
0.005338
  0
VERTEX
  8
0
 10
328.426332
 20
109.203125
 42
0.009972
  0
VERTEX
  8
0
 10
331.068136
 20
111.625957
 42
0.006654
  0
VERTEX
  8
0
 10
334.000000
 20
114.500000
 42
-0.007975
  0
VERTEX
  8
0
 10
336.947068
 20
117.373714
 42
-0.011702
  0
VERTEX
  8
0
 10
339.636063
 20
119.796875
 42
-0.007182
  0
VERTEX
  8
0
 10
341.942602
 20
121.722668
 42
-0.171995
  0
VERTEX
  8
0
 10
342.724972
 20
122.000000
 42
-0.352933
  0
VERTEX
  8
0
 10
343.367409
 20
121.482004
 42
-0.028981
  0
VERTEX
  8
0
 10
343.725480
 20
119.201035
 42
-0.020005
  0
VERTEX
  8
0
 10
343.942797
 20
115.442901
 42
-0.004439
  0
VERTEX
  8
0
 10
344.000000
 20
109.000000
 42
0.000000
  0
VERTEX
  8
0
 10
344.000000
 20
96.000000
 42
0.000000
  0
VERTEX
  8
0
 10
352.000000
 20
96.000000
 42
0.000000
  0
VERTEX
  8
0
 10
360.000000
 20
96.000000
 42
0.000000
  0
VERTEX
  8
0
 10
360.000000
 20
109.000000
 42
-0.004638
  0
VERTEX
  8
0
 10
360.058329
 20
115.287606
 42
-0.018907
  0
VERTEX
  8
0
 10
360.273613
 20
119.103154
 42
-0.024343
  0
VERTEX
  8
0
 10
360.617910
 20
121.496947
 42
-0.359167
  0
VERTEX
  8
0
 10
361.227876
 20
122.000000
 42
-0.172731
  0
VERTEX
  8
0
 10
361.989906
 20
121.728653
 42
-0.006324
  0
VERTEX
  8
0
 10
364.379980
 20
119.728485
 42
-0.010890
  0
VERTEX
  8
0
 10
367.164595
 20
117.230240
 42
-0.007359
  0
VERTEX
  8
0
 10
370.234190
 20
114.267183
 42
0.000000
  0
VERTEX
  8
0
 10
378.012628
 20
106.534367
 42
0.000000
  0
VERTEX
  8
0
 10
383.739130
 20
112.260870
 42
0.000000
  0
VERTEX
  8
0
 10
389.465633
 20
117.987372
 42
0.000000
  0
VERTEX
  8
0
 10
381.601575
 20
125.897826
 42
-0.004175
  0
VERTEX
  8
0
 10
376.526480
 20
131.088833
 42
-0.055743
  0
VERTEX
  8
0
 10
374.904615
 20
133.202969
 42
-0.145266
  0
VERTEX
  8
0
 10
374.465039
 20
134.892701
 42
-0.075498
  0
VERTEX
  8
0
 10
374.868758
 20
137.053363
 42
0.072436
  0
VERTEX
  8
0
 10
375.982654
 20
142.820074
 42
0.069271
  0
VERTEX
  8
0
 10
375.434062
 20
148.757707
 42
0.066780
  0
VERTEX
  8
0
 10
373.244639
 20
154.507784
 42
0.059719
  0
VERTEX
  8
0
 10
369.550399
 20
159.721245
 42
0.000000
  0
VERTEX
  8
0
 10
365.487307
 20
164.209072
 42
0.000000
  0
VERTEX
  8
0
 10
369.264304
 20
171.854536
 42
0.060046
  0
VERTEX
  8
0
 10
374.288524
 20
186.107546
 42
0.059217
  0
VERTEX
  8
0
 10
375.814295
 20
201.214325
 42
0.058672
  0
VERTEX
  8
0
 10
373.756043
 20
216.385264
 42
0.056956
  0
VERTEX
  8
0
 10
368.224025
 20
230.825782
 42
0.000000
  0
VERTEX
  8
0
 10
365.453852
 20
236.151564
 42
0.000000
  0
VERTEX
  8
0
 10
369.102817
 20
239.987423
 42
0.090080
  0
VERTEX
  8
0
 10
373.887537
 20
247.278400
 42
0.088844
  0
VERTEX
  8
0
 10
375.832676
 20
255.821895
 42
0.088141
  0
VERTEX
  8
0
 10
374.696538
 20
264.567106
 42
0.086863
  0
VERTEX
  8
0
 10
370.617140
 20
272.435309
 42
-0.036086
  0
VERTEX
  8
0
 10
369.249423
 20
274.525342
 42
-0.062990
  0
VERTEX
  8
0
 10
368.479796
 20
276.443844
 42
-0.049331
  0
VERTEX
  8
0
 10
368.106801
 20
278.798347
 42
-0.014634
  0
VERTEX
  8
0
 10
368.000000
 20
282.446730
 42
0.000000
  0
VERTEX
  8
0
 10
368.000000
 20
289.026904
 42
0.000000
  0
VERTEX
  8
0
 10
385.750000
 20
277.129171
 42
0.000000
  0
VERTEX
  8
0
 10
403.500000
 20
265.231439
 42
0.000000
  0
VERTEX
  8
0
 10
432.000000
 20
233.069834
 42
-0.000840
  0
VERTEX
  8
0
 10
442.950266
 20
220.670796
 42
-0.001356
  0
VERTEX
  8
0
 10
452.226622
 20
210.073687
 42
-0.000195
  0
VERTEX
  8
0
 10
460.435618
 20
200.636993
 42
-0.095167
  0
VERTEX
  8
0
 10
460.835310
 20
199.948183
 42
-0.242279
  0
VERTEX
  8
0
 10
460.645984
 20
198.598626
 42
-0.002502
  0
VERTEX
  8
0
 10
454.923753
 20
190.579536
 42
-0.002526
  0
VERTEX
  8
0
 10
449.124494
 20
182.622943
 42
-0.238343
  0
VERTEX
  8
0
 10
447.891908
 20
182.000000
 42
-0.228579
  0
VERTEX
  8
0
 10
447.282788
 20
182.293815
 42
-0.000040
  0
VERTEX
  8
0
 10
424.025761
 20
211.538315
 42
-0.000914
  0
VERTEX
  8
0
 10
403.659431
 20
237.248424
 42
-0.004669
  0
VERTEX
  8
0
 10
392.500000
 20
251.663741
 42
0.196604
  0
VERTEX
  8
0
 10
391.761678
 20
252.099425
 42
0.135137
  0
VERTEX
  8
0
 10
390.785243
 20
251.977928
 42
0.058765
  0
VERTEX
  8
0
 10
389.348448
 20
251.174554
 42
0.011658
  0
VERTEX
  8
0
 10
387.000000
 20
249.387234
 42
-0.002018
  0
VERTEX
  8
0
 10
385.141117
 20
247.915061
 42
-0.002039
  0
VERTEX
  8
0
 10
383.276968
 20
246.463175
 42
-0.001985
  0
VERTEX
  8
0
 10
381.643631
 20
245.212046
 42
-0.008294
  0
VERTEX
  8
0
 10
380.644999
 20
244.479174
 42
0.395007
  0
VERTEX
  8
0
 10
380.281173
 20
242.701653
 42
0.017996
  0
VERTEX
  8
0
 10
384.031525
 20
237.057573
 42
0.010005
  0
VERTEX
  8
0
 10
391.512333
 20
227.061955
 42
0.000870
  0
VERTEX
  8
0
 10
411.093043
 20
202.051650
 42
0.001816
  0
VERTEX
  8
0
 10
425.470869
 20
183.888795
 42
0.004890
  0
VERTEX
  8
0
 10
435.864353
 20
171.115004
 42
0.002159
  0
VERTEX
  8
0
 10
443.963583
 20
161.442656
 42
0.157141
  0
VERTEX
  8
0
 10
445.698044
 20
160.360938
 42
0.134898
  0
VERTEX
  8
0
 10
449.355610
 20
160.442413
 42
0.112333
  0
VERTEX
  8
0
 10
452.752663
 20
162.361261
 42
0.042768
  0
VERTEX
  8
0
 10
457.228969
 20
167.191312
 42
0.004739
  0
VERTEX
  8
0
 10
466.375354
 20
179.161954
 42
0.003831
  0
VERTEX
  8
0
 10
472.898658
 20
188.009852
 42
0.013124
  0
VERTEX
  8
0
 10
476.940681
 20
193.900388
 42
0.015995
  0
VERTEX
  8
0
 10
479.441853
 20
198.043203
 42
0.128494
  0
VERTEX
  8
0
 10
480.000000
 20
200.179225
 42
0.131112
  0
VERTEX
  8
0
 10
479.456658
 20
202.215667
 42
0.028689
  0
VERTEX
  8
0
 10
477.454878
 20
205.278825
 42
0.018451
  0
VERTEX
  8
0
 10
473.932248
 20
209.697032
 42
0.004426
  0
VERTEX
  8
0
 10
467.756352
 20
216.755039
 42
-0.004855
  0
VERTEX
  8
0
 10
463.257431
 20
221.905439
 42
-0.011082
  0
VERTEX
  8
0
 10
459.988659
 20
225.897475
 42
-0.020074
  0
VERTEX
  8
0
 10
458.248415
 20
228.315578
 42
-0.810936
  0
VERTEX
  8
0
 10
458.506352
 20
228.576792
 42
-0.003456
  0
VERTEX
  8
0
 10
460.509028
 20
227.270569
 42
-0.000208
  0
VERTEX
  8
0
 10
466.494491
 20
223.303782
 42
-0.000312
  0
VERTEX
  8
0
 10
473.618702
 20
218.571623
 42
-0.000231
  0
VERTEX
  8
0
 10
481.496171
 20
213.326792
 42
0.004918
  0
VERTEX
  8
0
 10
495.687624
 20
204.068942
 42
0.049643
  0
VERTEX
  8
0
 10
501.976567
 20
200.882384
 42
0.144292
  0
VERTEX
  8
0
 10
506.005894
 20
200.546468
 42
0.146527
  0
VERTEX
  8
0
 10
509.545455
 20
202.454545
 42
0.000000
  0
VERTEX
  8
0
 10
512.000000
 20
204.909091
 42
0.000000
  0
VERTEX
  8
0
 10
512.000000
 20
231.520287
 42
0.003233
  0
VERTEX
  8
0
 10
511.933244
 20
241.843336
 42
0.004900
  0
VERTEX
  8
0
 10
511.729131
 20
250.820568
 42
0.001990
  0
VERTEX
  8
0
 10
511.448893
 20
258.492465
 42
0.113207
  0
VERTEX
  8
0
 10
511.077892
 20
259.854458
 42
0.119002
  0
VERTEX
  8
0
 10
510.085652
 20
260.967038
 42
0.000502
  0
VERTEX
  8
0
 10
496.597522
 20
270.286441
 42
0.002430
  0
VERTEX
  8
0
 10
481.191365
 20
280.798111
 42
0.001525
  0
VERTEX
  8
0
 10
463.077892
 20
292.948096
 42
0.000000
  0
VERTEX
  8
0
 10
416.000000
 20
324.318760
 42
0.000000
  0
VERTEX
  8
0
 10
416.000000
 20
335.137226
 42
0.007150
  0
VERTEX
  8
0
 10
415.909396
 20
341.473201
 42
0.033790
  0
VERTEX
  8
0
 10
415.560768
 20
345.087817
 42
0.047984
  0
VERTEX
  8
0
 10
414.787218
 20
348.000338
 42
0.025125
  0
VERTEX
  8
0
 10
413.305388
 20
351.449901
 42
-0.012684
  0
VERTEX
  8
0
 10
412.317569
 20
353.600335
 42
-0.019515
  0
VERTEX
  8
0
 10
411.584334
 20
355.512201
 42
-0.014610
  0
VERTEX
  8
0
 10
411.102703
 20
357.080426
 42
-0.269814
  0
VERTEX
  8
0
 10
411.230405
 20
357.563739
 42
-0.284551
  0
VERTEX
  8
0
 10
411.736610
 20
357.682771
 42
-0.008978
  0
VERTEX
  8
0
 10
413.819732
 20
356.942486
 42
-0.014964
  0
VERTEX
  8
0
 10
416.322613
 20
355.915607
 42
-0.009512
  0
VERTEX
  8
0
 10
419.175017
 20
354.578717
 42
0.039908
  0
VERTEX
  8
0
 10
429.161405
 20
350.618526
 42
0.045990
  0
VERTEX
  8
0
 10
439.188640
 20
348.524796
 42
0.046849
  0
VERTEX
  8
0
 10
449.266666
 20
348.320159
 42
0.044295
  0
VERTEX
  8
0
 10
459.403989
 20
349.975445
 42
0.029657
  0
VERTEX
  8
0
 10
467.217156
 20
352.475511
 42
0.037512
  0
VERTEX
  8
0
 10
474.064060
 20
355.732184
 42
0.037407
  0
VERTEX
  8
0
 10
480.362605
 20
359.983621
 42
0.029228
  0
VERTEX
  8
0
 10
486.530398
 20
365.469602
 42
0.029228
  0
VERTEX
  8
0
 10
492.016379
 20
371.637395
 42
0.037407
  0
VERTEX
  8
0
 10
496.267816
 20
377.935940
 42
0.037512
  0
VERTEX
  8
0
 10
499.524489
 20
384.782844
 42
0.029657
  0
VERTEX
  8
0
 10
502.024555
 20
392.596011
 42
0.029911
  0
VERTEX
  8
0
 10
503.107073
 20
398.207016
 42
0.020932
  0
VERTEX
  8
0
 10
503.679135
 20
404.623210
 42
0.010278
  0
VERTEX
  8
0
 10
503.940235
 20
414.469746
 42
0.001489
  0
VERTEX
  8
0
 10
504.000000
 20
434.537518
 42
-0.001168
  0
VERTEX
  8
0
 10
504.046830
 20
454.577820
 42
-0.010478
  0
VERTEX
  8
0
 10
504.272149
 20
463.367497
 42
-0.018521
  0
VERTEX
  8
0
 10
504.690149
 20
468.354563
 42
-0.192068
  0
VERTEX
  8
0
 10
505.659136
 20
470.127555
 42
0.094130
  0
VERTEX
  8
0
 10
507.873318
 20
472.799529
 42
0.034420
  0
VERTEX
  8
0
 10
509.952977
 20
477.269548
 42
0.034537
  0
VERTEX
  8
0
 10
511.469064
 20
482.212625
 42
0.058913
  0
VERTEX
  8
0
 10
511.946338
 20
486.500000
 42
0.086795
  0
VERTEX
  8
0
 10
510.217210
 20
496.003386
 42
0.098462
  0
VERTEX
  8
0
 10
505.386818
 20
503.892111
 42
0.098798
  0
VERTEX
  8
0
 10
497.921430
 20
509.313791
 42
0.087993
  0
VERTEX
  8
0
 10
488.632629
 20
511.741417
 42
0.048346
  0
VERTEX
  8
0
 10
483.707312
 20
511.660050
 42
0.046325
  0
VERTEX
  8
0
 10
478.815530
 20
510.639273
 42
0.047702
  0
VERTEX
  8
0
 10
474.339462
 20
508.780309
 42
0.059593
  0
VERTEX
  8
0
 10
470.648905
 20
506.211805
 42
0.034379
  0
VERTEX
  8
0
 10
469.287200
 20
504.821500
 42
0.000412
  0
VERTEX
  8
0
 10
461.060887
 20
495.162218
 42
0.001237
  0
VERTEX
  8
0
 10
451.586543
 20
483.962908
 42
0.000808
  0
VERTEX
  8
0
 10
440.710864
 20
471.000000
 42
-0.000052
  0
VERTEX
  8
0
 10
429.872976
 20
458.042396
 42
-0.000080
  0
VERTEX
  8
0
 10
420.517121
 20
446.862701
 42
-0.000023
  0
VERTEX
  8
0
 10
412.367982
 20
437.129044
 42
-0.002676
  0
VERTEX
  8
0
 10
411.304841
 20
435.873023
 42
0.162234
  0
VERTEX
  8
0
 10
410.859826
 20
434.778308
 42
0.170599
  0
VERTEX
  8
0
 10
411.173184
 20
433.661302
 42
0.059051
  0
VERTEX
  8
0
 10
412.538169
 20
432.134240
 42
0.006838
  0
VERTEX
  8
0
 10
416.027665
 20
429.136499
 42
0.000000
  0
VERTEX
  8
0
 10
422.142636
 20
424.026951
 42
0.000000
  0
VERTEX
  8
0
 10
451.197622
 20
458.763476
 42
-0.001753
  0
VERTEX
  8
0
 10
462.487276
 20
472.165022
 42
-0.002712
  0
VERTEX
  8
0
 10
472.341542
 20
483.652924
 42
-0.000840
  0
VERTEX
  8
0
 10
480.952786
 20
493.548608
 42
-0.083569
  0
VERTEX
  8
0
 10
482.376304
 20
494.714565
 42
-0.076154
  0
VERTEX
  8
0
 10
485.145955
 20
495.780833
 42
-0.092095
  0
VERTEX
  8
0
 10
487.925717
 20
495.869280
 42
-0.089864
  0
VERTEX
  8
0
 10
490.604008
 20
494.948575
 42
-0.068869
  0
VERTEX
  8
0
 10
493.076923
 20
493.076923
 42
-0.064600
  0
VERTEX
  8
0
 10
494.936316
 20
490.663125
 42
-0.089613
  0
VERTEX
  8
0
 10
495.867119
 20
488.102129
 42
-0.092456
  0
VERTEX
  8
0
 10
495.828422
 20
485.438670
 42
-0.073251
  0
VERTEX
  8
0
 10
494.852517
 20
482.724425
 42
-0.050341
  0
VERTEX
  8
0
 10
493.443278
 20
480.628738
 42
-0.000046
  0
VERTEX
  8
0
 10
455.454925
 20
434.851613
 42
-0.000276
  0
VERTEX
  8
0
 10
420.515218
 20
392.803205
 42
-0.007281
  0
VERTEX
  8
0
 10
410.988390
 20
381.684323
 42
-0.396731
  0
VERTEX
  8
0
 10
409.828240
 20
381.576787
 42
-0.005305
  0
VERTEX
  8
0
 10
403.696294
 20
386.470410
 42
-0.006550
  0
VERTEX
  8
0
 10
397.755441
 20
391.446591
 42
-0.218489
  0
VERTEX
  8
0
 10
397.000000
 20
393.092849
 42
-0.160849
  0
VERTEX
  8
0
 10
397.208327
 20
393.723681
 42
-0.003958
  0
VERTEX
  8
0
 10
399.067708
 20
396.190776
 42
-0.008175
  0
VERTEX
  8
0
 10
401.341528
 20
399.060168
 42
-0.005426
  0
VERTEX
  8
0
 10
404.039006
 20
402.280225
 42
0.000000
  0
VERTEX
  8
0
 10
411.078013
 20
410.500000
 42
0.000000
  0
VERTEX
  8
0
 10
405.289006
 20
415.725735
 42
0.004350
  0
VERTEX
  8
0
 10
403.034001
 20
417.725998
 42
0.006784
  0
VERTEX
  8
0
 10
401.053646
 20
419.405354
 42
0.002506
  0
VERTEX
  8
0
 10
399.333758
 20
420.809743
 42
0.190994
  0
VERTEX
  8
0
 10
399.000000
 20
420.913829
 42
0.194695
  0
VERTEX
  8
0
 10
398.677507
 20
420.754163
 42
0.001199
  0
VERTEX
  8
0
 10
396.477779
 20
418.266755
 42
0.004650
  0
VERTEX
  8
0
 10
393.982563
 20
415.377808
 42
0.002918
  0
VERTEX
  8
0
 10
391.115844
 20
411.955371
 42
0.000000
  0
VERTEX
  8
0
 10
383.731688
 20
403.034554
 42
0.000000
  0
VERTEX
  8
0
 10
378.115844
 20
407.846056
 42
0.003190
  0
VERTEX
  8
0
 10
375.874862
 20
409.741413
 42
0.004085
  0
VERTEX
  8
0
 10
373.786516
 20
411.456184
 42
0.003171
  0
VERTEX
  8
0
 10
372.016749
 20
412.866871
 42
0.034563
  0
VERTEX
  8
0
 10
371.263786
 20
413.379276
 42
0.289863
  0
VERTEX
  8
0
 10
370.106615
 20
413.337797
 42
0.038496
  0
VERTEX
  8
0
 10
368.108664
 20
411.731872
 42
0.028132
  0
VERTEX
  8
0
 10
365.438399
 20
408.925487
 42
0.009446
  0
VERTEX
  8
0
 10
361.857287
 20
404.545700
 42
0.000000
  0
VERTEX
  8
0
 10
359.969547
 20
402.145827
 42
0.000000
  0
VERTEX
  8
0
 10
366.471407
 20
396.822914
 42
-0.008720
  0
VERTEX
  8
0
 10
368.961517
 20
394.710730
 42
-0.012987
  0
VERTEX
  8
0
 10
371.057989
 20
392.769856
 42
-0.008012
  0
VERTEX
  8
0
 10
372.721872
 20
391.094369
 42
-0.198584
  0
VERTEX
  8
0
 10
372.955032
 20
390.500000
 42
-0.121352
  0
VERTEX
  8
0
 10
372.809840
 20
389.953670
 42
-0.018832
  0
VERTEX
  8
0
 10
372.231152
 20
388.985937
 42
-0.020046
  0
VERTEX
  8
0
 10
371.444442
 20
387.876191
 42
-0.016246
  0
VERTEX
  8
0
 10
370.516365
 20
386.750000
 42
-0.040143
  0
VERTEX
  8
0
 10
369.078634
 20
385.359195
 42
-0.076814
  0
VERTEX
  8
0
 10
367.700521
 20
384.542006
 42
-0.068772
  0
VERTEX
  8
0
 10
366.038419
 20
384.127176
 42
-0.026821
  0
VERTEX
  8
0
 10
363.669286
 20
384.000000
 42
-0.019660
  0
VERTEX
  8
0
 10
361.060303
 20
384.102625
 42
-0.109050
  0
VERTEX
  8
0
 10
359.726128
 20
384.509304
 42
-0.132719
  0
VERTEX
  8
0
 10
358.818426
 20
385.401897
 42
-0.034629
  0
VERTEX
  8
0
 10
357.901252
 20
387.250000
 42
0.041754
  0
VERTEX
  8
0
 10
355.308020
 20
392.293809
 42
0.014601
  0
VERTEX
  8
0
 10
350.783044
 20
399.087818
 42
0.014666
  0
VERTEX
  8
0
 10
345.476152
 20
406.125661
 42
0.019679
  0
VERTEX
  8
0
 10
340.240243
 20
412.158797
 42
0.039426
  0
VERTEX
  8
0
 10
327.558374
 20
423.688836
 42
0.038054
  0
VERTEX
  8
0
 10
313.078782
 20
433.237159
 42
0.037514
  0
VERTEX
  8
0
 10
297.111481
 20
440.597116
 42
0.035972
  0
VERTEX
  8
0
 10
280.000000
 20
445.610499
 42
0.018832
  0
VERTEX
  8
0
 10
275.154994
 20
446.469313
 42
0.015324
  0
VERTEX
  8
0
 10
269.913824
 20
447.032960
 42
0.012635
  0
VERTEX
  8
0
 10
263.743380
 20
447.349260
 42
0.006487
  0
VERTEX
  8
0
 10
256.000000
 20
447.449722
 42
0.022898
  0
VERTEX
  8
0
 10
240.610042
 20
446.744554
 42
0.034749
  0
VERTEX
  8
0
 10
227.393883
 20
444.597543
 42
0.035660
  0
VERTEX
  8
0
 10
214.854838
 20
440.693925
 42
0.025912
  0
VERTEX
  8
0
 10
201.536490
 20
434.667730
 42
0.043025
  0
VERTEX
  8
0
 10
186.209621
 20
425.000429
 42
0.039114
  0
VERTEX
  8
0
 10
172.229215
 20
412.566913
 42
0.039974
  0
VERTEX
  8
0
 10
160.666043
 20
398.436262
 42
0.051115
  0
VERTEX
  8
0
 10
152.551770
 20
383.714925
 42
-0.011624
  0
VERTEX
  8
0
 10
151.399426
 20
381.167851
 42
-0.021157
  0
VERTEX
  8
0
 10
150.323955
 20
379.153582
 42
-0.019231
  0
VERTEX
  8
0
 10
149.410414
 20
377.732041
 42
-0.494191
  0
VERTEX
  8
0
 10
149.014250
 20
377.714925
 42
-0.001289
  0
VERTEX
  8
0
 10
143.637620
 20
384.184289
 42
-0.007755
  0
VERTEX
  8
0
 10
140.903671
 20
387.597636
 42
-0.009039
  0
VERTEX
  8
0
 10
139.272428
 20
389.780631
 42
-0.160589
  0
VERTEX
  8
0
 10
139.011827
 20
390.607813
 42
-0.193404
  0
VERTEX
  8
0
 10
139.236387
 20
391.145916
 42
-0.006377
  0
VERTEX
  8
0
 10
140.920654
 20
392.814111
 42
-0.011324
  0
VERTEX
  8
0
 10
143.013262
 20
394.744911
 42
-0.007541
  0
VERTEX
  8
0
 10
145.493354
 20
396.865755
 42
0.004799
  0
VERTEX
  8
0
 10
149.663686
 20
400.392594
 42
0.074502
  0
VERTEX
  8
0
 10
150.882804
 20
401.809581
 42
0.225692
  0
VERTEX
  8
0
 10
151.018456
 20
402.955785
 42
0.087480
  0
VERTEX
  8
0
 10
150.231527
 20
404.393992
 42
0.001785
  0
VERTEX
  8
0
 10
145.941347
 20
409.712922
 42
0.012270
  0
VERTEX
  8
0
 10
143.759566
 20
412.267495
 42
0.019590
  0
VERTEX
  8
0
 10
142.374151
 20
413.694636
 42
0.192586
  0
VERTEX
  8
0
 10
141.610902
 20
413.999971
 42
0.159664
  0
VERTEX
  8
0
 10
141.045210
 20
413.814625
 42
0.005451
  0
VERTEX
  8
0
 10
139.153779
 20
412.394045
 42
0.009756
  0
VERTEX
  8
0
 10
136.945314
 20
410.627808
 42
0.006599
  0
VERTEX
  8
0
 10
134.494747
 20
408.532947
 42
0.000000
  0
VERTEX
  8
0
 10
128.267690
 20
403.065895
 42
0.000000
  0
VERTEX
  8
0
 10
120.883845
 20
411.986143
 42
0.002996
  0
VERTEX
  8
0
 10
118.017225
 20
415.407300
 42
0.004781
  0
VERTEX
  8
0
 10
115.522129
 20
418.292690
 42
0.001233
  0
VERTEX
  8
0
 10
113.322416
 20
420.775493
 42
0.202259
  0
VERTEX
  8
0
 10
113.000000
 20
420.928931
 42
0.183806
  0
VERTEX
  8
0
 10
112.666693
 20
420.819029
 42
0.002419
  0
VERTEX
  8
0
 10
110.948396
 20
419.409790
 42
0.006570
  0
VERTEX
  8
0
 10
108.970268
 20
417.727070
 42
0.004221
  0
VERTEX
  8
0
 10
106.717943
 20
415.725735
 42
0.000000
  0
VERTEX
  8
0
 10
100.935886
 20
410.500000
 42
0.000000
  0
VERTEX
  8
0
 10
107.967943
 20
402.334931
 42
-0.005571
  0
VERTEX
  8
0
 10
110.662727
 20
399.134532
 42
-0.008375
  0
VERTEX
  8
0
 10
112.934333
 20
396.278718
 42
-0.004132
  0
VERTEX
  8
0
 10
114.788154
 20
393.824567
 42
-0.161039
  0
VERTEX
  8
0
 10
115.000000
 20
393.183876
 42
-0.208950
  0
VERTEX
  8
0
 10
114.486691
 20
392.009198
 42
-0.003782
  0
VERTEX
  8
0
 10
109.326022
 20
387.303786
 42
-0.006029
  0
VERTEX
  8
0
 10
104.258629
 20
382.862333
 42
-0.104078
  0
VERTEX
  8
0
 10
102.336697
 20
381.811881
 42
-0.300291
  0
VERTEX
  8
0
 10
100.555658
 20
382.344642
 42
-0.000137
  0
VERTEX
  8
0
 10
59.099493
 20
431.922509
 42
-0.000287
  0
VERTEX
  8
0
 10
18.402466
 20
480.676456
 42
-0.112747
  0
VERTEX
  8
0
 10
16.364425
 20
484.684150
 42
-0.150398
  0
VERTEX
  8
0
 10
16.589132
 20
488.947863
 42
-0.113002
  0
VERTEX
  8
0
 10
19.163678
 20
492.909703
 42
-0.111561
  0
VERTEX
  8
0
 10
23.237708
 20
495.392312
 42
-0.143724
  0
VERTEX
  8
0
 10
27.597118
 20
495.564981
 42
-0.121830
  0
VERTEX
  8
0
 10
30.354390
 20
494.100056
 42
-0.027152
  0
VERTEX
  8
0
 10
34.155892
 20
490.300630
 42
-0.008359
  0
VERTEX
  8
0
 10
41.009571
 20
482.401656
 42
-0.000405
  0
VERTEX
  8
0
 10
63.332758
 20
455.743927
 42
0.000000
  0
VERTEX
  8
0
 10
89.881572
 20
423.987854
 42
0.000000
  0
VERTEX
  8
0
 10
96.010373
 20
429.088294
 42
0.006687
  0
VERTEX
  8
0
 10
99.540201
 20
432.106655
 42
0.060254
  0
VERTEX
  8
0
 10
100.893228
 20
433.619739
 42
0.175936
  0
VERTEX
  8
0
 10
101.190676
 20
434.733653
 42
0.156156
  0
VERTEX
  8
0
 10
100.724769
 20
435.844367
 42
-0.002970
  0
VERTEX
  8
0
 10
99.653142
 20
437.113952
 42
-0.000030
  0
VERTEX
  8
0
 10
92.143488
 20
446.119908
 42
-0.000098
  0
VERTEX
  8
0
 10
83.493409
 20
456.498940
 42
-0.000064
  0
VERTEX
  8
0
 10
73.498085
 20
468.500000
 42
0.000813
  0
VERTEX
  8
0
 10
53.434213
 20
492.516715
 42
0.009897
  0
VERTEX
  8
0
 10
45.547010
 20
501.556991
 42
0.026606
  0
VERTEX
  8
0
 10
40.707155
 20
506.348873
 42
0.062830
  0
VERTEX
  8
0
 10
36.529412
 20
509.217594
 42
0.065112
  0
VERTEX
  8
0
 10
32.079811
 20
510.822617
 42
0.039544
  0
VERTEX
  8
0
 10
26.529949
 20
511.588296
 42
0.039475
  0
VERTEX
  8
0
 10
20.909782
 20
511.471056
 42
0.063360
  0
SEQEND
  0
POLYLINE
  8
0
 66
1
 70
1
  0
VERTEX
  8
0
 10
59.414153
 20
406.537639
 42
-0.001515
  0
VERTEX
  8
0
 10
74.456652
 20
388.466353
 42
-0.007461
  0
VERTEX
  8
0
 10
82.756164
 20
378.123655
 42
-0.004908
  0
VERTEX
  8
0
 10
88.126090
 20
371.081754
 42
-0.435451
  0
VERTEX
  8
0
 10
87.914153
 20
369.915072
 42
-0.062927
  0
VERTEX
  8
0
 10
81.752844
 20
366.984050
 42
-0.038235
  0
VERTEX
  8
0
 10
73.909228
 20
365.048699
 42
-0.037841
  0
VERTEX
  8
0
 10
65.716626
 20
364.310761
 42
-0.054573
  0
VERTEX
  8
0
 10
58.479266
 20
364.999314
 42
-0.055501
  0
VERTEX
  8
0
 10
48.839412
 20
368.138113
 42
-0.060726
  0
VERTEX
  8
0
 10
40.439244
 20
373.253361
 42
-0.060402
  0
VERTEX
  8
0
 10
33.478170
 20
380.263785
 42
-0.053963
  0
VERTEX
  8
0
 10
28.084732
 20
388.994215
 42
0.000000
  0
VERTEX
  8
0
 10
24.500000
 20
396.500000
 42
0.000000
  0
VERTEX
  8
0
 10
24.242206
 20
422.500000
 42
0.000000
  0
VERTEX
  8
0
 10
23.984412
 20
448.500000
 42
0.000000
  0
VERTEX
  8
0
 10
26.742206
 20
445.377170
 42
-0.005860
  0
VERTEX
  8
0
 10
28.715794
 20
443.088850
 42
-0.000150
  0
VERTEX
  8
0
 10
37.477181
 20
432.679891
 42
-0.000319
  0
VERTEX
  8
0
 10
47.751854
 20
420.449787
 42
-0.000218
  0
SEQEND
  0
POLYLINE
  8
0
 66
1
 70
1
  0
VERTEX
  8
0
 10
487.825578
 20
418.000000
 42
0.000000
  0
VERTEX
  8
0
 10
487.500000
 20
396.500000
 42
0.000000
  0
VERTEX
  8
0
 10
483.915268
 20
388.994215
 42
-0.078335
  0
VERTEX
  8
0
 10
475.845913
 20
377.247627
 42
-0.083162
  0
VERTEX
  8
0
 10
464.700789
 20
368.834933
 42
-0.084534
  0
VERTEX
  8
0
 10
451.586910
 20
364.605606
 42
-0.084592
  0
VERTEX
  8
0
 10
437.815596
 20
364.956497
 42
-0.025683
  0
VERTEX
  8
0
 10
433.773080
 20
365.969841
 42
-0.017149
  0
VERTEX
  8
0
 10
429.259653
 20
367.522160
 42
-0.015580
  0
VERTEX
  8
0
 10
425.209198
 20
369.218992
 42
-0.075494
  0
VERTEX
  8
0
 10
423.127914
 20
370.578339
 42
-0.401606
  0
VERTEX
  8
0
 10
423.105147
 20
370.870597
 42
-0.000096
  0
VERTEX
  8
0
 10
432.374429
 20
382.188175
 42
-0.001544
  0
VERTEX
  8
0
 10
442.741598
 20
394.761903
 42
-0.000926
  0
VERTEX
  8
0
 10
455.127914
 20
409.634272
 42
0.000000
  0
VERTEX
  8
0
 10
487.500000
 20
448.357706
 42
0.000000
  0
VERTEX
  8
0
 10
487.825578
 20
443.928853
 42
-0.016663
  0
VERTEX
  8
0
 10
487.937487
 20
441.136620
 42
-0.001683
  0
VERTEX
  8
0
 10
487.959879
 20
434.485351
 42
-0.002108
  0
VERTEX
  8
0
 10
487.926450
 20
426.557069
 42
-0.001677
  0
SEQEND
  0
POLYLINE
  8
0
 66
1
 70
1
  0
VERTEX
  8
0
 10
270.636398
 20
430.917746
 42
-0.031701
  0
VERTEX
  8
0
 10
281.703354
 20
428.656134
 42
-0.026830
  0
VERTEX
  8
0
 10
293.046413
 20
424.914651
 42
-0.026617
  0
VERTEX
  8
0
 10
304.024430
 20
419.939858
 42
-0.029712
  0
VERTEX
  8
0
 10
314.000000
 20
413.985871
 42
-0.008435
  0
VERTEX
  8
0
 10
316.233966
 20
412.409896
 42
-0.008606
  0
VERTEX
  8
0
 10
318.398399
 20
410.769727
 42
-0.008420
  0
VERTEX
  8
0
 10
320.228881
 20
409.281861
 42
-0.035047
  0
VERTEX
  8
0
 10
321.249868
 20
408.292994
 42
-0.179520
  0
VERTEX
  8
0
 10
321.582252
 20
407.451191
 42
-0.446749
  0
VERTEX
  8
0
 10
321.154899
 20
407.052030
 42
-0.039501
  0
VERTEX
  8
0
 10
319.031391
 20
407.412069
 42
-0.002251
  0
VERTEX
  8
0
 10
312.595171
 20
409.065216
 42
0.015588
  0
VERTEX
  8
0
 10
299.100646
 20
412.150135
 42
0.020398
  0
VERTEX
  8
0
 10
286.596444
 20
414.075510
 42
0.018369
  0
VERTEX
  8
0
 10
272.995768
 20
415.100945
 42
0.009586
  0
VERTEX
  8
0
 10
256.000000
 20
415.429809
 42
0.009093
  0
VERTEX
  8
0
 10
239.242401
 20
415.127971
 42
0.018765
  0
VERTEX
  8
0
 10
226.174612
 20
414.162841
 42
0.020469
  0
VERTEX
  8
0
 10
213.960613
 20
412.289638
 42
0.013270
  0
VERTEX
  8
0
 10
200.010839
 20
409.175315
 42
-0.002302
  0
VERTEX
  8
0
 10
193.344956
 20
407.532848
 42
-0.036559
  0
VERTEX
  8
0
 10
191.046083
 20
407.152656
 42
-0.397281
  0
VERTEX
  8
0
 10
190.550696
 20
407.541518
 42
-0.223669
  0
VERTEX
  8
0
 10
190.788603
 20
408.335504
 42
-0.051962
  0
VERTEX
  8
0
 10
193.594483
 20
410.875735
 42
-0.012992
  0
VERTEX
  8
0
 10
198.681643
 20
414.400568
 42
-0.013411
  0
VERTEX
  8
0
 10
204.613819
 20
418.063248
 42
-0.015029
  0
VERTEX
  8
0
 10
210.516026
 20
421.259026
 42
-0.039391
  0
VERTEX
  8
0
 10
224.574720
 20
426.996253
 42
-0.037374
  0
VERTEX
  8
0
 10
239.607681
 20
430.579727
 42
-0.037074
  0
VERTEX
  8
0
 10
255.127659
 20
431.904930
 42
-0.037334
  0
SEQEND
  0
POLYLINE
  8
0
 66
1
 70
1
  0
VERTEX
  8
0
 10
289.118660
 20
397.600816
 42
-0.005311
  0
VERTEX
  8
0
 10
293.286428
 20
396.900015
 42
-0.003983
  0
VERTEX
  8
0
 10
297.859795
 20
396.043313
 42
-0.004027
  0
VERTEX
  8
0
 10
302.151639
 20
395.167956
 42
-0.009212
  0
VERTEX
  8
0
 10
305.368660
 20
394.422592
 42
0.000000
  0
VERTEX
  8
0
 10
312.000000
 20
392.756853
 42
0.000000
  0
VERTEX
  8
0
 10
312.000000
 20
384.378427
 42
0.000000
  0
VERTEX
  8
0
 10
312.000000
 20
376.000000
 42
0.000000
  0
VERTEX
  8
0
 10
320.000000
 20
376.000000
 42
0.000000
  0
VERTEX
  8
0
 10
328.000000
 20
376.000000
 42
0.000000
  0
VERTEX
  8
0
 10
328.000000
 20
381.500000
 42
-0.011008
  0
VERTEX
  8
0
 10
328.046432
 20
383.608709
 42
-0.018182
  0
VERTEX
  8
0
 10
328.189489
 20
385.384375
 42
-0.012521
  0
VERTEX
  8
0
 10
328.389236
 20
386.783647
 42
-0.366152
  0
VERTEX
  8
0
 10
328.645068
 20
387.000000
 42
-0.102198
  0
VERTEX
  8
0
 10
329.099128
 20
386.906212
 42
-0.002123
  0
VERTEX
  8
0
 10
331.227132
 20
385.977202
 42
-0.004866
  0
VERTEX
  8
0
 10
333.708387
 20
384.852429
 42
-0.003246
  0
VERTEX
  8
0
 10
336.529233
 20
383.518135
 42
-0.028315
  0
VERTEX
  8
0
 10
341.432472
 20
380.807996
 42
-0.094855
  0
VERTEX
  8
0
 10
344.105627
 20
378.314236
 42
-0.071665
  0
VERTEX
  8
0
 10
346.052569
 20
374.645337
 42
-0.011747
  0
VERTEX
  8
0
 10
348.597158
 20
367.000000
 42
-0.019737
  0
VERTEX
  8
0
 10
350.054802
 20
361.483646
 42
-0.229894
  0
VERTEX
  8
0
 10
349.553915
 20
359.373595
 42
-0.181112
  0
VERTEX
  8
0
 10
347.503902
 20
358.179459
 42
-0.011709
  0
VERTEX
  8
0
 10
340.558421
 20
357.160301
 42
-0.003323
  0
VERTEX
  8
0
 10
331.296920
 20
356.084566
 42
-0.119773
  0
VERTEX
  8
0
 10
329.177840
 20
356.360368
 42
-0.284435
  0
VERTEX
  8
0
 10
328.206054
 20
357.642072
 42
-0.023628
  0
VERTEX
  8
0
 10
328.000000
 20
362.000000
 42
0.000000
  0
VERTEX
  8
0
 10
328.000000
 20
368.000000
 42
0.000000
  0
VERTEX
  8
0
 10
320.000000
 20
368.000000
 42
0.000000
  0
VERTEX
  8
0
 10
312.000000
 20
368.000000
 42
0.000000
  0
VERTEX
  8
0
 10
312.000000
 20
361.130052
 42
0.000000
  0
VERTEX
  8
0
 10
312.000000
 20
354.260105
 42
0.000000
  0
VERTEX
  8
0
 10
307.250000
 20
353.620962
 42
-0.028795
  0
VERTEX
  8
0
 10
295.336879
 20
352.711681
 42
-0.002625
  0
VERTEX
  8
0
 10
265.574469
 20
352.314250
 42
-0.003506
  0
VERTEX
  8
0
 10
235.853233
 20
352.281885
 42
-0.013704
  0
VERTEX
  8
0
 10
217.500000
 20
352.893818
 42
-0.006896
  0
VERTEX
  8
0
 10
201.872898
 20
354.060636
 42
-0.004276
  0
VERTEX
  8
0
 10
183.556762
 20
355.840521
 42
-0.001190
  0
VERTEX
  8
0
 10
165.202151
 20
357.826884
 42
-0.111305
  0
VERTEX
  8
0
 10
162.686190
 20
358.693945
 42
-0.283160
  0
VERTEX
  8
0
 10
162.031304
 20
359.998164
 42
-0.027321
  0
VERTEX
  8
0
 10
162.552143
 20
363.663567
 42
-0.028223
  0
VERTEX
  8
0
 10
163.749462
 20
368.309811
 42
-0.018039
  0
VERTEX
  8
0
 10
165.634259
 20
373.559218
 42
0.000000
  0
VERTEX
  8
0
 10
168.234765
 20
380.055166
 42
0.000000
  0
VERTEX
  8
0
 10
176.367383
 20
383.898294
 42
-0.022481
  0
VERTEX
  8
0
 10
187.897866
 20
388.725788
 42
-0.019288
  0
VERTEX
  8
0
 10
200.415371
 20
392.776552
 42
-0.019084
  0
VERTEX
  8
0
 10
213.359801
 20
395.892683
 42
-0.020637
  0
VERTEX
  8
0
 10
226.171754
 20
397.918289
 42
0.000682
  0
VERTEX
  8
0
 10
229.963074
 20
398.363531
 42
0.000747
  0
VERTEX
  8
0
 10
233.641078
 20
398.806125
 42
0.000697
  0
VERTEX
  8
0
 10
236.786682
 20
399.193868
 42
0.003732
  0
VERTEX
  8
0
 10
238.500000
 20
399.420487
 42
-0.039607
  0
VERTEX
  8
0
 10
245.737442
 20
399.853791
 42
-0.004140
  0
VERTEX
  8
0
 10
262.742663
 20
399.383418
 42
-0.005000
  0
VERTEX
  8
0
 10
279.674971
 20
398.605132
 42
-0.025014
  0
SEQEND
  0
POLYLINE
  8
0
 66
1
 70
1
  0
VERTEX
  8
0
 10
135.628181
 20
368.750000
 42
0.000000
  0
VERTEX
  8
0
 10
144.644738
 20
357.500000
 42
0.000000
  0
VERTEX
  8
0
 10
144.072369
 20
344.500000
 42
0.000000
  0
VERTEX
  8
0
 10
143.500000
 20
331.500000
 42
0.000000
  0
VERTEX
  8
0
 10
128.264474
 20
349.500000
 42
-0.001878
  0
VERTEX
  8
0
 10
122.416871
 20
356.461506
 42
-0.002993
  0
VERTEX
  8
0
 10
117.475173
 20
362.462300
 42
-0.000650
  0
VERTEX
  8
0
 10
113.179178
 20
367.757158
 42
-0.141921
  0
VERTEX
  8
0
 10
112.929508
 20
368.350384
 42
-0.242732
  0
VERTEX
  8
0
 10
113.294470
 20
369.320438
 42
-0.002355
  0
VERTEX
  8
0
 10
119.052382
 20
374.473146
 42
-0.002944
  0
VERTEX
  8
0
 10
124.784097
 20
379.494051
 42
-0.173866
  0
VERTEX
  8
0
 10
126.055812
 20
379.986147
 42
-0.225143
  0
VERTEX
  8
0
 10
126.413718
 20
379.827182
 42
-0.001075
  0
VERTEX
  8
0
 10
129.096968
 20
376.691243
 42
-0.004622
  0
VERTEX
  8
0
 10
132.131497
 20
373.061849
 42
-0.002872
  0
SEQEND
  0
POLYLINE
  8
0
 66
1
 70
1
  0
VERTEX
  8
0
 10
381.000000
 20
366.959663
 42
-0.059905
  0
VERTEX
  8
0
 10
380.849243
 20
365.705871
 42
-0.000194
  0
VERTEX
  8
0
 10
377.110236
 20
350.408482
 42
-0.001260
  0
VERTEX
  8
0
 10
373.590098
 20
336.186070
 42
-0.003091
  0
VERTEX
  8
0
 10
370.910516
 20
325.750000
 42
-0.068481
  0
VERTEX
  8
0
 10
369.678204
 20
322.788040
 42
-0.666401
  0
VERTEX
  8
0
 10
368.722123
 20
322.918731
 42
-0.058312
  0
VERTEX
  8
0
 10
368.122027
 20
327.092082
 42
-0.006452
  0
VERTEX
  8
0
 10
367.992446
 20
336.750000
 42
0.009165
  0
VERTEX
  8
0
 10
367.817052
 20
346.058105
 42
0.012666
  0
VERTEX
  8
0
 10
367.295259
 20
354.395772
 42
0.014115
  0
VERTEX
  8
0
 10
366.483390
 20
361.359587
 42
0.037396
  0
VERTEX
  8
0
 10
365.394702
 20
366.250000
 42
-0.214645
  0
VERTEX
  8
0
 10
365.512962
 20
367.161146
 42
-0.200299
  0
VERTEX
  8
0
 10
366.279152
 20
367.712177
 42
-0.052060
  0
VERTEX
  8
0
 10
368.206528
 20
367.952584
 42
-0.005016
  0
VERTEX
  8
0
 10
372.932612
 20
368.000000
 42
-0.010076
  0
VERTEX
  8
0
 10
376.265387
 20
367.932832
 42
-0.021990
  0
VERTEX
  8
0
 10
378.811352
 20
367.717761
 42
-0.020848
  0
VERTEX
  8
0
 10
380.641167
 20
367.403778
 42
-0.353503
  0
SEQEND
  0
POLYLINE
  8
0
 66
1
 70
1
  0
VERTEX
  8
0
 10
399.952822
 20
334.817388
 42
-0.012562
  0
VERTEX
  8
0
 10
399.847113
 20
329.248988
 42
-0.169035
  0
VERTEX
  8
0
 10
399.103384
 20
327.381556
 42
-0.168337
  0
VERTEX
  8
0
 10
397.359905
 20
326.375564
 42
-0.012434
  0
VERTEX
  8
0
 10
391.843850
 20
325.457490
 42
0.000000
  0
VERTEX
  8
0
 10
387.187701
 20
324.801060
 42
0.000000
  0
VERTEX
  8
0
 10
390.754201
 20
339.044200
 42
0.000000
  0
VERTEX
  8
0
 10
394.320702
 20
353.287340
 42
0.000000
  0
VERTEX
  8
0
 10
397.113173
 20
347.893670
 42
-0.022995
  0
VERTEX
  8
0
 10
398.562942
 20
344.747062
 42
-0.043008
  0
VERTEX
  8
0
 10
399.390363
 20
342.070373
 42
-0.037878
  0
VERTEX
  8
0
 10
399.806898
 20
339.073816
 42
-0.014066
  0
SEQEND
  0
POLYLINE
  8
0
 66
1
 70
1
  0
VERTEX
  8
0
 10
194.826123
 20
338.347264
 42
0.010007
  0
VERTEX
  8
0
 10
205.813792
 20
337.455246
 42
0.007929
  0
VERTEX
  8
0
 10
217.716717
 20
336.917644
 42
0.005540
  0
VERTEX
  8
0
 10
233.126472
 20
336.637189
 42
0.001780
  0
VERTEX
  8
0
 10
256.000000
 20
336.555774
 42
0.003834
  0
VERTEX
  8
0
 10
285.254944
 20
336.780123
 42
0.010024
  0
VERTEX
  8
0
 10
306.263138
 20
337.523793
 42
0.012545
  0
VERTEX
  8
0
 10
324.274545
 20
338.977216
 42
0.010295
  0
VERTEX
  8
0
 10
343.423877
 20
341.406756
 42
0.000000
  0
VERTEX
  8
0
 10
352.000000
 20
342.674758
 42
0.000000
  0
VERTEX
  8
0
 10
352.000000
 20
317.368764
 42
-0.001959
  0
VERTEX
  8
0
 10
351.948933
 20
304.332468
 42
-0.010791
  0
VERTEX
  8
0
 10
351.742287
 20
297.309590
 42
-0.011731
  0
VERTEX
  8
0
 10
351.418737
 20
292.972304
 42
-0.495225
  0
VERTEX
  8
0
 10
350.733145
 20
292.548908
 42
0.237945
  0
VERTEX
  8
0
 10
349.970764
 20
292.471802
 42
0.018673
  0
VERTEX
  8
0
 10
348.241238
 20
291.274962
 42
0.022230
  0
VERTEX
  8
0
 10
346.204299
 20
289.603592
 42
0.015016
  0
VERTEX
  8
0
 10
344.029044
 20
287.529409
 42
0.000000
  0
VERTEX
  8
0
 10
338.591798
 20
282.023773
 42
0.000000
  0
VERTEX
  8
0
 10
349.295899
 20
271.161329
 42
-0.011458
  0
VERTEX
  8
0
 10
356.842474
 20
263.143688
 42
-0.084344
  0
VERTEX
  8
0
 10
359.643330
 20
258.715084
 42
-0.181093
  0
VERTEX
  8
0
 10
359.775914
 20
255.166240
 42
-0.097536
  0
VERTEX
  8
0
 10
357.588980
 20
251.305764
 42
-0.070632
  0
VERTEX
  8
0
 10
355.689601
 20
249.640240
 42
-0.097116
  0
VERTEX
  8
0
 10
353.590421
 20
248.789026
 42
-0.036122
  0
VERTEX
  8
0
 10
350.057762
 20
248.365212
 42
-0.002675
  0
VERTEX
  8
0
 10
340.332234
 20
247.958089
 42
0.004425
  0
VERTEX
  8
0
 10
331.246975
 20
247.545908
 42
0.028630
  0
VERTEX
  8
0
 10
326.690368
 20
247.036042
 42
0.045418
  0
VERTEX
  8
0
 10
323.151240
 20
246.096641
 42
0.021869
  0
VERTEX
  8
0
 10
318.813645
 20
244.293568
 42
0.051817
  0
VERTEX
  8
0
 10
310.458314
 20
239.271176
 42
0.066623
  0
VERTEX
  8
0
 10
304.078597
 20
232.987428
 42
0.058280
  0
VERTEX
  8
0
 10
298.995303
 20
224.574092
 42
0.029448
  0
VERTEX
  8
0
 10
294.530212
 20
213.000000
 42
-0.039805
  0
VERTEX
  8
0
 10
291.088874
 20
204.601276
 42
-0.196717
  0
VERTEX
  8
0
 10
287.303149
 20
201.321733
 42
-0.078214
  0
VERTEX
  8
0
 10
280.516084
 20
200.161618
 42
-0.003296
  0
VERTEX
  8
0
 10
256.000000
 20
200.000000
 42
-0.003296
  0
VERTEX
  8
0
 10
231.483916
 20
200.161618
 42
-0.078214
  0
VERTEX
  8
0
 10
224.696851
 20
201.321733
 42
-0.196717
  0
VERTEX
  8
0
 10
220.911126
 20
204.601276
 42
-0.039805
  0
VERTEX
  8
0
 10
217.469788
 20
213.000000
 42
0.029448
  0
VERTEX
  8
0
 10
213.004697
 20
224.574092
 42
0.058280
  0
VERTEX
  8
0
 10
207.921403
 20
232.987428
 42
0.066623
  0
VERTEX
  8
0
 10
201.541686
 20
239.271176
 42
0.051817
  0
VERTEX
  8
0
 10
193.186355
 20
244.293568
 42
0.021869
  0
VERTEX
  8
0
 10
188.848760
 20
246.096641
 42
0.045418
  0
VERTEX
  8
0
 10
185.309632
 20
247.036042
 42
0.028630
  0
VERTEX
  8
0
 10
180.753025
 20
247.545908
 42
0.004425
  0
VERTEX
  8
0
 10
171.667766
 20
247.958089
 42
-0.002675
  0
VERTEX
  8
0
 10
161.942238
 20
248.365212
 42
-0.036122
  0
VERTEX
  8
0
 10
158.409579
 20
248.789026
 42
-0.097116
  0
VERTEX
  8
0
 10
156.310399
 20
249.640240
 42
-0.070632
  0
VERTEX
  8
0
 10
154.411020
 20
251.305764
 42
-0.097536
  0
VERTEX
  8
0
 10
152.224086
 20
255.166240
 42
-0.181093
  0
VERTEX
  8
0
 10
152.356670
 20
258.715084
 42
-0.084344
  0
VERTEX
  8
0
 10
155.157526
 20
263.143688
 42
-0.011458
  0
VERTEX
  8
0
 10
162.704101
 20
271.161329
 42
0.000000
  0
VERTEX
  8
0
 10
173.408202
 20
282.023773
 42
0.000000
  0
VERTEX
  8
0
 10
167.970956
 20
287.529409
 42
0.015016
  0
VERTEX
  8
0
 10
165.795701
 20
289.603592
 42
0.022230
  0
VERTEX
  8
0
 10
163.758762
 20
291.274962
 42
0.018673
  0
VERTEX
  8
0
 10
162.029236
 20
292.471802
 42
0.237945
  0
VERTEX
  8
0
 10
161.266855
 20
292.548908
 42
-0.495225
  0
VERTEX
  8
0
 10
160.581263
 20
292.972304
 42
-0.011731
  0
VERTEX
  8
0
 10
160.257713
 20
297.309590
 42
-0.010791
  0
VERTEX
  8
0
 10
160.051067
 20
304.332468
 42
-0.001959
  0
VERTEX
  8
0
 10
160.000000
 20
317.368764
 42
0.000000
  0
VERTEX
  8
0
 10
160.000000
 20
342.674758
 42
0.000000
  0
VERTEX
  8
0
 10
168.576123
 20
341.406756
 42
0.005897
  0
VERTEX
  8
0
 10
173.043101
 20
340.800048
 42
0.001793
  0
VERTEX
  8
0
 10
179.824711
 20
339.984979
 42
0.001795
  0
VERTEX
  8
0
 10
187.430597
 20
339.126163
 42
0.001957
  0
SEQEND
  0
POLYLINE
  8
0
 66
1
 70
1
  0
VERTEX
  8
0
 10
451.501828
 20
281.336594
 42
0.000000
  0
VERTEX
  8
0
 10
496.000000
 20
251.673188
 42
0.000000
  0
VERTEX
  8
0
 10
496.000000
 20
237.335746
 42
0.000000
  0
VERTEX
  8
0
 10
496.000000
 20
222.998305
 42
0.000000
  0
VERTEX
  8
0
 10
434.091650
 20
264.249153
 42
-0.000931
  0
VERTEX
  8
0
 10
410.412741
 20
280.090666
 42
-0.001570
  0
VERTEX
  8
0
 10
390.620854
 20
293.475530
 42
-0.000123
  0
VERTEX
  8
0
 10
372.999649
 20
305.479579
 42
-0.609629
  0
VERTEX
  8
0
 10
373.041094
 20
305.816481
 42
-0.046280
  0
VERTEX
  8
0
 10
375.686233
 20
306.522863
 42
-0.001155
  0
VERTEX
  8
0
 10
388.004421
 20
308.588615
 42
-0.001570
  0
VERTEX
  8
0
 10
400.039809
 20
310.539563
 42
-0.031233
  0
VERTEX
  8
0
 10
403.751828
 20
310.893714
 42
-0.139149
  0
VERTEX
  8
0
 10
406.781870
 20
310.139841
 42
-0.008475
  0
VERTEX
  8
0
 10
414.881512
 20
305.314129
 42
-0.007198
  0
VERTEX
  8
0
 10
427.583226
 20
297.196595
 42
-0.001227
  0
SEQEND
  0
POLYLINE
  8
0
 66
1
 70
1
  0
VERTEX
  8
0
 10
193.496243
 20
224.568975
 42
-0.022514
  0
VERTEX
  8
0
 10
196.266522
 20
221.497616
 42
-0.044606
  0
VERTEX
  8
0
 10
198.116690
 20
218.791668
 42
-0.037994
  0
VERTEX
  8
0
 10
199.631539
 20
215.528531
 42
-0.012331
  0
VERTEX
  8
0
 10
201.376509
 20
210.500000
 42
0.006138
  0
VERTEX
  8
0
 10
202.615259
 20
206.782222
 42
0.005935
  0
VERTEX
  8
0
 10
203.958381
 20
203.053890
 42
0.005878
  0
VERTEX
  8
0
 10
205.218006
 20
199.800510
 42
0.021616
  0
VERTEX
  8
0
 10
206.126509
 20
197.789838
 42
-0.043097
  0
VERTEX
  8
0
 10
206.996638
 20
195.620569
 42
-0.033766
  0
VERTEX
  8
0
 10
207.569590
 20
193.149322
 42
-0.027153
  0
VERTEX
  8
0
 10
207.889964
 20
190.138923
 42
-0.013379
  0
VERTEX
  8
0
 10
207.986110
 20
186.289838
 42
0.000000
  0
VERTEX
  8
0
 10
207.972219
 20
178.500000
 42
0.000000
  0
VERTEX
  8
0
 10
202.866815
 20
188.000000
 42
0.006438
  0
VERTEX
  8
0
 10
200.484104
 20
192.299980
 42
0.003749
  0
VERTEX
  8
0
 10
197.520865
 20
197.399700
 42
0.003747
  0
VERTEX
  8
0
 10
194.475489
 20
202.464419
 42
0.006325
  0
VERTEX
  8
0
 10
191.837127
 20
206.658552
 42
-0.011946
  0
VERTEX
  8
0
 10
187.770790
 20
213.286867
 42
-0.038210
  0
VERTEX
  8
0
 10
185.516412
 20
217.953805
 42
-0.052037
  0
VERTEX
  8
0
 10
184.380791
 20
222.062926
 42
-0.041438
  0
VERTEX
  8
0
 10
184.000000
 20
226.649778
 42
-0.011476
  0
VERTEX
  8
0
 10
184.057147
 20
229.139188
 42
-0.129468
  0
VERTEX
  8
0
 10
184.349618
 20
230.073383
 42
-0.265833
  0
VERTEX
  8
0
 10
184.976064
 20
230.407713
 42
-0.056652
  0
VERTEX
  8
0
 10
186.246243
 20
230.225355
 42
-0.085313
  0
VERTEX
  8
0
 10
187.418252
 20
229.693522
 42
-0.016586
  0
VERTEX
  8
0
 10
189.302505
 20
228.321489
 42
-0.017187
  0
VERTEX
  8
0
 10
191.415788
 20
226.552610
 42
-0.015148
  0
SEQEND
  0
POLYLINE
  8
0
 66
1
 70
1
  0
VERTEX
  8
0
 10
327.538770
 20
221.409971
 42
-0.057332
  0
VERTEX
  8
0
 10
326.890299
 20
219.005147
 42
-0.020413
  0
VERTEX
  8
0
 10
325.441160
 20
215.749201
 42
-0.017418
  0
VERTEX
  8
0
 10
323.336980
 20
211.845773
 42
-0.010418
  0
VERTEX
  8
0
 10
320.580857
 20
207.351168
 42
0.005695
  0
VERTEX
  8
0
 10
317.786749
 20
202.889733
 42
0.003555
  0
VERTEX
  8
0
 10
314.610492
 20
197.603156
 42
0.003567
  0
VERTEX
  8
0
 10
311.553787
 20
192.347404
 42
0.006472
  0
VERTEX
  8
0
 10
309.140849
 20
188.000000
 42
0.000000
  0
VERTEX
  8
0
 10
304.027781
 20
178.500000
 42
0.000000
  0
VERTEX
  8
0
 10
304.013890
 20
186.289838
 42
-0.013379
  0
VERTEX
  8
0
 10
304.110036
 20
190.138923
 42
-0.027153
  0
VERTEX
  8
0
 10
304.430410
 20
193.149322
 42
-0.033766
  0
VERTEX
  8
0
 10
305.003362
 20
195.620569
 42
-0.043097
  0
VERTEX
  8
0
 10
305.873491
 20
197.789838
 42
0.021008
  0
VERTEX
  8
0
 10
306.782330
 20
199.794746
 42
0.005783
  0
VERTEX
  8
0
 10
308.041619
 20
203.022076
 42
0.005832
  0
VERTEX
  8
0
 10
309.384743
 20
206.715380
 42
0.006063
  0
VERTEX
  8
0
 10
310.623491
 20
210.391698
 42
-0.030953
  0
VERTEX
  8
0
 10
313.238935
 20
217.040748
 42
-0.046528
  0
VERTEX
  8
0
 10
316.385457
 20
222.415418
 42
-0.053730
  0
VERTEX
  8
0
 10
320.047107
 20
226.507121
 42
-0.070148
  0
VERTEX
  8
0
 10
324.206497
 20
229.312493
 42
-0.009026
  0
VERTEX
  8
0
 10
326.395281
 20
230.330297
 42
-0.176213
  0
VERTEX
  8
0
 10
327.126848
 20
230.380391
 42
-0.275474
  0
VERTEX
  8
0
 10
327.548770
 20
229.929939
 42
-0.022348
  0
VERTEX
  8
0
 10
327.834872
 20
228.267269
 42
-0.030211
  0
VERTEX
  8
0
 10
327.920434
 20
226.959114
 42
-0.012017
  0
VERTEX
  8
0
 10
327.886027
 20
225.159952
 42
-0.011841
  0
VERTEX
  8
0
 10
327.755849
 20
223.215088
 42
-0.014585
  0
SEQEND
  0
POLYLINE
  8
0
 66
1
 70
1
  0
VERTEX
  8
0
 10
355.474485
 20
220.653610
 42
-0.031811
  0
VERTEX
  8
0
 10
357.601821
 20
214.875818
 42
-0.028497
  0
VERTEX
  8
0
 10
359.071828
 20
208.659513
 42
-0.028833
  0
VERTEX
  8
0
 10
359.811219
 20
202.400240
 42
-0.035022
  0
VERTEX
  8
0
 10
359.751677
 20
196.495194
 42
-0.033787
  0
VERTEX
  8
0
 10
358.952229
 20
191.119980
 42
-0.019830
  0
VERTEX
  8
0
 10
357.312272
 20
184.824863
 42
-0.019090
  0
VERTEX
  8
0
 10
355.305160
 20
179.015877
 42
-0.065222
  0
VERTEX
  8
0
 10
353.388332
 20
175.516399
 42
-0.015532
  0
VERTEX
  8
0
 10
352.468974
 20
174.337752
 42
-0.222911
  0
VERTEX
  8
0
 10
352.000000
 20
174.117741
 42
-0.222911
  0
VERTEX
  8
0
 10
351.531026
 20
174.337752
 42
-0.015532
  0
VERTEX
  8
0
 10
350.611668
 20
175.516399
 42
-0.065222
  0
VERTEX
  8
0
 10
348.694840
 20
179.015877
 42
-0.019090
  0
VERTEX
  8
0
 10
346.687728
 20
184.824863
 42
-0.019830
  0
VERTEX
  8
0
 10
345.047771
 20
191.119980
 42
-0.033787
  0
VERTEX
  8
0
 10
344.248323
 20
196.495194
 42
-0.021033
  0
VERTEX
  8
0
 10
344.137195
 20
199.415167
 42
-0.012780
  0
VERTEX
  8
0
 10
344.239392
 20
202.869352
 42
-0.012798
  0
VERTEX
  8
0
 10
344.516667
 20
206.296503
 42
-0.021987
  0
VERTEX
  8
0
 10
344.945605
 20
209.129043
 42
-0.027462
  0
VERTEX
  8
0
 10
346.343300
 20
214.621923
 42
-0.022996
  0
VERTEX
  8
0
 10
348.406036
 20
220.271734
 42
-0.015462
  0
VERTEX
  8
0
 10
350.622246
 20
225.143009
 42
-0.285636
  0
VERTEX
  8
0
 10
352.000000
 20
226.000000
 42
-0.231769
  0
VERTEX
  8
0
 10
352.555379
 20
225.727947
 42
-0.020882
  0
VERTEX
  8
0
 10
353.478529
 20
224.429498
 42
-0.023750
  0
VERTEX
  8
0
 10
354.487951
 20
222.701924
 42
-0.016230
  0
SEQEND
  0
POLYLINE
  8
0
 66
1
 70
1
  0
VERTEX
  8
0
 10
232.000000
 20
180.000000
 42
0.000000
  0
VERTEX
  8
0
 10
232.000000
 20
176.000000
 42
0.000000
  0
VERTEX
  8
0
 10
240.000000
 20
176.000000
 42
0.000000
  0
VERTEX
  8
0
 10
248.000000
 20
176.000000
 42
0.000000
  0
VERTEX
  8
0
 10
248.000000
 20
180.000000
 42
0.000000
  0
VERTEX
  8
0
 10
248.000000
 20
184.000000
 42
0.000000
  0
VERTEX
  8
0
 10
256.000000
 20
184.000000
 42
0.000000
  0
VERTEX
  8
0
 10
264.000000
 20
184.000000
 42
0.000000
  0
VERTEX
  8
0
 10
264.000000
 20
180.000000
 42
0.000000
  0
VERTEX
  8
0
 10
264.000000
 20
176.000000
 42
0.000000
  0
VERTEX
  8
0
 10
272.000000
 20
176.000000
 42
0.000000
  0
VERTEX
  8
0
 10
280.000000
 20
176.000000
 42
0.000000
  0
VERTEX
  8
0
 10
280.000000
 20
180.000000
 42
0.000000
  0
VERTEX
  8
0
 10
280.000000
 20
184.000000
 42
0.000000
  0
VERTEX
  8
0
 10
284.000000
 20
184.000000
 42
0.000000
  0
VERTEX
  8
0
 10
288.000000
 20
184.000000
 42
0.000000
  0
VERTEX
  8
0
 10
288.000000
 20
180.000000
 42
0.000000
  0
VERTEX
  8
0
 10
288.000000
 20
176.000000
 42
0.000000
  0
VERTEX
  8
0
 10
296.125000
 20
176.000000
 42
0.000000
  0
VERTEX
  8
0
 10
304.250000
 20
176.000000
 42
0.000000
  0
VERTEX
  8
0
 10
303.613453
 20
172.750000
 42
-0.053941
  0
VERTEX
  8
0
 10
302.746045
 20
169.957677
 42
-0.048270
  0
VERTEX
  8
0
 10
301.276412
 20
167.301929
 42
-0.045220
  0
VERTEX
  8
0
 10
299.221911
 20
164.824153
 42
-0.036720
  0
VERTEX
  8
0
 10
296.614881
 20
162.561789
 42
-0.115355
  0
VERTEX
  8
0
 10
293.810396
 20
161.337425
 42
-0.032816
  0
VERTEX
  8
0
 10
289.056139
 20
160.781855
 42
-0.011809
  0
VERTEX
  8
0
 10
280.216445
 20
160.542210
 42
-0.000872
  0
VERTEX
  8
0
 10
256.000000
 20
160.500000
 42
-0.000872
  0
VERTEX
  8
0
 10
231.783555
 20
160.542210
 42
-0.011809
  0
VERTEX
  8
0
 10
222.943861
 20
160.781855
 42
-0.032816
  0
VERTEX
  8
0
 10
218.189604
 20
161.337425
 42
-0.115355
  0
VERTEX
  8
0
 10
215.385119
 20
162.561789
 42
-0.036720
  0
VERTEX
  8
0
 10
212.778089
 20
164.824153
 42
-0.045220
  0
VERTEX
  8
0
 10
210.723588
 20
167.301929
 42
-0.048270
  0
VERTEX
  8
0
 10
209.253955
 20
169.957677
 42
-0.053941
  0
VERTEX
  8
0
 10
208.386547
 20
172.750000
 42
0.000000
  0
VERTEX
  8
0
 10
207.750000
 20
176.000000
 42
0.000000
  0
VERTEX
  8
0
 10
215.875000
 20
176.000000
 42
0.000000
  0
VERTEX
  8
0
 10
224.000000
 20
176.000000
 42
0.000000
  0
VERTEX
  8
0
 10
224.000000
 20
180.000000
 42
0.000000
  0
VERTEX
  8
0
 10
224.000000
 20
184.000000
 42
0.000000
  0
VERTEX
  8
0
 10
228.000000
 20
184.000000
 42
0.000000
  0
VERTEX
  8
0
 10
232.000000
 20
184.000000
 42
0.000000
  0
SEQEND
  0
POLYLINE
  8
0
 66
1
 70
1
  0
VERTEX
  8
0
 10
197.372079
 20
158.628068
 42
0.039471
  0
VERTEX
  8
0
 10
199.750123
 20
155.218296
 42
0.042722
  0
VERTEX
  8
0
 10
202.577792
 20
152.321290
 42
0.037093
  0
VERTEX
  8
0
 10
206.194931
 20
149.639592
 42
0.020019
  0
VERTEX
  8
0
 10
211.000000
 20
146.864221
 42
0.000000
  0
VERTEX
  8
0
 10
215.500000
 20
144.500000
 42
0.000000
  0
VERTEX
  8
0
 10
256.000000
 20
144.500000
 42
0.000000
  0
VERTEX
  8
0
 10
296.500000
 20
144.500000
 42
0.000000
  0
VERTEX
  8
0
 10
302.795544
 20
147.913600
 42
0.038982
  0
VERTEX
  8
0
 10
307.711084
 20
151.097546
 42
0.049631
  0
VERTEX
  8
0
 10
311.655134
 20
154.785707
 42
0.048289
  0
VERTEX
  8
0
 10
314.874027
 20
159.263880
 42
0.034142
  0
VERTEX
  8
0
 10
317.616995
 20
164.821591
 42
0.000000
  0
VERTEX
  8
0
 10
319.952529
 20
170.500000
 42
0.000000
  0
VERTEX
  8
0
 10
319.976265
 20
164.375727
 42
-0.041747
  0
VERTEX
  8
0
 10
319.503489
 20
158.446696
 42
-0.057345
  0
VERTEX
  8
0
 10
318.039091
 20
153.307325
 42
-0.039487
  0
VERTEX
  8
0
 10
315.013734
 20
147.367353
 42
-0.010067
  0
VERTEX
  8
0
 10
309.178216
 20
138.266011
 42
-0.017030
  0
VERTEX
  8
0
 10
302.660005
 20
129.218888
 42
-0.034504
  0
VERTEX
  8
0
 10
296.827975
 20
122.667504
 42
-0.043126
  0
VERTEX
  8
0
 10
291.163696
 20
118.009274
 42
-0.054770
  0
VERTEX
  8
0
 10
285.201632
 20
114.809138
 42
-0.037546
  0
VERTEX
  8
0
 10
281.107772
 20
113.506217
 42
-0.038605
  0
VERTEX
  8
0
 10
276.903042
 20
112.845341
 42
-0.017626
  0
VERTEX
  8
0
 10
270.499115
 20
112.566723
 42
-0.002001
  0
VERTEX
  8
0
 10
256.000000
 20
112.505386
 42
-0.001991
  0
VERTEX
  8
0
 10
241.476748
 20
112.559895
 42
-0.017704
  0
VERTEX
  8
0
 10
235.087503
 20
112.835699
 42
-0.038889
  0
VERTEX
  8
0
 10
230.892862
 20
113.496646
 42
-0.037510
  0
VERTEX
  8
0
 10
226.798368
 20
114.803752
 42
-0.054793
  0
VERTEX
  8
0
 10
220.820620
 20
118.018906
 42
-0.043195
  0
VERTEX
  8
0
 10
215.145984
 20
122.695554
 42
-0.034390
  0
VERTEX
  8
0
 10
209.286841
 20
129.289992
 42
-0.016717
  0
VERTEX
  8
0
 10
202.696951
 20
138.438398
 42
-0.008262
  0
VERTEX
  8
0
 10
196.684683
 20
147.730410
 42
-0.041113
  0
VERTEX
  8
0
 10
193.840907
 20
153.252158
 42
-0.062239
  0
VERTEX
  8
0
 10
192.519753
 20
158.042811
 42
-0.036208
  0
VERTEX
  8
0
 10
192.087786
 20
164.000000
 42
0.000000
  0
VERTEX
  8
0
 10
192.087786
 20
170.500000
 42
0.000000
  0
VERTEX
  8
0
 10
193.393676
 20
166.844183
 42
0.018505
  0
VERTEX
  8
0
 10
194.082196
 20
165.120795
 42
0.008463
  0
VERTEX
  8
0
 10
195.101012
 20
162.922674
 42
0.008367
  0
VERTEX
  8
0
 10
196.253233
 20
160.641266
 42
0.011420
  0
SEQEND
  0
POLYLINE
  8
0
 66
1
 70
1
  0
VERTEX
  8
0
 10
337.167373
 20
162.767373
 42
-0.118227
  0
VERTEX
  8
0
 10
336.625077
 20
162.434861
 42
-0.375409
  0
VERTEX
  8
0
 10
336.264494
 20
162.588838
 42
-0.104506
  0
VERTEX
  8
0
 10
336.078609
 20
163.346139
 42
-0.013015
  0
VERTEX
  8
0
 10
336.067680
 20
165.050000
 42
-0.003356
  0
VERTEX
  8
0
 10
336.126407
 20
167.280154
 42
-0.190340
  0
VERTEX
  8
0
 10
336.287920
 20
167.652560
 42
-0.505637
  0
VERTEX
  8
0
 10
336.531359
 20
167.615545
 42
-0.008664
  0
VERTEX
  8
0
 10
337.235053
 20
166.217373
 42
-0.033133
  0
VERTEX
  8
0
 10
337.697352
 20
165.068984
 42
-0.084220
  0
VERTEX
  8
0
 10
337.829810
 20
164.183143
 42
-0.109136
  0
VERTEX
  8
0
 10
337.651726
 20
163.445942
 42
-0.082929
  0
SEQEND
  0
POLYLINE
  8
0
 66
1
 70
1
  0
VERTEX
  8
0
 10
357.545455
 20
149.545455
 42
-0.148917
  0
VERTEX
  8
0
 10
359.701911
 20
145.499958
 42
-0.146703
  0
VERTEX
  8
0
 10
359.254377
 20
140.912655
 42
-0.147321
  0
VERTEX
  8
0
 10
356.360299
 20
137.341973
 42
-0.150404
  0
VERTEX
  8
0
 10
352.000000
 20
136.000000
 42
-0.107768
  0
VERTEX
  8
0
 10
349.078636
 20
136.637059
 42
-0.089231
  0
VERTEX
  8
0
 10
346.458338
 20
138.458338
 42
-0.089231
  0
VERTEX
  8
0
 10
344.637059
 20
141.078636
 42
-0.107768
  0
VERTEX
  8
0
 10
344.000000
 20
144.000000
 42
-0.107768
  0
VERTEX
  8
0
 10
344.637059
 20
146.921364
 42
-0.089231
  0
VERTEX
  8
0
 10
346.458338
 20
149.541662
 42
-0.089231
  0
VERTEX
  8
0
 10
349.078636
 20
151.362941
 42
-0.107768
  0
VERTEX
  8
0
 10
352.000000
 20
152.000000
 42
-0.055690
  0
VERTEX
  8
0
 10
353.461429
 20
151.836719
 42
-0.048581
  0
VERTEX
  8
0
 10
354.923153
 20
151.352941
 42
-0.047034
  0
VERTEX
  8
0
 10
356.309031
 20
150.576460
 42
-0.045205
  0
SEQEND
  0
POLYLINE
  8
0
 66
1
 70
1
  0
VERTEX
  8
0
 10
323.575622
 20
127.189202
 42
0.000000
  0
VERTEX
  8
0
 10
316.791358
 20
120.500000
 42
0.000000
  0
VERTEX
  8
0
 10
322.611803
 20
129.349202
 42
-0.003871
  0
VERTEX
  8
0
 10
326.130393
 20
134.609577
 42
-0.048832
  0
VERTEX
  8
0
 10
327.656989
 20
136.441013
 42
-0.260874
  0
VERTEX
  8
0
 10
328.604116
 20
136.701068
 42
-0.231163
  0
VERTEX
  8
0
 10
329.396067
 20
136.038404
 42
-0.143778
  0
VERTEX
  8
0
 10
329.590778
 20
134.595136
 42
-0.107991
  0
VERTEX
  8
0
 10
329.013260
 20
133.091224
 42
-0.046026
  0
VERTEX
  8
0
 10
327.363668
 20
131.025177
 42
-0.006671
  0
SEQEND
  0
POLYLINE
  8
0
 66
1
 70
1
  0
VERTEX
  8
0
 10
153.723180
 20
142.224904
 42
0.006945
  0
VERTEX
  8
0
 10
151.146905
 20
139.555581
 42
0.010345
  0
VERTEX
  8
0
 10
148.974934
 20
137.143580
 42
0.005753
  0
VERTEX
  8
0
 10
147.226429
 20
135.071422
 42
0.174073
  0
VERTEX
  8
0
 10
147.000000
 20
134.440744
 42
0.168764
  0
VERTEX
  8
0
 10
147.211497
 20
133.831982
 42
0.008693
  0
VERTEX
  8
0
 10
148.550241
 20
132.197108
 42
0.013018
  0
VERTEX
  8
0
 10
150.255480
 20
130.289950
 42
0.009014
  0
VERTEX
  8
0
 10
152.277416
 20
128.219819
 42
0.000000
  0
VERTEX
  8
0
 10
157.554832
 20
123.007958
 42
0.000000
  0
VERTEX
  8
0
 10
165.354438
 20
130.853580
 42
0.000000
  0
VERTEX
  8
0
 10
173.154044
 20
138.699201
 42
0.000000
  0
VERTEX
  8
0
 10
167.327022
 20
143.835455
 42
0.004062
  0
VERTEX
  8
0
 10
165.055611
 20
145.805046
 42
0.006265
  0
VERTEX
  8
0
 10
163.056935
 20
147.467090
 42
0.002406
  0
VERTEX
  8
0
 10
161.323810
 20
148.858186
 42
0.162585
  0
VERTEX
  8
0
 10
160.973180
 20
148.985855
 42
0.194838
  0
VERTEX
  8
0
 10
160.625309
 20
148.855705
 42
0.001911
  0
VERTEX
  8
0
 10
158.626180
 20
147.005660
 42
0.005923
  0
VERTEX
  8
0
 10
156.338306
 20
144.820874
 42
0.003761
  0
SEQEND
  0
POLYLINE
  8
0
 66
1
 70
1
  0
VERTEX
  8
0
 10
164.850426
 20
115.851675
 42
-0.005823
  0
VERTEX
  8
0
 10
146.779179
 20
99.609125
 42
-0.005793
  0
VERTEX
  8
0
 10
128.303494
 20
83.763338
 42
-0.006076
  0
VERTEX
  8
0
 10
110.622580
 20
69.313260
 42
-0.009452
  0
VERTEX
  8
0
 10
95.000000
 20
57.334878
 42
-0.005663
  0
VERTEX
  8
0
 10
86.672806
 20
51.340898
 42
-0.004415
  0
VERTEX
  8
0
 10
77.493972
 20
45.010763
 42
-0.003566
  0
VERTEX
  8
0
 10
69.111031
 20
39.424820
 42
-0.026959
  0
VERTEX
  8
0
 10
65.000000
 20
37.034043
 42
-0.121053
  0
VERTEX
  8
0
 10
64.121520
 20
36.826586
 42
-0.676263
  0
VERTEX
  8
0
 10
64.003572
 20
37.128411
 42
-0.016030
  0
VERTEX
  8
0
 10
66.388694
 20
39.228955
 42
-0.000902
  0
VERTEX
  8
0
 10
74.000000
 20
45.487576
 42
0.007439
  0
VERTEX
  8
0
 10
85.873222
 20
55.513681
 42
0.003528
  0
VERTEX
  8
0
 10
100.886591
 20
68.766246
 42
0.003529
  0
VERTEX
  8
0
 10
116.044675
 20
82.532020
 42
0.006000
  0
VERTEX
  8
0
 10
128.500000
 20
94.284141
 42
0.000000
  0
VERTEX
  8
0
 10
141.500000
 20
106.848477
 42
0.000000
  0
VERTEX
  8
0
 10
135.814331
 20
112.599038
 42
0.000000
  0
VERTEX
  8
0
 10
130.128662
 20
118.349599
 42
0.000000
  0
VERTEX
  8
0
 10
116.217089
 20
104.885799
 42
-0.010178
  0
VERTEX
  8
0
 10
85.619738
 20
76.456284
 42
-0.012710
  0
VERTEX
  8
0
 10
56.033230
 20
51.388069
 42
-0.013933
  0
VERTEX
  8
0
 10
29.412739
 20
31.166425
 42
-0.033269
  0
VERTEX
  8
0
 10
8.331632
 20
18.088542
 42
0.037979
  0
VERTEX
  8
0
 10
3.919243
 20
15.293445
 42
0.089060
  0
VERTEX
  8
0
 10
1.260895
 20
12.454504
 42
0.120095
  0
VERTEX
  8
0
 10
0.209549
 20
9.442815
 42
0.108044
  0
VERTEX
  8
0
 10
0.600612
 20
6.156356
 42
0.124075
  0
VERTEX
  8
0
 10
2.499374
 20
3.261875
 42
0.099976
  0
VERTEX
  8
0
 10
5.692651
 20
1.330147
 42
0.071053
  0
VERTEX
  8
0
 10
10.360307
 20
0.369939
 42
0.031053
  0
VERTEX
  8
0
 10
16.695779
 20
0.376706
 42
0.099413
  0
VERTEX
  8
0
 10
45.634560
 20
8.116247
 42
0.031671
  0
VERTEX
  8
0
 10
84.462365
 20
30.493505
 42
0.026324
  0
VERTEX
  8
0
 10
130.513895
 20
64.693821
 42
0.014688
  0
VERTEX
  8
0
 10
183.000000
 20
110.801142
 42
0.000000
  0
VERTEX
  8
0
 10
189.500000
 20
116.858502
 42
0.000000
  0
VERTEX
  8
0
 10
183.887456
 20
122.530925
 42
0.000000
  0
VERTEX
  8
0
 10
178.274912
 20
128.203349
 42
0.000000
  0
SEQEND
  0
POLYLINE
  8
0
 66
1
 70
1
  0
VERTEX
  8
0
 10
383.690725
 20
104.566752
 42
0.003724
  0
VERTEX
  8
0
 10
381.892826
 20
102.452622
 42
0.005795
  0
VERTEX
  8
0
 10
380.377901
 20
100.600936
 42
0.002030
  0
VERTEX
  8
0
 10
379.101977
 20
98.990608
 42
0.168054
  0
VERTEX
  8
0
 10
379.000000
 20
98.695769
 42
0.212805
  0
VERTEX
  8
0
 10
379.790464
 20
96.922631
 42
0.000348
  0
VERTEX
  8
0
 10
405.673231
 20
73.694821
 42
0.002928
  0
VERTEX
  8
0
 10
429.391593
 20
52.688316
 42
0.008666
  0
VERTEX
  8
0
 10
446.004648
 20
38.648388
 42
-0.041881
  0
VERTEX
  8
0
 10
447.444138
 20
37.258046
 42
-0.848272
  0
VERTEX
  8
0
 10
447.262343
 20
37.036847
 42
-0.014174
  0
VERTEX
  8
0
 10
443.527461
 20
39.339377
 42
-0.001322
  0
VERTEX
  8
0
 10
434.500000
 20
45.298488
 42
-0.007012
  0
VERTEX
  8
0
 10
423.027028
 20
53.149547
 42
-0.006545
  0
VERTEX
  8
0
 10
411.509337
 20
61.498514
 42
-0.006511
  0
VERTEX
  8
0
 10
400.152342
 20
70.192214
 42
-0.006748
  0
VERTEX
  8
0
 10
389.161388
 20
79.077658
 42
0.000239
  0
VERTEX
  8
0
 10
384.650598
 20
82.822463
 42
0.000302
  0
VERTEX
  8
0
 10
380.475635
 20
86.280842
 42
0.000238
  0
VERTEX
  8
0
 10
376.970227
 20
89.178206
 42
0.002449
  0
VERTEX
  8
0
 10
375.515176
 20
90.367762
 42
0.042662
  0
VERTEX
  8
0
 10
373.994384
 20
91.397445
 42
0.223683
  0
VERTEX
  8
0
 10
373.013407
 20
91.466006
 42
0.109522
  0
VERTEX
  8
0
 10
371.931412
 20
90.743871
 42
0.007182
  0
VERTEX
  8
0
 10
369.353788
 20
87.975549
 42
0.016232
  0
VERTEX
  8
0
 10
364.816624
 20
82.620621
 42
0.241439
  0
VERTEX
  8
0
 10
364.351289
 20
80.284846
 42
0.145466
  0
VERTEX
  8
0
 10
365.852402
 20
77.922506
 42
0.005028
  0
VERTEX
  8
0
 10
374.249510
 20
70.766514
 42
0.015540
  0
VERTEX
  8
0
 10
411.773783
 20
41.363973
 42
0.026899
  0
VERTEX
  8
0
 10
444.914202
 20
19.662088
 42
0.032531
  0
VERTEX
  8
0
 10
473.246905
 20
5.591133
 42
0.083033
  0
VERTEX
  8
0
 10
495.500000
 20
0.375445
 42
0.032128
  0
VERTEX
  8
0
 10
501.709838
 20
0.373551
 42
0.071322
  0
VERTEX
  8
0
 10
506.331173
 20
1.340839
 42
0.099191
  0
VERTEX
  8
0
 10
509.511041
 20
3.275012
 42
0.123854
  0
VERTEX
  8
0
 10
511.399388
 20
6.156356
 42
0.111819
  0
VERTEX
  8
0
 10
511.776463
 20
9.540196
 42
0.128271
  0
VERTEX
  8
0
 10
510.612457
 20
12.569225
 42
0.083161
  0
VERTEX
  8
0
 10
507.594692
 20
15.571490
 42
0.026190
  0
VERTEX
  8
0
 10
502.199097
 20
18.988301
 42
-0.024462
  0
VERTEX
  8
0
 10
482.737870
 20
31.218354
 42
-0.014547
  0
VERTEX
  8
0
 10
460.757213
 20
47.552157
 42
-0.012469
  0
VERTEX
  8
0
 10
436.079795
 20
68.048205
 42
-0.007913
  0
VERTEX
  8
0
 10
408.325628
 20
93.079506
 42
0.002272
  0
VERTEX
  8
0
 10
401.294575
 20
99.566082
 42
0.003643
  0
VERTEX
  8
0
 10
395.230037
 20
105.029605
 42
0.000781
  0
VERTEX
  8
0
 10
389.872784
 20
109.770733
 42
0.182718
  0
VERTEX
  8
0
 10
389.266353
 20
110.000000
 42
0.187183
  0
VERTEX
  8
0
 10
388.737797
 20
109.794942
 42
0.008075
  0
VERTEX
  8
0
 10
387.263490
 20
108.403983
 42
0.012836
  0
VERTEX
  8
0
 10
385.552272
 20
106.648607
 42
0.008701
  0
SEQEND
  0
POLYLINE
  8
0
 66
1
 70
1
  0
VERTEX
  8
0
 10
344.000000
 20
80.000000
 42
0.000000
  0
VERTEX
  8
0
 10
344.000000
 20
72.000000
 42
0.000000
  0
VERTEX
  8
0
 10
352.000000
 20
72.000000
 42
0.000000
  0
VERTEX
  8
0
 10
360.000000
 20
72.000000
 42
0.000000
  0
VERTEX
  8
0
 10
360.000000
 20
80.000000
 42
0.000000
  0
VERTEX
  8
0
 10
360.000000
 20
88.000000
 42
0.000000
  0
VERTEX
  8
0
 10
352.000000
 20
88.000000
 42
0.000000
  0
VERTEX
  8
0
 10
344.000000
 20
88.000000
 42
0.000000
  0
SEQEND
  0
POLYLINE
  8
0
 66
1
 70
1
  0
VERTEX
  8
0
 10
186.615224
 20
326.390456
 42
0.075111
  0
VERTEX
  8
0
 10
181.413373
 20
323.855823
 42
0.048392
  0
VERTEX
  8
0
 10
176.274573
 20
319.527024
 42
0.048285
  0
VERTEX
  8
0
 10
172.048364
 20
314.274490
 42
0.073224
  0
VERTEX
  8
0
 10
169.582653
 20
308.966370
 42
0.042743
  0
VERTEX
  8
0
 10
168.180448
 20
302.162350
 42
0.081760
  0
VERTEX
  8
0
 10
168.432653
 20
296.604955
 42
0.072972
  0
VERTEX
  8
0
 10
170.499372
 20
291.016009
 42
0.028379
  0
VERTEX
  8
0
 10
174.865101
 20
284.000000
 42
0.021309
  0
VERTEX
  8
0
 10
181.922114
 20
274.831216
 42
0.056278
  0
VERTEX
  8
0
 10
187.918472
 20
269.134586
 42
0.074186
  0
VERTEX
  8
0
 10
193.955833
 20
265.842366
 42
0.065268
  0
VERTEX
  8
0
 10
200.963286
 20
264.269613
 42
0.068940
  0
VERTEX
  8
0
 10
208.811665
 20
264.640596
 42
0.031333
  0
VERTEX
  8
0
 10
218.797399
 20
267.164251
 42
0.030761
  0
VERTEX
  8
0
 10
228.948629
 20
271.121305
 42
0.042387
  0
VERTEX
  8
0
 10
237.448107
 20
275.964297
 42
0.055232
  0
VERTEX
  8
0
 10
241.987950
 20
279.890097
 42
0.072821
  0
VERTEX
  8
0
 10
245.083112
 20
284.394285
 42
0.065920
  0
VERTEX
  8
0
 10
246.954849
 20
289.948703
 42
0.036418
  0
VERTEX
  8
0
 10
247.817681
 20
297.069811
 42
0.029541
  0
VERTEX
  8
0
 10
247.734145
 20
304.468494
 42
0.054049
  0
VERTEX
  8
0
 10
246.664973
 20
310.399715
 42
0.062749
  0
VERTEX
  8
0
 10
244.506427
 20
315.343477
 42
0.058418
  0
VERTEX
  8
0
 10
241.145733
 20
319.730395
 42
0.046305
  0
VERTEX
  8
0
 10
236.069724
 20
324.074346
 42
0.090387
  0
VERTEX
  8
0
 10
231.255202
 20
326.311658
 42
0.053052
  0
VERTEX
  8
0
 10
224.420685
 20
327.335662
 42
0.007916
  0
VERTEX
  8
0
 10
210.500000
 20
327.710015
 42
0.003788
  0
VERTEX
  8
0
 10
200.796980
 20
327.743751
 42
0.012774
  0
VERTEX
  8
0
 10
194.456058
 20
327.555719
 42
0.019331
  0
VERTEX
  8
0
 10
189.969443
 20
327.133420
 42
0.042765
  0
SEQEND
  0
POLYLINE
  8
0
 66
1
 70
1
  0
VERTEX
  8
0
 10
229.076923
 20
309.076923
 42
-0.035920
  0
VERTEX
  8
0
 10
230.685571
 20
307.218908
 42
-0.084337
  0
VERTEX
  8
0
 10
231.519996
 20
305.590380
 42
-0.062894
  0
VERTEX
  8
0
 10
231.900192
 20
303.496340
 42
-0.013496
  0
VERTEX
  8
0
 10
232.000000
 20
299.799429
 42
-0.034687
  0
VERTEX
  8
0
 10
231.653996
 20
294.817872
 42
-0.099321
  0
VERTEX
  8
0
 10
230.512903
 20
291.557697
 42
-0.103152
  0
VERTEX
  8
0
 10
228.231838
 20
289.060786
 42
-0.039177
  0
VERTEX
  8
0
 10
224.180388
 20
286.595448
 42
-0.026802
  0
VERTEX
  8
0
 10
219.184764
 20
284.395949
 42
-0.014390
  0
VERTEX
  8
0
 10
212.816337
 20
282.197674
 42
-0.012872
  0
VERTEX
  8
0
 10
206.694775
 20
280.451580
 42
-0.063612
  0
VERTEX
  8
0
 10
203.144665
 20
280.005265
 42
-0.099543
  0
VERTEX
  8
0
 10
200.074528
 20
280.628964
 42
-0.069162
  0
VERTEX
  8
0
 10
197.024552
 20
282.444624
 42
-0.047314
  0
VERTEX
  8
0
 10
193.651995
 20
285.712396
 42
-0.017215
  0
VERTEX
  8
0
 10
189.503058
 20
290.925738
 42
-0.022559
  0
VERTEX
  8
0
 10
185.379706
 20
297.048828
 42
-0.113877
  0
VERTEX
  8
0
 10
184.088561
 20
300.934960
 42
-0.161716
  0
VERTEX
  8
0
 10
184.858088
 20
304.271661
 42
-0.059590
  0
VERTEX
  8
0
 10
187.882353
 20
308.117647
 42
0.000000
  0
VERTEX
  8
0
 10
191.764706
 20
312.000000
 42
0.000000
  0
VERTEX
  8
0
 10
208.959276
 20
312.000000
 42
0.000000
  0
VERTEX
  8
0
 10
226.153846
 20
312.000000
 42
0.000000
  0
SEQEND
  0
POLYLINE
  8
0
 66
1
 70
1
  0
VERTEX
  8
0
 10
280.243421
 20
326.335526
 42
0.071172
  0
VERTEX
  8
0
 10
275.800658
 20
324.009651
 42
0.045779
  0
VERTEX
  8
0
 10
271.405530
 20
320.186715
 42
0.045436
  0
VERTEX
  8
0
 10
267.735397
 20
315.578938
 42
0.065372
  0
VERTEX
  8
0
 10
265.464032
 20
310.891711
 42
0.059260
  0
VERTEX
  8
0
 10
264.125809
 20
304.367193
 42
0.038069
  0
VERTEX
  8
0
 10
264.065325
 20
296.631456
 42
0.038512
  0
VERTEX
  8
0
 10
265.150965
 20
289.210749
 42
0.077112
  0
VERTEX
  8
0
 10
267.322818
 20
283.712125
 42
0.079679
  0
VERTEX
  8
0
 10
271.701599
 20
278.397077
 42
0.048211
  0
VERTEX
  8
0
 10
278.323175
 20
273.606469
 42
0.040277
  0
VERTEX
  8
0
 10
287.047321
 20
269.398071
 42
0.025302
  0
VERTEX
  8
0
 10
297.807657
 20
265.851878
 42
0.048368
  0
VERTEX
  8
0
 10
307.126306
 20
264.241736
 42
0.077108
  0
VERTEX
  8
0
 10
315.169797
 20
264.882336
 42
0.083033
  0
VERTEX
  8
0
 10
322.219021
 20
267.854980
 42
0.065755
  0
VERTEX
  8
0
 10
328.574597
 20
273.165714
 42
0.020735
  0
VERTEX
  8
0
 10
332.871273
 20
278.246904
 42
0.014332
  0
VERTEX
  8
0
 10
337.319546
 20
284.324665
 42
0.013394
  0
VERTEX
  8
0
 10
341.095390
 20
290.133802
 42
0.056244
  0
VERTEX
  8
0
 10
342.855250
 20
293.899223
 42
0.117748
  0
VERTEX
  8
0
 10
343.716976
 20
303.403279
 42
0.089977
  0
VERTEX
  8
0
 10
340.387387
 20
313.335250
 42
0.088288
  0
VERTEX
  8
0
 10
333.698828
 20
321.622406
 42
0.107144
  0
VERTEX
  8
0
 10
324.966370
 20
326.417347
 42
0.061835
  0
VERTEX
  8
0
 10
317.136453
 20
327.722432
 42
0.010870
  0
VERTEX
  8
0
 10
302.188250
 20
328.020088
 42
0.010133
  0
VERTEX
  8
0
 10
287.236570
 20
327.689671
 42
0.074593
  0
SEQEND
  0
POLYLINE
  8
0
 66
1
 70
1
  0
VERTEX
  8
0
 10
324.579177
 20
307.764685
 42
-0.063191
  0
VERTEX
  8
0
 10
327.236659
 20
304.004730
 42
-0.154226
  0
VERTEX
  8
0
 10
327.847070
 20
300.706658
 42
-0.106885
  0
VERTEX
  8
0
 10
326.508472
 20
296.873722
 42
-0.022206
  0
VERTEX
  8
0
 10
322.496942
 20
290.925738
 42
-0.017215
  0
VERTEX
  8
0
 10
318.348005
 20
285.712396
 42
-0.047314
  0
VERTEX
  8
0
 10
314.975448
 20
282.444624
 42
-0.069162
  0
VERTEX
  8
0
 10
311.925472
 20
280.628964
 42
-0.099543
  0
VERTEX
  8
0
 10
308.855335
 20
280.005265
 42
-0.063612
  0
VERTEX
  8
0
 10
305.305225
 20
280.451580
 42
-0.012872
  0
VERTEX
  8
0
 10
299.183663
 20
282.197674
 42
-0.014390
  0
VERTEX
  8
0
 10
292.815236
 20
284.395949
 42
-0.026802
  0
VERTEX
  8
0
 10
287.819612
 20
286.595448
 42
-0.039177
  0
VERTEX
  8
0
 10
283.768162
 20
289.060786
 42
-0.103152
  0
VERTEX
  8
0
 10
281.487097
 20
291.557697
 42
-0.099321
  0
VERTEX
  8
0
 10
280.346004
 20
294.817872
 42
-0.034687
  0
VERTEX
  8
0
 10
280.000000
 20
299.799429
 42
-0.013525
  0
VERTEX
  8
0
 10
280.100534
 20
303.515461
 42
-0.063945
  0
VERTEX
  8
0
 10
280.485087
 20
305.607215
 42
-0.084766
  0
VERTEX
  8
0
 10
281.333818
 20
307.242836
 42
-0.034417
  0
VERTEX
  8
0
 10
282.987679
 20
309.141525
 42
0.000000
  0
VERTEX
  8
0
 10
285.975359
 20
312.129205
 42
0.000000
  0
VERTEX
  8
0
 10
303.566857
 20
311.814602
 42
0.000000
  0
VERTEX
  8
0
 10
321.158355
 20
311.500000
 42
0.000000
  0
SEQEND
  0
POLYLINE
  8
0
 66
1
 70
1
  0
VERTEX
  8
0
 10
252.274464
 20
286.692474
 42
0.104525
  0
VERTEX
  8
0
 10
248.349424
 20
283.281228
 42
0.004376
  0
VERTEX
  8
0
 10
237.256064
 20
268.327801
 42
0.004301
  0
VERTEX
  8
0
 10
226.408845
 20
253.163083
 42
0.107124
  0
VERTEX
  8
0
 10
224.426435
 20
248.459555
 42
0.045532
  0
VERTEX
  8
0
 10
223.995202
 20
243.907141
 42
0.032998
  0
VERTEX
  8
0
 10
224.313624
 20
238.821359
 42
0.033270
  0
VERTEX
  8
0
 10
225.226008
 20
234.202323
 42
0.095235
  0
VERTEX
  8
0
 10
226.647500
 20
231.270317
 42
0.042669
  0
VERTEX
  8
0
 10
229.529838
 20
228.027502
 42
0.074194
  0
VERTEX
  8
0
 10
232.473466
 20
225.966735
 42
0.069120
  0
VERTEX
  8
0
 10
236.037292
 20
224.767340
 42
0.032555
  0
VERTEX
  8
0
 10
240.868691
 20
224.177262
 42
0.014797
  0
VERTEX
  8
0
 10
244.529080
 20
224.078946
 42
0.038655
  0
VERTEX
  8
0
 10
247.150727
 20
224.289155
 42
0.046712
  0
VERTEX
  8
0
 10
249.406961
 20
224.866801
 42
0.031948
  0
VERTEX
  8
0
 10
251.836725
 20
225.916703
 42
0.000000
  0
VERTEX
  8
0
 10
256.000000
 20
228.040648
 42
0.000000
  0
VERTEX
  8
0
 10
260.163275
 20
225.916703
 42
0.031948
  0
VERTEX
  8
0
 10
262.593039
 20
224.866801
 42
0.046712
  0
VERTEX
  8
0
 10
264.849273
 20
224.289155
 42
0.038655
  0
VERTEX
  8
0
 10
267.470920
 20
224.078946
 42
0.014797
  0
VERTEX
  8
0
 10
271.131309
 20
224.177262
 42
0.063867
  0
VERTEX
  8
0
 10
278.008524
 20
225.457184
 42
0.107762
  0
VERTEX
  8
0
 10
283.059125
 20
228.391110
 42
0.112767
  0
VERTEX
  8
0
 10
286.283531
 20
233.051488
 42
0.074620
  0
VERTEX
  8
0
 10
287.784275
 20
239.412178
 42
0.044307
  0
VERTEX
  8
0
 10
287.746359
 20
245.929411
 42
0.083448
  0
VERTEX
  8
0
 10
286.393018
 20
250.998701
 42
0.046974
  0
VERTEX
  8
0
 10
282.932547
 20
257.024724
 42
0.006479
  0
VERTEX
  8
0
 10
274.429115
 20
268.733815
 42
0.004767
  0
VERTEX
  8
0
 10
266.594798
 20
279.026477
 42
0.026231
  0
VERTEX
  8
0
 10
262.035868
 20
284.302791
 42
0.051208
  0
VERTEX
  8
0
 10
258.774151
 20
287.069300
 42
0.151419
  0
VERTEX
  8
0
 10
256.000000
 20
287.929129
 42
0.057915
  0
VERTEX
  8
0
 10
255.270199
 20
287.844312
 42
0.022278
  0
VERTEX
  8
0
 10
254.286874
 20
287.565862
 42
0.021703
  0
VERTEX
  8
0
 10
253.236607
 20
287.165861
 42
0.024978
  0
SEQEND
  0
POLYLINE
  8
0
 66
1
 70
1
  0
VERTEX
  8
0
 10
264.286106
 20
255.629159
 42
-0.008348
  0
VERTEX
  8
0
 10
267.629627
 20
250.973668
 42
-0.017651
  0
VERTEX
  8
0
 10
270.030369
 20
247.235045
 42
-0.019779
  0
VERTEX
  8
0
 10
271.606978
 20
244.321318
 42
-0.114605
  0
VERTEX
  8
0
 10
272.000000
 20
242.629159
 42
-0.142871
  0
VERTEX
  8
0
 10
271.469078
 20
240.809044
 42
-0.240943
  0
VERTEX
  8
0
 10
270.128664
 20
240.023169
 42
-0.118368
  0
VERTEX
  8
0
 10
267.821202
 20
240.438844
 42
-0.029802
  0
VERTEX
  8
0
 10
264.398636
 20
242.192308
 42
0.036539
  0
VERTEX
  8
0
 10
262.507427
 20
243.129303
 42
0.032917
  0
VERTEX
  8
0
 10
260.433492
 20
243.819216
 42
0.032236
  0
VERTEX
  8
0
 10
258.242006
 20
244.242693
 42
0.031619
  0
VERTEX
  8
0
 10
256.000000
 20
244.384615
 42
0.031619
  0
VERTEX
  8
0
 10
253.757994
 20
244.242693
 42
0.032236
  0
VERTEX
  8
0
 10
251.566508
 20
243.819216
 42
0.032917
  0
VERTEX
  8
0
 10
249.492573
 20
243.129303
 42
0.036539
  0
VERTEX
  8
0
 10
247.601364
 20
242.192308
 42
-0.029802
  0
VERTEX
  8
0
 10
244.178798
 20
240.438844
 42
-0.118368
  0
VERTEX
  8
0
 10
241.871336
 20
240.023169
 42
-0.240943
  0
VERTEX
  8
0
 10
240.530922
 20
240.809044
 42
-0.142871
  0
VERTEX
  8
0
 10
240.000000
 20
242.629159
 42
-0.114605
  0
VERTEX
  8
0
 10
240.393022
 20
244.321318
 42
-0.019779
  0
VERTEX
  8
0
 10
241.969631
 20
247.235045
 42
-0.017651
  0
VERTEX
  8
0
 10
244.370373
 20
250.973668
 42
-0.008348
  0
VERTEX
  8
0
 10
247.713894
 20
255.629159
 42
-0.003324
  0
VERTEX
  8
0
 10
250.712294
 20
259.604850
 42
-0.005325
  0
VERTEX
  8
0
 10
253.329919
 20
262.953566
 42
-0.001411
  0
VERTEX
  8
0
 10
255.639889
 20
265.828034
 42
-0.226517
  0
VERTEX
  8
0
 10
256.000000
 20
266.000000
 42
-0.226517
  0
VERTEX
  8
0
 10
256.360111
 20
265.828034
 42
-0.001411
  0
VERTEX
  8
0
 10
258.670081
 20
262.953566
 42
-0.005325
  0
VERTEX
  8
0
 10
261.287706
 20
259.604850
 42
-0.003324
  0
SEQEND
  0
ENDSEC
  0
EOF
