  0
SECTION
  2
HEADER
  9
$ACADVER
  1
AC1006
  9
$EXTMIN
 10
0.000000
 20
0.000000
 30
0.000000
  9
$EXTMAX
 10
512.000000
 20
512.000000
 30
0.000000
  0
ENDSEC
  0
SECTION
  2
ENTITIES
  0
POLYLINE
  8
0
 66
1
 70
1
  0
VERTEX
  8
0
 10
400.500000
 20
470.863947
 42
-0.029760
  0
VERTEX
  8
0
 10
389.173488
 20
469.166673
 42
-0.015198
  0
VERTEX
  8
0
 10
374.812791
 20
468.320607
 42
-0.015197
  0
VERTEX
  8
0
 10
360.438441
 20
468.348451
 42
-0.029989
  0
VERTEX
  8
0
 10
349.073865
 20
469.400258
 42
0.010181
  0
VERTEX
  8
0
 10
339.769064
 20
470.634605
 42
0.035611
  0
VERTEX
  8
0
 10
333.725320
 20
470.878508
 42
0.052256
  0
VERTEX
  8
0
 10
329.041115
 20
470.240965
 42
0.049495
  0
VERTEX
  8
0
 10
324.500000
 20
468.641754
 42
0.089508
  0
VERTEX
  8
0
 10
316.623533
 20
463.065513
 42
0.055329
  0
VERTEX
  8
0
 10
309.598138
 20
454.118408
 42
0.054999
  0
VERTEX
  8
0
 10
304.657104
 20
443.763803
 42
0.084032
  0
VERTEX
  8
0
 10
303.000000
 20
433.973486
 42
0.073284
  0
VERTEX
  8
0
 10
303.390823
 20
431.321329
 42
0.086639
  0
VERTEX
  8
0
 10
304.527318
 20
429.058608
 42
0.099377
  0
VERTEX
  8
0
 10
306.209764
 20
427.539621
 42
0.134879
  0
VERTEX
  8
0
 10
308.173753
 20
427.000000
 42
0.149237
  0
VERTEX
  8
0
 10
309.777898
 20
427.489700
 42
0.071782
  0
VERTEX
  8
0
 10
311.387555
 20
428.947377
 42
0.068844
  0
VERTEX
  8
0
 10
312.590456
 20
430.891353
 42
0.104540
  0
VERTEX
  8
0
 10
313.000000
 20
432.828741
 42
-0.010810
  0
VERTEX
  8
0
 10
313.017978
 20
433.660181
 42
-0.018049
  0
VERTEX
  8
0
 10
313.073438
 20
434.357770
 42
-0.012417
  0
VERTEX
  8
0
 10
313.150831
 20
434.905928
 42
-0.383801
  0
VERTEX
  8
0
 10
313.250000
 20
434.984944
 42
-0.063838
  0
VERTEX
  8
0
 10
313.434777
 20
434.949856
 42
-0.000765
  0
VERTEX
  8
0
 10
314.601562
 20
434.567477
 42
-0.002285
  0
VERTEX
  8
0
 10
315.948879
 20
434.116813
 42
-0.001490
  0
VERTEX
  8
0
 10
317.500000
 20
433.584923
 42
-0.025471
  0
VERTEX
  8
0
 10
319.575565
 20
432.745661
 42
-0.084736
  0
VERTEX
  8
0
 10
320.782056
 20
431.912701
 42
-0.109929
  0
VERTEX
  8
0
 10
321.471535
 20
430.856872
 42
-0.060399
  0
VERTEX
  8
0
 10
321.838485
 20
429.349979
 42
0.049539
  0
VERTEX
  8
0
 10
322.395567
 20
426.825743
 42
0.118331
  0
VERTEX
  8
0
 10
323.395060
 20
425.202006
 42
0.130269
  0
VERTEX
  8
0
 10
324.952671
 20
424.301106
 42
0.066421
  0
VERTEX
  8
0
 10
327.209309
 20
424.000000
 42
0.046661
  0
VERTEX
  8
0
 10
328.765073
 20
424.145503
 42
0.113408
  0
VERTEX
  8
0
 10
329.814969
 20
424.604767
 42
0.105821
  0
VERTEX
  8
0
 10
330.602419
 20
425.499465
 42
0.037504
  0
VERTEX
  8
0
 10
331.326474
 20
427.053972
 42
-0.029783
  0
VERTEX
  8
0
 10
331.994245
 20
428.547405
 42
-0.105209
  0
VERTEX
  8
0
 10
332.659207
 20
429.353639
 42
-0.149997
  0
VERTEX
  8
0
 10
333.452429
 20
429.664690
 42
-0.084826
  0
VERTEX
  8
0
 10
334.489610
 20
429.567627
 42
0.012871
  0
VERTEX
  8
0
 10
335.350935
 20
429.359749
 42
0.010694
  0
VERTEX
  8
0
 10
336.276635
 20
429.182017
 42
0.010839
  0
VERTEX
  8
0
 10
337.131864
 20
429.055713
 42
0.028514
  0
VERTEX
  8
0
 10
337.750000
 20
429.013655
 42
-0.177729
  0
VERTEX
  8
0
 10
338.227136
 20
428.832582
 42
-0.090889
  0
VERTEX
  8
0
 10
338.632812
 20
428.325780
 42
-0.071480
  0
VERTEX
  8
0
 10
338.907553
 20
427.575518
 42
-0.052124
  0
VERTEX
  8
0
 10
339.000000
 20
426.691130
 42
0.150732
  0
VERTEX
  8
0
 10
340.078482
 20
423.194918
 42
0.177215
  0
VERTEX
  8
0
 10
342.881890
 20
421.186820
 42
0.185869
  0
VERTEX
  8
0
 10
346.213369
 20
421.510141
 42
0.162933
  0
VERTEX
  8
0
 10
348.693681
 20
424.000000
 42
-0.032482
  0
VERTEX
  8
0
 10
349.244252
 20
424.949682
 42
-0.042008
  0
VERTEX
  8
0
 10
349.872935
 20
425.736250
 42
-0.047658
  0
VERTEX
  8
0
 10
350.485402
 20
426.270492
 42
-0.181591
  0
VERTEX
  8
0
 10
350.966852
 20
426.400000
 42
0.002343
  0
VERTEX
  8
0
 10
351.494142
 20
426.351456
 42
0.000784
  0
VERTEX
  8
0
 10
352.265401
 20
426.285313
 42
0.000780
  0
VERTEX
  8
0
 10
353.119426
 20
426.214761
 42
0.000891
  0
VERTEX
  8
0
 10
353.936642
 20
426.150000
 42
-0.099953
  0
VERTEX
  8
0
 10
354.845798
 20
425.891968
 42
-0.124759
  0
VERTEX
  8
0
 10
355.501167
 20
425.312485
 42
-0.090783
  0
VERTEX
  8
0
 10
355.935580
 20
424.333064
 42
-0.034319
  0
VERTEX
  8
0
 10
356.186642
 20
422.850849
 42
0.042386
  0
VERTEX
  8
0
 10
356.424480
 20
421.572153
 42
0.040694
  0
VERTEX
  8
0
 10
356.876548
 20
420.333568
 42
0.043540
  0
VERTEX
  8
0
 10
357.460638
 20
419.309478
 42
0.101938
  0
VERTEX
  8
0
 10
358.095223
 20
418.703594
 42
0.131624
  0
VERTEX
  8
0
 10
360.169607
 20
418.067936
 42
0.098912
  0
VERTEX
  8
0
 10
362.535825
 20
418.453625
 42
0.100692
  0
VERTEX
  8
0
 10
364.538245
 20
419.707556
 42
0.142125
  0
VERTEX
  8
0
 10
365.593178
 20
421.515230
 42
-0.059190
  0
VERTEX
  8
0
 10
366.088497
 20
422.814788
 42
-0.144399
  0
VERTEX
  8
0
 10
366.794294
 20
423.543826
 42
-0.105437
  0
VERTEX
  8
0
 10
367.936451
 20
423.903002
 42
-0.023650
  0
VERTEX
  8
0
 10
369.985963
 20
424.000000
 42
-0.034755
  0
VERTEX
  8
0
 10
371.545499
 20
423.891465
 42
-0.037967
  0
VERTEX
  8
0
 10
373.028302
 20
423.567871
 42
-0.041454
  0
VERTEX
  8
0
 10
374.254461
 20
423.087171
 42
-0.105789
  0
VERTEX
  8
0
 10
375.000454
 20
422.499453
 42
-0.118737
  0
VERTEX
  8
0
 10
376.144781
 20
420.168460
 42
-0.035735
  0
VERTEX
  8
0
 10
376.733447
 20
416.234872
 42
-0.036507
  0
VERTEX
  8
0
 10
376.750404
 20
412.126246
 42
-0.081138
  0
VERTEX
  8
0
 10
376.036628
 20
409.088427
 42
-0.055254
  0
VERTEX
  8
0
 10
374.910068
 20
407.041352
 42
-0.097452
  0
VERTEX
  8
0
 10
373.520415
 20
405.712553
 42
-0.267307
  0
VERTEX
  8
0
 10
372.513462
 20
405.665873
 42
-0.280725
  0
VERTEX
  8
0
 10
372.000000
 20
406.508332
 42
0.126981
  0
VERTEX
  8
0
 10
371.827293
 20
407.177418
 42
0.044036
  0
VERTEX
  8
0
 10
371.265625
 20
408.010441
 42
0.040335
  0
VERTEX
  8
0
 10
370.456629
 20
408.858416
 42
0.037080
  0
VERTEX
  8
0
 10
369.500000
 20
409.591957
 42
0.025426
  0
VERTEX
  8
0
 10
367.961118
 20
410.491957
 42
0.123436
  0
VERTEX
  8
0
 10
366.984771
 20
410.723371
 42
0.119291
  0
VERTEX
  8
0
 10
365.997586
 20
410.470917
 42
0.023058
  0
VERTEX
  8
0
 10
364.399545
 20
409.526136
 42
0.040537
  0
VERTEX
  8
0
 10
363.130144
 20
408.538770
 42
0.096390
  0
VERTEX
  8
0
 10
362.422360
 20
407.581185
 42
0.100789
  0
VERTEX
  8
0
 10
362.142914
 20
406.455972
 42
0.047098
  0
VERTEX
  8
0
 10
362.220721
 20
404.949494
 42
-0.163228
  0
VERTEX
  8
0
 10
361.733026
 20
402.236662
 42
-0.240206
  0
VERTEX
  8
0
 10
359.769841
 20
400.899785
 42
-0.183754
  0
VERTEX
  8
0
 10
357.050079
 20
401.556977
 42
-0.113715
  0
VERTEX
  8
0
 10
354.796510
 20
404.006323
 42
0.145566
  0
VERTEX
  8
0
 10
352.263354
 20
406.435068
 42
0.198038
  0
VERTEX
  8
0
 10
349.142697
 20
406.698574
 42
0.189919
  0
VERTEX
  8
0
 10
346.647984
 20
404.672329
 42
0.136261
  0
VERTEX
  8
0
 10
345.776699
 20
401.149041
 42
-0.027314
  0
VERTEX
  8
0
 10
345.727824
 20
399.283312
 42
-0.186935
  0
VERTEX
  8
0
 10
345.334912
 20
398.470775
 42
-0.168080
  0
VERTEX
  8
0
 10
344.471881
 20
398.087711
 42
-0.021175
  0
VERTEX
  8
0
 10
342.401732
 20
398.000000
 42
-0.030558
  0
VERTEX
  8
0
 10
340.788267
 20
398.098701
 42
-0.072560
  0
VERTEX
  8
0
 10
339.631079
 20
398.415303
 42
-0.101404
  0
VERTEX
  8
0
 10
338.854898
 20
398.962475
 42
-0.114227
  0
VERTEX
  8
0
 10
338.396464
 20
399.750000
 42
0.029618
  0
VERTEX
  8
0
 10
337.516112
 20
402.096530
 42
0.085330
  0
VERTEX
  8
0
 10
336.554899
 20
403.537142
 42
0.107948
  0
VERTEX
  8
0
 10
335.312754
 20
404.381653
 42
0.066010
  0
VERTEX
  8
0
 10
333.588666
 20
404.822258
 42
0.079316
  0
VERTEX
  8
0
 10
331.249041
 20
404.728796
 42
0.129366
  0
VERTEX
  8
0
 10
329.475809
 20
403.860101
 42
0.131703
  0
VERTEX
  8
0
 10
328.380136
 20
402.244963
 42
0.083737
  0
VERTEX
  8
0
 10
328.000000
 20
399.991055
 42
-0.044124
  0
VERTEX
  8
0
 10
327.873322
 20
398.558373
 42
-0.132768
  0
VERTEX
  8
0
 10
327.458574
 20
397.678250
 42
-0.131737
  0
VERTEX
  8
0
 10
326.654627
 20
397.122957
 42
-0.043150
  0
VERTEX
  8
0
 10
325.250000
 20
396.754929
 42
0.012735
  0
VERTEX
  8
0
 10
324.077940
 20
396.522858
 42
0.010237
  0
VERTEX
  8
0
 10
322.829992
 20
396.215589
 42
0.010378
  0
VERTEX
  8
0
 10
321.687999
 20
395.883929
 42
0.025891
  0
VERTEX
  8
0
 10
320.873378
 20
395.581785
 42
-0.092882
  0
VERTEX
  8
0
 10
320.077664
 20
395.402420
 42
-0.181105
  0
VERTEX
  8
0
 10
319.469056
 20
395.605359
 42
-0.125885
  0
VERTEX
  8
0
 10
318.997392
 20
396.238634
 42
-0.035967
  0
VERTEX
  8
0
 10
318.611570
 20
397.411491
 42
0.141535
  0
VERTEX
  8
0
 10
316.989721
 20
400.198001
 42
0.154079
  0
VERTEX
  8
0
 10
314.183010
 20
401.577191
 42
0.158821
  0
VERTEX
  8
0
 10
311.158022
 20
401.076510
 42
0.151227
  0
VERTEX
  8
0
 10
308.937548
 20
398.883307
 42
0.140857
  0
VERTEX
  8
0
 10
308.447711
 20
396.602207
 42
0.055076
  0
VERTEX
  8
0
 10
309.024679
 20
393.402236
 42
0.035771
  0
VERTEX
  8
0
 10
310.672357
 20
389.024005
 42
0.011781
  0
VERTEX
  8
0
 10
313.697210
 20
382.841395
 42
0.036272
  0
VERTEX
  8
0
 10
318.655716
 20
374.773534
 42
0.054756
  0
VERTEX
  8
0
 10
324.169367
 20
368.649537
 42
0.063664
  0
VERTEX
  8
0
 10
330.149120
 20
364.547703
 42
0.081312
  0
VERTEX
  8
0
 10
336.500000
 20
362.500640
 42
0.036509
  0
VERTEX
  8
0
 10
338.970801
 20
362.311103
 42
0.004344
  0
VERTEX
  8
0
 10
344.465625
 20
362.339191
 42
0.005167
  0
VERTEX
  8
0
 10
351.006281
 20
362.497074
 42
0.004220
  0
VERTEX
  8
0
 10
358.000000
 20
362.797348
 42
-0.012345
  0
VERTEX
  8
0
 10
372.164518
 20
363.175054
 42
-0.010779
  0
VERTEX
  8
0
 10
386.987504
 20
362.884680
 42
-0.004942
  0
VERTEX
  8
0
 10
400.676345
 20
362.185561
 42
-0.183129
  0
VERTEX
  8
0
 10
403.474722
 20
360.925278
 42
-0.170652
  0
VERTEX
  8
0
 10
403.896330
 20
360.046544
 42
-0.007983
  0
VERTEX
  8
0
 10
404.207980
 20
356.717218
 42
-0.012022
  0
VERTEX
  8
0
 10
404.428445
 20
352.586867
 42
-0.007321
  0
VERTEX
  8
0
 10
404.500000
 20
347.700000
 42
-0.005793
  0
VERTEX
  8
0
 10
404.416599
 20
340.501947
 42
-0.030640
  0
VERTEX
  8
0
 10
404.084074
 20
336.572972
 42
-0.046985
  0
VERTEX
  8
0
 10
403.337531
 20
333.516955
 42
-0.026926
  0
VERTEX
  8
0
 10
401.902819
 20
330.000000
 42
-0.134627
  0
VERTEX
  8
0
 10
390.424934
 20
316.614307
 42
-0.113122
  0
VERTEX
  8
0
 10
372.941949
 20
309.852421
 42
-0.075638
  0
VERTEX
  8
0
 10
348.230598
 20
310.030993
 42
-0.029730
  0
VERTEX
  8
0
 10
314.892006
 20
317.404171
 42
0.011354
  0
VERTEX
  8
0
 10
298.277322
 20
321.724405
 42
0.025649
  0
VERTEX
  8
0
 10
285.491122
 20
324.056348
 42
0.024034
  0
VERTEX
  8
0
 10
272.038529
 20
325.149067
 42
0.008863
  0
VERTEX
  8
0
 10
253.000000
 20
325.439698
 42
0.008361
  0
VERTEX
  8
0
 10
234.164306
 20
325.078348
 42
0.018506
  0
VERTEX
  8
0
 10
219.833861
 20
324.031652
 42
0.015935
  0
VERTEX
  8
0
 10
204.374278
 20
321.824895
 42
0.004786
  0
VERTEX
  8
0
 10
181.000000
 20
317.493545
 42
-0.009472
  0
VERTEX
  8
0
 10
156.786997
 20
313.241086
 42
-0.026080
  0
VERTEX
  8
0
 10
139.549967
 20
311.463529
 42
-0.036508
  0
VERTEX
  8
0
 10
126.118166
 20
311.764062
 42
-0.051099
  0
VERTEX
  8
0
 10
114.354738
 20
314.117582
 42
-0.054284
  0
VERTEX
  8
0
 10
105.542846
 20
317.926924
 42
-0.052417
  0
VERTEX
  8
0
 10
97.643983
 20
323.580700
 42
-0.054715
  0
VERTEX
  8
0
 10
91.411030
 20
330.468832
 42
-0.073431
  0
VERTEX
  8
0
 10
87.531548
 20
337.928139
 42
-0.057080
  0
VERTEX
  8
0
 10
86.332958
 20
343.314606
 42
-0.030104
  0
VERTEX
  8
0
 10
86.026228
 20
350.168068
 42
-0.030001
  0
VERTEX
  8
0
 10
86.530916
 20
356.844611
 42
-0.072850
  0
VERTEX
  8
0
 10
87.897324
 20
361.580815
 42
-0.073014
  0
VERTEX
  8
0
 10
91.641977
 20
367.396231
 42
-0.062068
  0
VERTEX
  8
0
 10
97.092753
 20
372.264045
 42
-0.057585
  0
VERTEX
  8
0
 10
103.985131
 20
375.939844
 42
-0.047794
  0
VERTEX
  8
0
 10
111.980000
 20
378.233474
 42
-0.071059
  0
VERTEX
  8
0
 10
121.712046
 20
378.642359
 42
-0.059354
  0
VERTEX
  8
0
 10
131.818548
 20
376.398703
 42
-0.044938
  0
VERTEX
  8
0
 10
143.412899
 20
371.125541
 42
-0.019237
  0
VERTEX
  8
0
 10
157.891008
 20
362.146482
 42
0.015995
  0
VERTEX
  8
0
 10
166.850986
 20
356.508925
 42
0.025905
  0
VERTEX
  8
0
 10
174.843053
 20
352.370252
 42
0.028973
  0
VERTEX
  8
0
 10
182.510682
 20
349.413050
 42
0.029047
  0
VERTEX
  8
0
 10
190.462357
 20
347.364958
 42
0.010256
  0
VERTEX
  8
0
 10
195.427479
 20
346.494759
 42
0.029509
  0
VERTEX
  8
0
 10
198.907775
 20
346.166689
 42
0.033846
  0
VERTEX
  8
0
 10
202.129589
 20
346.272018
 42
0.017372
  0
VERTEX
  8
0
 10
206.134984
 20
346.816415
 42
0.029461
  0
VERTEX
  8
0
 10
212.475617
 20
348.292575
 42
0.041117
  0
VERTEX
  8
0
 10
217.902377
 20
350.396345
 42
0.043510
  0
VERTEX
  8
0
 10
222.673062
 20
353.249436
 42
0.039585
  0
VERTEX
  8
0
 10
227.042766
 20
356.968066
 42
0.082403
  0
VERTEX
  8
0
 10
233.914167
 20
366.549339
 42
0.079985
  0
VERTEX
  8
0
 10
237.412327
 20
377.934883
 42
0.075973
  0
VERTEX
  8
0
 10
237.248440
 20
390.355031
 42
0.064335
  0
VERTEX
  8
0
 10
233.448417
 20
402.935592
 42
0.025968
  0
VERTEX
  8
0
 10
231.428800
 20
406.874761
 42
0.052028
  0
VERTEX
  8
0
 10
229.371616
 20
409.698364
 42
0.070634
  0
VERTEX
  8
0
 10
227.310799
 20
411.420677
 42
0.139679
  0
VERTEX
  8
0
 10
225.277494
 20
412.000000
 42
0.163122
  0
VERTEX
  8
0
 10
223.551689
 20
411.421574
 42
0.067776
  0
VERTEX
  8
0
 10
221.785722
 20
409.667084
 42
0.064574
  0
VERTEX
  8
0
 10
220.451718
 20
407.360497
 42
0.099167
  0
VERTEX
  8
0
 10
220.000000
 20
405.105335
 42
-0.042056
  0
VERTEX
  8
0
 10
219.870252
 20
403.565519
 42
-0.010878
  0
VERTEX
  8
0
 10
219.399798
 20
401.117751
 42
-0.010989
  0
VERTEX
  8
0
 10
218.738908
 20
398.340410
 42
-0.010996
  0
VERTEX
  8
0
 10
217.956760
 20
395.595428
 42
-0.059266
  0
VERTEX
  8
0
 10
214.603293
 20
388.044879
 42
-0.124172
  0
VERTEX
  8
0
 10
210.098737
 20
383.522635
 42
-0.147880
  0
VERTEX
  8
0
 10
204.555851
 20
382.127088
 42
-0.098399
  0
VERTEX
  8
0
 10
198.151129
 20
383.715850
 42
-0.066635
  0
VERTEX
  8
0
 10
196.018404
 20
385.090073
 42
-0.006263
  0
VERTEX
  8
0
 10
191.313144
 20
389.200229
 42
-0.007941
  0
VERTEX
  8
0
 10
185.819742
 20
394.281049
 42
-0.006166
  0
VERTEX
  8
0
 10
180.000000
 20
399.976586
 42
0.005526
  0
VERTEX
  8
0
 10
172.331971
 20
407.500189
 42
0.015388
  0
VERTEX
  8
0
 10
166.732027
 20
412.552831
 42
0.020835
  0
VERTEX
  8
0
 10
161.937555
 20
416.286375
 42
0.022994
  0
VERTEX
  8
0
 10
157.000000
 20
419.479030
 42
0.038357
  0
VERTEX
  8
0
 10
143.631759
 20
425.958578
 42
0.038587
  0
VERTEX
  8
0
 10
129.457064
 20
430.304833
 42
0.039370
  0
VERTEX
  8
0
 10
115.070624
 20
432.356919
 42
0.043975
  0
VERTEX
  8
0
 10
101.072130
 20
432.008171
 42
0.010202
  0
VERTEX
  8
0
 10
92.569642
 20
430.868854
 42
0.026224
  0
VERTEX
  8
0
 10
86.500541
 20
429.600350
 42
0.028775
  0
VERTEX
  8
0
 10
80.929600
 20
427.778819
 42
0.014689
  0
VERTEX
  8
0
 10
74.156480
 20
424.891832
 42
0.023038
  0
VERTEX
  8
0
 10
66.166465
 20
420.748715
 42
0.027887
  0
VERTEX
  8
0
 10
59.104848
 20
416.120200
 42
0.026492
  0
VERTEX
  8
0
 10
52.319459
 20
410.532222
 42
0.017736
  0
VERTEX
  8
0
 10
45.150331
 20
403.477365
 42
0.012262
  0
VERTEX
  8
0
 10
40.612389
 20
398.441554
 42
0.026928
  0
VERTEX
  8
0
 10
37.454301
 20
394.330768
 42
0.026452
  0
VERTEX
  8
0
 10
34.722826
 20
389.858976
 42
0.011434
  0
VERTEX
  8
0
 10
31.545475
 20
383.643695
 42
0.016887
  0
VERTEX
  8
0
 10
27.053301
 20
373.473809
 42
0.036816
  0
VERTEX
  8
0
 10
24.465301
 20
365.354658
 42
0.035404
  0
VERTEX
  8
0
 10
23.039387
 20
356.748511
 42
0.014525
  0
VERTEX
  8
0
 10
22.277569
 20
344.929675
 42
0.025256
  0
VERTEX
  8
0
 10
22.528074
 20
328.428416
 42
0.033913
  0
VERTEX
  8
0
 10
24.517699
 20
313.611502
 42
0.036230
  0
VERTEX
  8
0
 10
28.335263
 20
300.014173
 42
0.036737
  0
VERTEX
  8
0
 10
34.061996
 20
287.175984
 42
0.067396
  0
VERTEX
  8
0
 10
48.151050
 20
267.755185
 42
0.062431
  0
VERTEX
  8
0
 10
67.236085
 20
252.198462
 42
0.047284
  0
VERTEX
  8
0
 10
94.105367
 20
238.728439
 42
0.019446
  0
VERTEX
  8
0
 10
132.675617
 20
225.460405
 42
-0.008876
  0
VERTEX
  8
0
 10
148.804846
 20
220.290540
 42
-0.026776
  0
VERTEX
  8
0
 10
159.517894
 20
215.993302
 42
-0.020614
  0
VERTEX
  8
0
 10
171.095389
 20
210.021214
 42
-0.003646
  0
VERTEX
  8
0
 10
192.241586
 20
197.779967
 42
0.000000
  0
VERTEX
  8
0
 10
203.983172
 20
190.868138
 42
0.000000
  0
VERTEX
  8
0
 10
202.535637
 20
188.068914
 42
-0.102522
  0
VERTEX
  8
0
 10
200.341659
 20
185.364566
 42
-0.084704
  0
VERTEX
  8
0
 10
197.107022
 20
183.530181
 42
-0.060291
  0
VERTEX
  8
0
 10
192.487506
 20
182.465870
 42
-0.024138
  0
VERTEX
  8
0
 10
185.998354
 20
182.090767
 42
0.034252
  0
VERTEX
  8
0
 10
176.226551
 20
181.327508
 42
0.042976
  0
VERTEX
  8
0
 10
167.387725
 20
179.236253
 42
0.041134
  0
VERTEX
  8
0
 10
158.737296
 20
175.574341
 42
0.027662
  0
VERTEX
  8
0
 10
149.518170
 20
170.073406
 42
-0.021372
  0
VERTEX
  8
0
 10
146.640770
 20
168.307068
 42
-0.022200
  0
VERTEX
  8
0
 10
143.658690
 20
166.816869
 42
-0.023355
  0
VERTEX
  8
0
 10
140.730582
 20
165.673322
 42
-0.032731
  0
VERTEX
  8
0
 10
138.018170
 20
164.951222
 42
0.003429
  0
VERTEX
  8
0
 10
135.629863
 20
164.463092
 42
0.002594
  0
VERTEX
  8
0
 10
133.014530
 20
163.895660
 42
0.002622
  0
VERTEX
  8
0
 10
130.563907
 20
163.337135
 42
0.006085
  0
VERTEX
  8
0
 10
128.733420
 20
162.886278
 42
0.066960
  0
VERTEX
  8
0
 10
125.580389
 20
161.599826
 42
0.034121
  0
VERTEX
  8
0
 10
122.016616
 20
159.217169
 42
0.034106
  0
VERTEX
  8
0
 10
118.800643
 20
156.363800
 42
0.065209
  0
VERTEX
  8
0
 10
116.723863
 20
153.612856
 42
0.102572
  0
VERTEX
  8
0
 10
116.167169
 20
151.886787
 42
0.006831
  0
VERTEX
  8
0
 10
115.676575
 20
146.677385
 42
0.008498
  0
VERTEX
  8
0
 10
115.243313
 20
139.835595
 42
0.004020
  0
VERTEX
  8
0
 10
114.905580
 20
131.000000
 42
-0.009405
  0
VERTEX
  8
0
 10
114.127247
 20
115.119901
 42
-0.027508
  0
VERTEX
  8
0
 10
112.784937
 20
104.242653
 42
-0.035318
  0
VERTEX
  8
0
 10
110.488309
 20
95.187610
 42
-0.026361
  0
VERTEX
  8
0
 10
106.745534
 20
85.586520
 42
0.011310
  0
VERTEX
  8
0
 10
104.569720
 20
80.465912
 42
0.030043
  0
VERTEX
  8
0
 10
103.323286
 20
76.693451
 42
0.033659
  0
VERTEX
  8
0
 10
102.616393
 20
73.052234
 42
0.017631
  0
VERTEX
  8
0
 10
102.204973
 20
68.452214
 42
0.011853
  0
VERTEX
  8
0
 10
102.070042
 20
63.991335
 42
0.035268
  0
VERTEX
  8
0
 10
102.265430
 20
60.941337
 42
0.042817
  0
VERTEX
  8
0
 10
102.858872
 20
58.288310
 42
0.025159
  0
VERTEX
  8
0
 10
103.992768
 20
55.238450
 42
0.058496
  0
VERTEX
  8
0
 10
106.805828
 20
50.360639
 42
0.043194
  0
VERTEX
  8
0
 10
110.948120
 20
45.697417
 42
0.044230
  0
VERTEX
  8
0
 10
115.650746
 20
41.973640
 42
0.079267
  0
VERTEX
  8
0
 10
120.131976
 20
39.955512
 42
0.061771
  0
VERTEX
  8
0
 10
125.747507
 20
39.155235
 42
0.022213
  0
VERTEX
  8
0
 10
133.833403
 20
39.367502
 42
0.022525
  0
VERTEX
  8
0
 10
142.216035
 20
40.341782
 42
0.039431
  0
VERTEX
  8
0
 10
149.000000
 20
41.998850
 42
-0.041562
  0
VERTEX
  8
0
 10
156.483446
 20
43.793067
 42
-0.041166
  0
VERTEX
  8
0
 10
164.184826
 20
44.332680
 42
-0.043602
  0
VERTEX
  8
0
 10
171.367266
 20
43.615791
 42
-0.067197
  0
VERTEX
  8
0
 10
177.282938
 20
41.650000
 42
0.012907
  0
VERTEX
  8
0
 10
179.499640
 20
40.635515
 42
0.014520
  0
VERTEX
  8
0
 10
181.681183
 20
39.778438
 42
0.013866
  0
VERTEX
  8
0
 10
183.569957
 20
39.157583
 42
0.072590
  0
VERTEX
  8
0
 10
184.649672
 20
39.000000
 42
0.196477
  0
VERTEX
  8
0
 10
187.525608
 20
40.175487
 42
0.178901
  0
VERTEX
  8
0
 10
188.898606
 20
43.086486
 42
0.098625
  0
VERTEX
  8
0
 10
188.380493
 20
47.779708
 42
0.039232
  0
VERTEX
  8
0
 10
185.936478
 20
53.811205
 42
0.062493
  0
VERTEX
  8
0
 10
181.119611
 20
61.032846
 42
0.069021
  0
VERTEX
  8
0
 10
174.808650
 20
66.567009
 42
0.065760
  0
VERTEX
  8
0
 10
166.959026
 20
70.366148
 42
0.049587
  0
VERTEX
  8
0
 10
157.597235
 20
72.462906
 42
-0.036901
  0
VERTEX
  8
0
 10
151.003289
 20
73.765339
 42
-0.111632
  0
VERTEX
  8
0
 10
146.991577
 20
75.910926
 42
-0.128734
  0
VERTEX
  8
0
 10
144.618162
 20
79.370705
 42
-0.056892
  0
VERTEX
  8
0
 10
143.336495
 20
84.806642
 42
-0.015326
  0
VERTEX
  8
0
 10
143.071540
 20
87.836141
 42
-0.131106
  0
VERTEX
  8
0
 10
143.345174
 20
89.157900
 42
-0.144803
  0
VERTEX
  8
0
 10
144.232936
 20
90.106138
 42
-0.020041
  0
VERTEX
  8
0
 10
146.638918
 20
91.391447
 42
-0.040136
  0
VERTEX
  8
0
 10
148.573759
 20
92.142653
 42
-0.016890
  0
VERTEX
  8
0
 10
151.275182
 20
92.850687
 42
-0.016583
  0
VERTEX
  8
0
 10
154.228423
 20
93.416788
 42
-0.020749
  0
VERTEX
  8
0
 10
157.000000
 20
93.736185
 42
-0.012188
  0
VERTEX
  8
0
 10
160.732918
 20
93.918748
 42
-0.055128
  0
VERTEX
  8
0
 10
162.902377
 20
93.732472
 42
-0.078050
  0
VERTEX
  8
0
 10
164.597900
 20
93.110517
 42
-0.040584
  0
VERTEX
  8
0
 10
166.476865
 20
91.856555
 42
0.000000
  0
VERTEX
  8
0
 10
169.453730
 20
89.500000
 42
0.000000
  0
VERTEX
  8
0
 10
164.216024
 20
88.857906
 42
0.056992
  0
VERTEX
  8
0
 10
158.409132
 20
87.462420
 42
0.137103
  0
VERTEX
  8
0
 10
154.846787
 20
84.907313
 42
0.225054
  0
VERTEX
  8
0
 10
154.098423
 20
81.758609
 42
0.157751
  0
VERTEX
  8
0
 10
155.946115
 20
78.548765
 42
0.056206
  0
VERTEX
  8
0
 10
157.208264
 20
77.641459
 42
0.110270
  0
VERTEX
  8
0
 10
158.387338
 20
77.287907
 42
0.068606
  0
VERTEX
  8
0
 10
159.955990
 20
77.390527
 42
0.012142
  0
VERTEX
  8
0
 10
162.834487
 20
78.054218
 42
-0.018202
  0
VERTEX
  8
0
 10
165.918808
 20
78.726117
 42
-0.083261
  0
VERTEX
  8
0
 10
167.745938
 20
78.747958
 42
-0.078809
  0
VERTEX
  8
0
 10
169.527988
 20
78.174211
 42
-0.015331
  0
VERTEX
  8
0
 10
172.501998
 20
76.551697
 42
0.014788
  0
VERTEX
  8
0
 10
175.064611
 20
75.150017
 42
0.057562
  0
VERTEX
  8
0
 10
176.756183
 20
74.521125
 42
0.090113
  0
VERTEX
  8
0
 10
178.127044
 20
74.437116
 42
0.077402
  0
VERTEX
  8
0
 10
179.520103
 20
74.827206
 42
0.236934
  0
VERTEX
  8
0
 10
182.274271
 20
78.247132
 42
0.097017
  0
VERTEX
  8
0
 10
182.392344
 20
84.374825
 42
0.077066
  0
VERTEX
  8
0
 10
179.980047
 20
91.463971
 42
0.076041
  0
VERTEX
  8
0
 10
175.526316
 20
97.526316
 42
0.071361
  0
VERTEX
  8
0
 10
169.682599
 20
101.903774
 42
0.083921
  0
VERTEX
  8
0
 10
163.152762
 20
104.162212
 42
0.072598
  0
VERTEX
  8
0
 10
155.497115
 20
104.319889
 42
0.039303
  0
VERTEX
  8
0
 10
146.250000
 20
102.417338
 42
-0.221695
  0
VERTEX
  8
0
 10
144.678866
 20
102.662600
 42
-0.279535
  0
VERTEX
  8
0
 10
144.071358
 20
103.971827
 42
-0.072269
  0
VERTEX
  8
0
 10
144.869276
 20
107.032911
 42
-0.011906
  0
VERTEX
  8
0
 10
147.383794
 20
112.617216
 42
-0.056329
  0
VERTEX
  8
0
 10
152.518711
 20
120.817742
 42
-0.069655
  0
VERTEX
  8
0
 10
159.047415
 20
127.019634
 42
-0.072156
  0
VERTEX
  8
0
 10
166.825749
 20
131.035432
 42
-0.066767
  0
VERTEX
  8
0
 10
175.635138
 20
132.813753
 42
-0.030886
  0
VERTEX
  8
0
 10
181.598355
 20
132.838211
 42
-0.013252
  0
VERTEX
  8
0
 10
189.535972
 20
132.168650
 42
-0.012670
  0
VERTEX
  8
0
 10
198.280144
 20
130.972097
 42
-0.013030
  0
VERTEX
  8
0
 10
206.870659
 20
129.343176
 42
0.030701
  0
VERTEX
  8
0
 10
212.351707
 20
128.503191
 42
0.024467
  0
VERTEX
  8
0
 10
218.329346
 20
128.253409
 42
0.025112
  0
VERTEX
  8
0
 10
224.002392
 20
128.579262
 42
0.046772
  0
VERTEX
  8
0
 10
228.510917
 20
129.498181
 42
-0.130037
  0
VERTEX
  8
0
 10
229.628041
 20
129.538322
 42
-0.209733
  0
VERTEX
  8
0
 10
230.381416
 20
128.981864
 42
-0.075165
  0
VERTEX
  8
0
 10
230.954391
 20
127.509398
 42
-0.008312
  0
VERTEX
  8
0
 10
231.690236
 20
123.960113
 42
0.024940
  0
VERTEX
  8
0
 10
232.327249
 20
121.330560
 42
0.019365
  0
VERTEX
  8
0
 10
233.271056
 20
118.541205
 42
0.019762
  0
VERTEX
  8
0
 10
234.360804
 20
115.995792
 42
0.042554
  0
VERTEX
  8
0
 10
235.436518
 20
114.156003
 42
0.000698
  0
VERTEX
  8
0
 10
236.814440
 20
112.207585
 42
0.000186
  0
VERTEX
  8
0
 10
239.012717
 20
109.110799
 42
0.000189
  0
VERTEX
  8
0
 10
241.513652
 20
105.593247
 42
0.000195
  0
VERTEX
  8
0
 10
243.990808
 20
102.114802
 42
-0.022017
  0
VERTEX
  8
0
 10
249.812246
 20
93.135549
 42
-0.014845
  0
VERTEX
  8
0
 10
255.684035
 20
82.424984
 42
-0.014563
  0
VERTEX
  8
0
 10
261.069076
 20
71.065164
 42
-0.017606
  0
VERTEX
  8
0
 10
265.427394
 20
60.100393
 42
0.022240
  0
VERTEX
  8
0
 10
268.969570
 20
51.423937
 42
0.077555
  0
VERTEX
  8
0
 10
272.309762
 20
46.401365
 42
0.110269
  0
VERTEX
  8
0
 10
276.323346
 20
43.599349
 42
0.073640
  0
VERTEX
  8
0
 10
281.784292
 20
42.246705
 42
0.041841
  0
VERTEX
  8
0
 10
285.122609
 20
42.206108
 42
0.066801
  0
VERTEX
  8
0
 10
287.911675
 20
42.785650
 42
0.040512
  0
VERTEX
  8
0
 10
291.303759
 20
44.297441
 42
0.007123
  0
VERTEX
  8
0
 10
297.385600
 20
47.735258
 42
-0.129200
  0
VERTEX
  8
0
 10
302.050000
 20
49.034980
 42
-0.035802
  0
VERTEX
  8
0
 10
309.701425
 20
48.599938
 42
-0.035111
  0
VERTEX
  8
0
 10
318.246004
 20
46.880641
 42
-0.039324
  0
VERTEX
  8
0
 10
326.135921
 20
44.024145
 42
0.020292
  0
VERTEX
  8
0
 10
329.690190
 20
42.582252
 42
0.076981
  0
VERTEX
  8
0
 10
332.037022
 20
42.128098
 42
0.119009
  0
VERTEX
  8
0
 10
333.846536
 20
42.493786
 42
0.087494
  0
VERTEX
  8
0
 10
335.528913
 20
43.671770
 42
0.273602
  0
VERTEX
  8
0
 10
336.928469
 20
49.124067
 42
0.056075
  0
VERTEX
  8
0
 10
332.943527
 20
58.685017
 42
0.055197
  0
VERTEX
  8
0
 10
326.783705
 20
67.364351
 42
0.214005
  0
VERTEX
  8
0
 10
320.907824
 20
70.000000
 42
0.149715
  0
VERTEX
  8
0
 10
317.896311
 20
69.077588
 42
0.188444
  0
VERTEX
  8
0
 10
316.253239
 20
66.695550
 42
0.158994
  0
VERTEX
  8
0
 10
316.523660
 20
63.485289
 42
0.106399
  0
VERTEX
  8
0
 10
318.656737
 20
60.442321
 42
-0.017788
  0
VERTEX
  8
0
 10
320.691997
 20
58.416878
 42
-0.390305
  0
VERTEX
  8
0
 10
320.698164
 20
57.646235
 42
-0.259574
  0
VERTEX
  8
0
 10
319.798058
 20
57.341321
 42
-0.011627
  0
VERTEX
  8
0
 10
316.471925
 20
58.031402
 42
0.021217
  0
VERTEX
  8
0
 10
314.577171
 20
58.386760
 42
0.010220
  0
VERTEX
  8
0
 10
312.124566
 20
58.688785
 42
0.010113
  0
VERTEX
  8
0
 10
309.550199
 20
58.900001
 42
0.014274
  0
VERTEX
  8
0
 10
307.250000
 20
58.976143
 42
-0.015885
  0
VERTEX
  8
0
 10
305.237426
 20
59.049253
 42
-0.025933
  0
VERTEX
  8
0
 10
303.542188
 20
59.253544
 42
-0.023820
  0
VERTEX
  8
0
 10
302.266273
 20
59.538080
 42
-0.337992
  0
VERTEX
  8
0
 10
302.000000
 20
59.886986
 42
-0.121622
  0
VERTEX
  8
0
 10
302.137327
 20
60.443200
 42
-0.007585
  0
VERTEX
  8
0
 10
302.954687
 20
61.941930
 42
-0.010853
  0
VERTEX
  8
0
 10
304.005034
 20
63.709547
 42
-0.007820
  0
VERTEX
  8
0
 10
305.250000
 20
65.636986
 42
-0.059894
  0
VERTEX
  8
0
 10
309.554298
 20
70.657058
 42
-0.052145
  0
VERTEX
  8
0
 10
315.119485
 20
74.784784
 42
-0.046646
  0
VERTEX
  8
0
 10
322.012241
 20
78.036081
 42
-0.032425
  0
VERTEX
  8
0
 10
330.284009
 20
80.438841
 42
0.107241
  0
VERTEX
  8
0
 10
332.497245
 20
81.457992
 42
0.109375
  0
VERTEX
  8
0
 10
334.070488
 20
83.296844
 42
0.115592
  0
VERTEX
  8
0
 10
334.666733
 20
85.541217
 42
0.130966
  0
VERTEX
  8
0
 10
334.157978
 20
87.704815
 42
0.094967
  0
VERTEX
  8
0
 10
333.378110
 20
88.667705
 42
0.017327
  0
VERTEX
  8
0
 10
331.565859
 20
90.091753
 42
0.018084
  0
VERTEX
  8
0
 10
329.295799
 20
91.628846
 42
0.015550
  0
VERTEX
  8
0
 10
326.805097
 20
93.081308
 42
0.017294
  0
VERTEX
  8
0
 10
322.799165
 20
95.077327
 42
0.055317
  0
VERTEX
  8
0
 10
319.967163
 20
96.006883
 42
0.043765
  0
VERTEX
  8
0
 10
316.669149
 20
96.401734
 42
0.007940
  0
VERTEX
  8
0
 10
310.500000
 20
96.499230
 42
0.007732
  0
VERTEX
  8
0
 10
304.619395
 20
96.407838
 42
0.037613
  0
VERTEX
  8
0
 10
301.306914
 20
96.054748
 42
0.053522
  0
VERTEX
  8
0
 10
298.652535
 20
95.267488
 42
0.026909
  0
VERTEX
  8
0
 10
295.500000
 20
93.748251
 42
0.005016
  0
VERTEX
  8
0
 10
293.428918
 20
92.581854
 42
0.004731
  0
VERTEX
  8
0
 10
291.340665
 20
91.351563
 42
0.004707
  0
VERTEX
  8
0
 10
289.511487
 20
90.226860
 42
0.016392
  0
VERTEX
  8
0
 10
288.361838
 20
89.451307
 42
-0.107101
  0
VERTEX
  8
0
 10
287.031761
 20
88.868675
 42
-0.287917
  0
VERTEX
  8
0
 10
286.106523
 20
89.218199
 42
-0.071615
  0
VERTEX
  8
0
 10
285.213907
 20
90.829279
 42
-0.003944
  0
VERTEX
  8
0
 10
283.203091
 20
96.252367
 42
-0.039265
  0
VERTEX
  8
0
 10
279.583321
 20
109.398194
 42
-0.097567
  0
VERTEX
  8
0
 10
279.626149
 20
119.333709
 42
-0.115467
  0
VERTEX
  8
0
 10
283.349038
 20
127.478272
 42
-0.068725
  0
VERTEX
  8
0
 10
291.005458
 20
134.975644
 42
0.024494
  0
VERTEX
  8
0
 10
297.439806
 20
140.249964
 42
0.015174
  0
VERTEX
  8
0
 10
304.484392
 20
147.026011
 42
0.015231
  0
VERTEX
  8
0
 10
310.994699
 20
154.098679
 42
0.028448
  0
VERTEX
  8
0
 10
315.744612
 20
160.261012
 42
-0.011786
  0
VERTEX
  8
0
 10
318.402283
 20
163.957311
 42
-0.048475
  0
VERTEX
  8
0
 10
320.267356
 20
165.984319
 42
-0.071706
  0
VERTEX
  8
0
 10
322.094878
 20
167.199858
 42
-0.049712
  0
VERTEX
  8
0
 10
324.434036
 20
168.038977
 42
0.020332
  0
VERTEX
  8
0
 10
329.784504
 20
169.610857
 42
0.006633
  0
VERTEX
  8
0
 10
337.544867
 20
172.353084
 42
0.005876
  0
VERTEX
  8
0
 10
346.998001
 20
175.961934
 42
0.003758
  0
VERTEX
  8
0
 10
357.899258
 20
180.366105
 42
-0.009289
  0
VERTEX
  8
0
 10
367.860708
 20
184.262984
 42
-0.099597
  0
VERTEX
  8
0
 10
372.125076
 20
184.932698
 42
-0.146600
  0
VERTEX
  8
0
 10
375.640947
 20
183.713121
 42
-0.027431
  0
VERTEX
  8
0
 10
381.003956
 20
179.377461
 42
-0.047734
  0
VERTEX
  8
0
 10
384.044955
 20
176.051612
 42
-0.072817
  0
VERTEX
  8
0
 10
385.916632
 20
172.624844
 42
-0.082956
  0
VERTEX
  8
0
 10
386.580252
 20
169.155635
 42
-0.085771
  0
VERTEX
  8
0
 10
386.066512
 20
165.701534
 42
-0.088663
  0
VERTEX
  8
0
 10
384.311528
 20
162.455480
 42
-0.025294
  0
VERTEX
  8
0
 10
380.506816
 20
158.144340
 42
-0.026265
  0
VERTEX
  8
0
 10
376.129277
 20
154.110001
 42
-0.056714
  0
VERTEX
  8
0
 10
372.299660
 20
151.607542
 42
-0.088188
  0
VERTEX
  8
0
 10
367.189798
 20
150.085096
 42
-0.077541
  0
VERTEX
  8
0
 10
361.623317
 20
150.314142
 42
-0.071742
  0
VERTEX
  8
0
 10
356.015559
 20
152.292356
 42
-0.059610
  0
VERTEX
  8
0
 10
350.795257
 20
155.874904
 42
0.029642
  0
VERTEX
  8
0
 10
348.085009
 20
157.983844
 42
0.104194
  0
VERTEX
  8
0
 10
346.055530
 20
158.828435
 42
0.152860
  0
VERTEX
  8
0
 10
344.308198
 20
158.623680
 42
0.091599
  0
VERTEX
  8
0
 10
342.571429
 20
157.428571
 42
0.218391
  0
VERTEX
  8
0
 10
341.159061
 20
153.622927
 42
0.083567
  0
VERTEX
  8
0
 10
342.541692
 20
148.007276
 42
0.058438
  0
VERTEX
  8
0
 10
346.500126
 20
141.171610
 42
0.031551
  0
VERTEX
  8
0
 10
352.810558
 20
133.751025
 42
0.032156
  0
VERTEX
  8
0
 10
358.509937
 20
128.560534
 42
0.038907
  0
VERTEX
  8
0
 10
364.492207
 20
124.497302
 42
0.043555
  0
VERTEX
  8
0
 10
370.224704
 20
121.855691
 42
0.086403
  0
VERTEX
  8
0
 10
375.139486
 20
121.000000
 42
0.077091
  0
VERTEX
  8
0
 10
380.622711
 20
121.850466
 42
0.078757
  0
VERTEX
  8
0
 10
385.546521
 20
124.320355
 42
0.040983
  0
VERTEX
  8
0
 10
391.641621
 20
129.496572
 42
0.006854
  0
VERTEX
  8
0
 10
402.344602
 20
140.509755
 42
0.003523
  0
VERTEX
  8
0
 10
410.808265
 20
149.588288
 42
0.017946
  0
VERTEX
  8
0
 10
415.295723
 20
154.836369
 42
0.032571
  0
VERTEX
  8
0
 10
417.937882
 20
158.645676
 42
0.055074
  0
VERTEX
  8
0
 10
419.559913
 20
162.170652
 42
0.065906
  0
VERTEX
  8
0
 10
421.204354
 20
170.739365
 42
0.067508
  0
VERTEX
  8
0
 10
420.540121
 20
179.368286
 42
0.067105
  0
VERTEX
  8
0
 10
417.592859
 20
187.552787
 42
0.063851
  0
VERTEX
  8
0
 10
412.545454
 20
194.818007
 42
0.000000
  0
VERTEX
  8
0
 10
408.861239
 20
198.895993
 42
0.000000
  0
VERTEX
  8
0
 10
413.835991
 20
201.416890
 42
0.000000
  0
VERTEX
  8
0
 10
418.810743
 20
203.937788
 42
0.000000
  0
VERTEX
  8
0
 10
420.356464
 20
201.578720
 42
0.025097
  0
VERTEX
  8
0
 10
421.282688
 20
200.308974
 42
0.005280
  0
VERTEX
  8
0
 10
423.033921
 20
198.191305
 42
0.005521
  0
VERTEX
  8
0
 10
425.120512
 20
195.776285
 42
0.005207
  0
VERTEX
  8
0
 10
427.300624
 20
193.359826
 42
-0.021611
  0
VERTEX
  8
0
 10
433.032456
 20
186.571646
 42
-0.132646
  0
VERTEX
  8
0
 10
434.775766
 20
182.381407
 42
-0.140720
  0
VERTEX
  8
0
 10
434.118611
 20
178.006597
 42
-0.025394
  0
VERTEX
  8
0
 10
430.283782
 20
170.631191
 42
0.017527
  0
VERTEX
  8
0
 10
428.248777
 20
166.863315
 42
0.009777
  0
VERTEX
  8
0
 10
426.024655
 20
162.146356
 42
0.009744
  0
VERTEX
  8
0
 10
423.959085
 20
157.281998
 42
0.015576
  0
VERTEX
  8
0
 10
422.407400
 20
153.043301
 42
-0.007269
  0
VERTEX
  8
0
 10
420.516560
 20
147.599711
 42
-0.043204
  0
VERTEX
  8
0
 10
419.248444
 20
144.872217
 42
-0.081603
  0
VERTEX
  8
0
 10
417.919162
 20
143.243147
 42
-0.073712
  0
VERTEX
  8
0
 10
416.094203
 20
142.056894
 42
0.110418
  0
VERTEX
  8
0
 10
413.366960
 20
139.987179
 42
0.141357
  0
VERTEX
  8
0
 10
412.084941
 20
137.122702
 42
0.159292
  0
VERTEX
  8
0
 10
412.592733
 20
134.266746
 42
0.147942
  0
VERTEX
  8
0
 10
414.699929
 20
132.160593
 42
0.158181
  0
VERTEX
  8
0
 10
417.068934
 20
131.735293
 42
0.051297
  0
VERTEX
  8
0
 10
420.571097
 20
132.587251
 42
0.050195
  0
VERTEX
  8
0
 10
424.096786
 20
134.253286
 42
0.078890
  0
VERTEX
  8
0
 10
426.655563
 20
136.405018
 42
0.066019
  0
VERTEX
  8
0
 10
427.673716
 20
137.951297
 42
0.012421
  0
VERTEX
  8
0
 10
429.074483
 20
141.041345
 42
0.013087
  0
VERTEX
  8
0
 10
430.536577
 20
144.760181
 42
0.011656
  0
VERTEX
  8
0
 10
431.863223
 20
148.695974
 42
-0.012501
  0
VERTEX
  8
0
 10
433.253917
 20
152.798854
 42
-0.010912
  0
VERTEX
  8
0
 10
434.908539
 20
157.019407
 42
-0.011037
  0
VERTEX
  8
0
 10
436.572127
 20
160.769593
 42
-0.031703
  0
VERTEX
  8
0
 10
437.944331
 20
163.263709
 42
0.011963
  0
VERTEX
  8
0
 10
441.503846
 20
169.169165
 42
0.034951
  0
VERTEX
  8
0
 10
443.565860
 20
173.452719
 42
0.047911
  0
VERTEX
  8
0
 10
444.638246
 20
177.140115
 42
0.046852
  0
VERTEX
  8
0
 10
445.000000
 20
180.992281
 42
0.048309
  0
VERTEX
  8
0
 10
444.521974
 20
185.928284
 42
0.071339
  0
VERTEX
  8
0
 10
443.091329
 20
190.030980
 42
0.050862
  0
VERTEX
  8
0
 10
440.184862
 20
194.471102
 42
0.013785
  0
VERTEX
  8
0
 10
434.710149
 20
200.856031
 42
0.000000
  0
VERTEX
  8
0
 10
427.135833
 20
209.212062
 42
0.000000
  0
VERTEX
  8
0
 10
434.317917
 20
214.921937
 42
0.032968
  0
VERTEX
  8
0
 10
445.798722
 20
225.354680
 42
0.027942
  0
VERTEX
  8
0
 10
456.503688
 20
237.773749
 42
0.026971
  0
VERTEX
  8
0
 10
466.127502
 20
251.792367
 42
0.025568
  0
VERTEX
  8
0
 10
474.374064
 20
267.011951
 42
0.010799
  0
VERTEX
  8
0
 10
478.887203
 20
277.014976
 42
0.023448
  0
VERTEX
  8
0
 10
481.818907
 20
284.914995
 42
0.024064
  0
VERTEX
  8
0
 10
483.953023
 20
292.926298
 42
0.011993
  0
VERTEX
  8
0
 10
485.918147
 20
303.242200
 42
0.008792
  0
VERTEX
  8
0
 10
487.884630
 20
316.553302
 42
0.012631
  0
VERTEX
  8
0
 10
489.119752
 20
328.406351
 42
0.012261
  0
VERTEX
  8
0
 10
489.777767
 20
340.569344
 42
0.007627
  0
VERTEX
  8
0
 10
489.981680
 20
354.855955
 42
0.031361
  0
VERTEX
  8
0
 10
487.980951
 20
386.230074
 42
0.050130
  0
VERTEX
  8
0
 10
481.953950
 20
412.375378
 42
0.056514
  0
VERTEX
  8
0
 10
471.566789
 20
434.459343
 42
0.056857
  0
VERTEX
  8
0
 10
456.516287
 20
453.607557
 42
0.041138
  0
VERTEX
  8
0
 10
443.260605
 20
464.974210
 42
0.082124
  0
VERTEX
  8
0
 10
430.934141
 20
471.123097
 42
0.083420
  0
VERTEX
  8
0
 10
417.414416
 20
472.923377
 42
0.043570
  0
SEQEND
  0
POLYLINE
  8
0
 66
1
 70
1
  0
VERTEX
  8
0
 10
431.000000
 20
460.320868
 42
-0.046205
  0
VERTEX
  8
0
 10
436.085464
 20
457.468114
 42
-0.020134
  0
VERTEX
  8
0
 10
442.284043
 20
452.816009
 42
-0.019714
  0
VERTEX
  8
0
 10
448.520767
 20
447.307066
 42
-0.024749
  0
VERTEX
  8
0
 10
453.824442
 20
441.708646
 42
-0.080109
  0
VERTEX
  8
0
 10
468.822244
 20
417.191892
 42
-0.056920
  0
VERTEX
  8
0
 10
477.600911
 20
386.127208
 42
-0.048407
  0
VERTEX
  8
0
 10
480.019124
 20
348.951631
 42
-0.031600
  0
VERTEX
  8
0
 10
475.940292
 20
306.127547
 42
-0.014810
  0
VERTEX
  8
0
 10
474.002014
 20
295.925742
 42
-0.022461
  0
VERTEX
  8
0
 10
471.660916
 20
287.205667
 42
-0.022851
  0
VERTEX
  8
0
 10
468.580262
 20
278.841427
 42
-0.016094
  0
VERTEX
  8
0
 10
464.394049
 20
269.732178
 42
-0.035279
  0
VERTEX
  8
0
 10
453.329466
 20
250.998018
 42
-0.038126
  0
VERTEX
  8
0
 10
439.995577
 20
234.516966
 42
-0.039467
  0
VERTEX
  8
0
 10
424.792630
 20
220.761459
 42
-0.044239
  0
VERTEX
  8
0
 10
408.160317
 20
210.144216
 42
-0.006471
  0
VERTEX
  8
0
 10
403.543577
 20
207.817745
 42
-0.040224
  0
VERTEX
  8
0
 10
401.077036
 20
206.851313
 42
-0.089068
  0
VERTEX
  8
0
 10
399.466030
 20
206.664641
 42
-0.148445
  0
VERTEX
  8
0
 10
398.196806
 20
207.138105
 42
-0.013538
  0
VERTEX
  8
0
 10
394.251411
 20
210.321154
 42
-0.006460
  0
VERTEX
  8
0
 10
389.345625
 20
214.613928
 42
-0.001589
  0
VERTEX
  8
0
 10
384.326165
 20
219.150893
 42
-0.211227
  0
VERTEX
  8
0
 10
384.000000
 20
219.888518
 42
-0.239124
  0
VERTEX
  8
0
 10
384.767615
 20
221.401798
 42
-0.004547
  0
VERTEX
  8
0
 10
392.150299
 20
226.704039
 42
-0.011311
  0
VERTEX
  8
0
 10
400.188108
 20
232.098859
 42
-0.013542
  0
VERTEX
  8
0
 10
408.000000
 20
236.796599
 42
0.008213
  0
VERTEX
  8
0
 10
413.716292
 20
240.151707
 42
0.031218
  0
VERTEX
  8
0
 10
417.108836
 20
242.520803
 42
0.046096
  0
VERTEX
  8
0
 10
419.457892
 20
244.772065
 42
0.039157
  0
VERTEX
  8
0
 10
421.500000
 20
247.536399
 42
0.026468
  0
VERTEX
  8
0
 10
423.097335
 20
250.425492
 42
0.049223
  0
VERTEX
  8
0
 10
424.023797
 20
252.934179
 42
0.040204
  0
VERTEX
  8
0
 10
424.547626
 20
255.896260
 42
0.012402
  0
VERTEX
  8
0
 10
424.864316
 20
260.421519
 42
-0.012278
  0
VERTEX
  8
0
 10
425.130251
 20
264.235131
 42
-0.025949
  0
VERTEX
  8
0
 10
425.561541
 20
267.166930
 42
-0.033628
  0
VERTEX
  8
0
 10
426.167786
 20
269.399278
 42
-0.070193
  0
VERTEX
  8
0
 10
426.986069
 20
271.000000
 42
0.030801
  0
VERTEX
  8
0
 10
429.567456
 20
275.199620
 42
0.018699
  0
VERTEX
  8
0
 10
432.115724
 20
280.445940
 42
0.017372
  0
VERTEX
  8
0
 10
434.487324
 20
286.383163
 42
0.015551
  0
VERTEX
  8
0
 10
436.537574
 20
292.692535
 42
0.033868
  0
VERTEX
  8
0
 10
438.318829
 20
300.834519
 42
0.029539
  0
VERTEX
  8
0
 10
439.090932
 20
309.525182
 42
0.030205
  0
VERTEX
  8
0
 10
438.829356
 20
318.003751
 42
0.041691
  0
VERTEX
  8
0
 10
437.507300
 20
325.500000
 42
0.029969
  0
VERTEX
  8
0
 10
435.228440
 20
332.427174
 42
0.018824
  0
VERTEX
  8
0
 10
431.786986
 20
340.230034
 42
0.018493
  0
VERTEX
  8
0
 10
427.650616
 20
347.984693
 42
0.023582
  0
VERTEX
  8
0
 10
423.250000
 20
354.787936
 42
-0.004217
  0
VERTEX
  8
0
 10
421.238545
 20
357.648351
 42
-0.006415
  0
VERTEX
  8
0
 10
419.544450
 20
360.169748
 42
-0.002715
  0
VERTEX
  8
0
 10
418.141547
 20
362.342432
 42
-0.145793
  0
VERTEX
  8
0
 10
418.007702
 20
362.810763
 42
-0.220835
  0
VERTEX
  8
0
 10
418.185506
 20
363.182762
 42
-0.013101
  0
VERTEX
  8
0
 10
419.193616
 20
363.971698
 42
-0.017741
  0
VERTEX
  8
0
 10
420.493694
 20
364.865635
 42
-0.011997
  0
VERTEX
  8
0
 10
422.034041
 20
365.795018
 42
0.055898
  0
VERTEX
  8
0
 10
425.144317
 20
368.065496
 42
0.033085
  0
VERTEX
  8
0
 10
428.321075
 20
371.391849
 42
0.030089
  0
VERTEX
  8
0
 10
431.371158
 20
375.522025
 42
0.025217
  0
VERTEX
  8
0
 10
434.103628
 20
380.234000
 42
-0.071617
  0
VERTEX
  8
0
 10
436.115673
 20
383.063858
 42
-0.127635
  0
VERTEX
  8
0
 10
438.527500
 20
384.561994
 42
-0.127836
  0
VERTEX
  8
0
 10
441.360694
 20
384.697083
 42
-0.071962
  0
VERTEX
  8
0
 10
444.615151
 20
383.507921
 42
0.017048
  0
VERTEX
  8
0
 10
446.670362
 20
382.489909
 42
0.103281
  0
VERTEX
  8
0
 10
447.824136
 20
382.231926
 42
0.121651
  0
VERTEX
  8
0
 10
448.895606
 20
382.480504
 42
0.027497
  0
VERTEX
  8
0
 10
450.524811
 20
383.424300
 42
0.042682
  0
VERTEX
  8
0
 10
451.722738
 20
384.364331
 42
0.082829
  0
VERTEX
  8
0
 10
452.461601
 20
385.326530
 42
0.091199
  0
VERTEX
  8
0
 10
452.806182
 20
386.410905
 42
0.061357
  0
VERTEX
  8
0
 10
452.810380
 20
387.713719
 42
0.131498
  0
VERTEX
  8
0
 10
451.744883
 20
390.374934
 42
0.095210
  0
VERTEX
  8
0
 10
449.372299
 20
392.535318
 42
0.074819
  0
VERTEX
  8
0
 10
445.805241
 20
394.040974
 42
0.045079
  0
VERTEX
  8
0
 10
441.263438
 20
394.773718
 42
0.017304
  0
VERTEX
  8
0
 10
438.074430
 20
394.886194
 42
0.052662
  0
VERTEX
  8
0
 10
435.920938
 20
394.660165
 42
0.063066
  0
VERTEX
  8
0
 10
434.082043
 20
394.018424
 42
0.033669
  0
VERTEX
  8
0
 10
432.000000
 20
392.801189
 42
0.030666
  0
VERTEX
  8
0
 10
430.513820
 20
391.653297
 42
0.019995
  0
VERTEX
  8
0
 10
428.940625
 20
390.161142
 42
0.020120
  0
VERTEX
  8
0
 10
427.517895
 20
388.576493
 42
0.035810
  0
VERTEX
  8
0
 10
426.500000
 20
387.150039
 42
-0.014611
  0
VERTEX
  8
0
 10
423.001724
 20
381.780287
 42
-0.032324
  0
VERTEX
  8
0
 10
419.961931
 20
377.953296
 42
-0.041485
  0
VERTEX
  8
0
 10
417.023489
 20
375.204905
 42
-0.051960
  0
VERTEX
  8
0
 10
413.873679
 20
373.207060
 42
-0.021925
  0
VERTEX
  8
0
 10
411.040483
 20
371.950080
 42
-0.065249
  0
VERTEX
  8
0
 10
408.983628
 20
371.439285
 42
-0.055871
  0
VERTEX
  8
0
 10
406.694261
 20
371.435908
 42
-0.013019
  0
VERTEX
  8
0
 10
402.881036
 20
371.958455
 42
0.024727
  0
VERTEX
  8
0
 10
393.038421
 20
373.073240
 42
0.010035
  0
VERTEX
  8
0
 10
379.554050
 20
373.657048
 42
0.010075
  0
VERTEX
  8
0
 10
365.420226
 20
373.700158
 42
0.015686
  0
VERTEX
  8
0
 10
353.253583
 20
373.109995
 42
-0.010637
  0
VERTEX
  8
0
 10
342.487247
 20
372.478751
 42
-0.066948
  0
VERTEX
  8
0
 10
337.023043
 20
373.007172
 42
-0.105993
  0
VERTEX
  8
0
 10
333.057728
 20
374.880273
 42
-0.046077
  0
VERTEX
  8
0
 10
328.750000
 20
378.850010
 42
-0.035298
  0
VERTEX
  8
0
 10
325.386924
 20
383.151636
 42
-0.348204
  0
VERTEX
  8
0
 10
325.552387
 20
385.291786
 42
-0.179923
  0
VERTEX
  8
0
 10
328.144755
 20
386.600322
 42
-0.011875
  0
VERTEX
  8
0
 10
336.621652
 20
387.345377
 42
0.030250
  0
VERTEX
  8
0
 10
354.200718
 20
389.543562
 42
0.030964
  0
VERTEX
  8
0
 10
371.246488
 20
393.837817
 42
0.032131
  0
VERTEX
  8
0
 10
386.985381
 20
399.995615
 42
0.039864
  0
VERTEX
  8
0
 10
400.653282
 20
407.764548
 42
-0.007087
  0
VERTEX
  8
0
 10
404.477997
 20
410.283404
 42
-0.075374
  0
VERTEX
  8
0
 10
406.177018
 20
411.037543
 42
-0.143679
  0
VERTEX
  8
0
 10
407.590746
 20
411.011915
 42
-0.046881
  0
VERTEX
  8
0
 10
409.534449
 20
410.196484
 42
0.096142
  0
VERTEX
  8
0
 10
413.234251
 20
409.055152
 42
0.024483
  0
VERTEX
  8
0
 10
419.530454
 20
408.685950
 42
0.021700
  0
VERTEX
  8
0
 10
425.758519
 20
408.896404
 42
0.155114
  0
VERTEX
  8
0
 10
428.516826
 20
410.013964
 42
0.141746
  0
VERTEX
  8
0
 10
429.543728
 20
411.526458
 42
0.069734
  0
VERTEX
  8
0
 10
429.953525
 20
413.836161
 42
0.069485
  0
VERTEX
  8
0
 10
429.712591
 20
416.180952
 42
0.136910
  0
VERTEX
  8
0
 10
428.800000
 20
417.800000
 42
0.136559
  0
VERTEX
  8
0
 10
427.944498
 20
418.282990
 42
0.022477
  0
VERTEX
  8
0
 10
426.065650
 20
418.659107
 42
0.022494
  0
VERTEX
  8
0
 10
423.692365
 20
418.915575
 42
0.015668
  0
VERTEX
  8
0
 10
420.998835
 20
419.000000
 42
-0.018085
  0
VERTEX
  8
0
 10
417.052384
 20
419.142788
 42
-0.057888
  0
VERTEX
  8
0
 10
414.469819
 20
419.634051
 42
-0.053958
  0
VERTEX
  8
0
 10
411.973709
 20
420.723197
 42
-0.014246
  0
VERTEX
  8
0
 10
408.250982
 20
422.994038
 42
0.035160
  0
VERTEX
  8
0
 10
400.318978
 20
427.388630
 42
0.035152
  0
VERTEX
  8
0
 10
391.848836
 20
430.628837
 42
0.031286
  0
VERTEX
  8
0
 10
382.157557
 20
432.923992
 42
0.019108
  0
VERTEX
  8
0
 10
370.500000
 20
434.469176
 42
-0.012827
  0
VERTEX
  8
0
 10
362.999386
 20
435.367670
 42
-0.004878
  0
VERTEX
  8
0
 10
352.589295
 20
436.990339
 42
-0.004709
  0
VERTEX
  8
0
 10
340.984380
 20
439.027894
 42
-0.004808
  0
VERTEX
  8
0
 10
329.500000
 20
441.270408
 42
-0.004634
  0
VERTEX
  8
0
 10
323.015901
 20
442.664138
 42
-0.040706
  0
VERTEX
  8
0
 10
320.215129
 20
443.537763
 42
-0.108857
  0
VERTEX
  8
0
 10
318.817681
 20
444.495009
 42
-0.154153
  0
VERTEX
  8
0
 10
318.169882
 20
445.844818
 42
-0.148551
  0
VERTEX
  8
0
 10
318.610847
 20
448.697073
 42
-0.048489
  0
VERTEX
  8
0
 10
320.843464
 20
452.377819
 42
-0.046008
  0
VERTEX
  8
0
 10
324.100618
 20
455.987640
 42
-0.053719
  0
VERTEX
  8
0
 10
327.809475
 20
458.734233
 42
0.000000
  0
VERTEX
  8
0
 10
332.259318
 20
461.342014
 42
0.000000
  0
VERTEX
  8
0
 10
345.019212
 20
459.535333
 42
0.025847
  0
VERTEX
  8
0
 10
358.767567
 20
458.308866
 42
0.015112
  0
VERTEX
  8
0
 10
375.309143
 20
458.191933
 42
0.015090
  0
VERTEX
  8
0
 10
391.389122
 20
459.050299
 42
0.033615
  0
VERTEX
  8
0
 10
403.500000
 20
460.889527
 42
-0.026200
  0
VERTEX
  8
0
 10
411.536313
 20
462.232079
 42
-0.033467
  0
VERTEX
  8
0
 10
419.034311
 20
462.578992
 42
-0.037451
  0
VERTEX
  8
0
 10
425.647538
 20
461.945215
 42
-0.062197
  0
SEQEND
  0
POLYLINE
  8
0
 66
1
 70
1
  0
VERTEX
  8
0
 10
125.566341
 20
420.909228
 42
-0.046071
  0
VERTEX
  8
0
 10
138.448505
 20
417.290169
 42
-0.046249
  0
VERTEX
  8
0
 10
150.432552
 20
411.376757
 42
-0.039687
  0
VERTEX
  8
0
 10
162.578688
 20
402.518021
 42
-0.021741
  0
VERTEX
  8
0
 10
176.028303
 20
389.913883
 42
0.008778
  0
VERTEX
  8
0
 10
185.138421
 20
380.921824
 42
0.036557
  0
VERTEX
  8
0
 10
191.094285
 20
376.023854
 42
0.057226
  0
VERTEX
  8
0
 10
196.242215
 20
373.205994
 42
0.051196
  0
VERTEX
  8
0
 10
202.090772
 20
371.497606
 42
0.095567
  0
VERTEX
  8
0
 10
207.964174
 20
371.548465
 42
0.077916
  0
VERTEX
  8
0
 10
213.870917
 20
373.736315
 42
0.069659
  0
VERTEX
  8
0
 10
219.383478
 20
377.921251
 42
0.054134
  0
VERTEX
  8
0
 10
224.089007
 20
383.809662
 42
-0.008535
  0
VERTEX
  8
0
 10
225.619133
 20
386.129355
 42
-0.085196
  0
VERTEX
  8
0
 10
226.426153
 20
386.961347
 42
-0.353706
  0
VERTEX
  8
0
 10
226.975670
 20
386.934237
 42
-0.134357
  0
VERTEX
  8
0
 10
227.422678
 20
386.243619
 42
-0.104620
  0
VERTEX
  8
0
 10
227.675733
 20
383.691962
 42
-0.019945
  0
VERTEX
  8
0
 10
226.977139
 20
379.054474
 42
-0.022342
  0
VERTEX
  8
0
 10
225.819279
 20
374.198648
 42
-0.041101
  0
VERTEX
  8
0
 10
224.385467
 20
370.399882
 42
-0.068703
  0
VERTEX
  8
0
 10
222.058103
 20
366.849557
 42
-0.035597
  0
VERTEX
  8
0
 10
218.288804
 20
363.104414
 42
-0.035605
  0
VERTEX
  8
0
 10
214.031733
 20
359.935902
 42
-0.069502
  0
VERTEX
  8
0
 10
210.193157
 20
358.176017
 42
-0.052731
  0
VERTEX
  8
0
 10
205.303904
 20
357.257339
 42
-0.024764
  0
VERTEX
  8
0
 10
198.866436
 20
357.058682
 42
-0.024726
  0
VERTEX
  8
0
 10
192.295031
 20
357.506948
 42
-0.042694
  0
VERTEX
  8
0
 10
186.931501
 20
358.610311
 42
-0.021718
  0
VERTEX
  8
0
 10
181.753223
 20
360.393557
 42
-0.025993
  0
VERTEX
  8
0
 10
177.059028
 20
362.529710
 42
-0.020720
  0
VERTEX
  8
0
 10
171.841350
 20
365.520384
 42
-0.008022
  0
VERTEX
  8
0
 10
164.860456
 20
370.073571
 42
0.014002
  0
VERTEX
  8
0
 10
155.723642
 20
375.878370
 42
0.014316
  0
VERTEX
  8
0
 10
146.342488
 20
381.117827
 42
0.014906
  0
VERTEX
  8
0
 10
137.805735
 20
385.251160
 42
0.041741
  0
VERTEX
  8
0
 10
131.539901
 20
387.451205
 42
0.078320
  0
VERTEX
  8
0
 10
116.001422
 20
388.977565
 42
0.077717
  0
VERTEX
  8
0
 10
100.702530
 20
385.660298
 42
0.081645
  0
VERTEX
  8
0
 10
87.780784
 20
378.061866
 42
0.101483
  0
VERTEX
  8
0
 10
79.098286
 20
367.192656
 42
0.050556
  0
VERTEX
  8
0
 10
77.049339
 20
361.921222
 42
0.034968
  0
VERTEX
  8
0
 10
75.778453
 20
355.644781
 42
0.034058
  0
VERTEX
  8
0
 10
75.369394
 20
349.032854
 42
0.039362
  0
VERTEX
  8
0
 10
75.905083
 20
342.744718
 42
0.034899
  0
VERTEX
  8
0
 10
77.598197
 20
335.624001
 42
0.044911
  0
VERTEX
  8
0
 10
80.173300
 20
329.411909
 42
0.043945
  0
VERTEX
  8
0
 10
83.866982
 20
323.656417
 42
0.031370
  0
VERTEX
  8
0
 10
88.924059
 20
317.903529
 42
0.054530
  0
VERTEX
  8
0
 10
98.073465
 20
310.534910
 42
0.053746
  0
VERTEX
  8
0
 10
108.642725
 20
305.276478
 42
0.050091
  0
VERTEX
  8
0
 10
120.763105
 20
302.127662
 42
0.037451
  0
VERTEX
  8
0
 10
134.529859
 20
301.034888
 42
0.024899
  0
VERTEX
  8
0
 10
145.157048
 20
301.518156
 42
0.009644
  0
VERTEX
  8
0
 10
159.802487
 20
303.202708
 42
0.009317
  0
VERTEX
  8
0
 10
174.132054
 20
305.404172
 42
0.032282
  0
VERTEX
  8
0
 10
183.250000
 20
307.593140
 42
-0.146700
  0
VERTEX
  8
0
 10
184.151360
 20
307.601101
 42
-0.240877
  0
VERTEX
  8
0
 10
184.694519
 20
307.089755
 42
-0.077242
  0
VERTEX
  8
0
 10
184.946980
 20
305.767285
 42
-0.008614
  0
VERTEX
  8
0
 10
185.000000
 20
302.689832
 42
0.034627
  0
VERTEX
  8
0
 10
185.274621
 20
298.729210
 42
0.127737
  0
VERTEX
  8
0
 10
186.226313
 20
296.430667
 42
0.178587
  0
VERTEX
  8
0
 10
187.961910
 20
295.316494
 42
0.083232
  0
VERTEX
  8
0
 10
190.671123
 20
295.177742
 42
0.105887
  0
VERTEX
  8
0
 10
192.535893
 20
295.807939
 42
0.136809
  0
VERTEX
  8
0
 10
193.777884
 20
297.109503
 42
0.071250
  0
VERTEX
  8
0
 10
194.661800
 20
299.547691
 42
0.013185
  0
VERTEX
  8
0
 10
195.514802
 20
304.257567
 42
-0.038636
  0
VERTEX
  8
0
 10
195.903276
 20
305.916455
 42
-0.046445
  0
VERTEX
  8
0
 10
196.527116
 20
307.391611
 42
-0.051246
  0
VERTEX
  8
0
 10
197.341086
 20
308.593431
 42
-0.075156
  0
VERTEX
  8
0
 10
198.296733
 20
309.436770
 42
-0.098520
  0
VERTEX
  8
0
 10
201.417334
 20
310.670946
 42
-0.005250
  0
VERTEX
  8
0
 10
211.988820
 20
312.482453
 42
-0.002873
  0
VERTEX
  8
0
 10
223.069394
 20
314.196415
 42
-0.237605
  0
VERTEX
  8
0
 10
224.662955
 20
313.670378
 42
-0.208365
  0
VERTEX
  8
0
 10
224.859743
 20
313.169776
 42
-0.004506
  0
VERTEX
  8
0
 10
224.738008
 20
310.485363
 42
-0.009557
  0
VERTEX
  8
0
 10
224.503656
 20
307.300190
 42
-0.006209
  0
VERTEX
  8
0
 10
224.116885
 20
303.629343
 42
0.016268
  0
VERTEX
  8
0
 10
223.273742
 20
293.717641
 42
0.013724
  0
VERTEX
  8
0
 10
223.011785
 20
283.192056
 42
0.007421
  0
VERTEX
  8
0
 10
223.179514
 20
273.555526
 42
0.190546
  0
VERTEX
  8
0
 10
224.200000
 20
271.200000
 42
0.082665
  0
VERTEX
  8
0
 10
224.844671
 20
270.739331
 42
0.037420
  0
VERTEX
  8
0
 10
225.811250
 20
270.352500
 42
0.035729
  0
VERTEX
  8
0
 10
226.916514
 20
270.088514
 42
0.040779
  0
VERTEX
  8
0
 10
228.000000
 20
270.000000
 42
0.102442
  0
VERTEX
  8
0
 10
230.589129
 20
270.536098
 42
0.188144
  0
VERTEX
  8
0
 10
232.097376
 20
272.028994
 42
0.090920
  0
VERTEX
  8
0
 10
232.826885
 20
275.046177
 42
0.013973
  0
VERTEX
  8
0
 10
233.000000
 20
281.239414
 42
-0.014759
  0
VERTEX
  8
0
 10
233.259590
 20
290.031867
 42
-0.011365
  0
VERTEX
  8
0
 10
234.043565
 20
299.599280
 42
-0.008555
  0
VERTEX
  8
0
 10
235.098823
 20
308.234785
 42
-0.082587
  0
VERTEX
  8
0
 10
236.199598
 20
311.749594
 42
-0.147966
  0
VERTEX
  8
0
 10
238.056785
 20
313.695376
 42
-0.068256
  0
VERTEX
  8
0
 10
241.341061
 20
315.001793
 42
-0.044500
  0
VERTEX
  8
0
 10
246.267385
 20
315.763217
 42
-0.015946
  0
VERTEX
  8
0
 10
253.375000
 20
315.994423
 42
0.000000
  0
VERTEX
  8
0
 10
262.250000
 20
316.000000
 42
0.000000
  0
VERTEX
  8
0
 10
261.622853
 20
312.864265
 42
0.031081
  0
VERTEX
  8
0
 10
261.345627
 20
310.827101
 42
0.002649
  0
VERTEX
  8
0
 10
260.987944
 20
305.560676
 42
0.003499
  0
VERTEX
  8
0
 10
260.638240
 20
299.268108
 42
0.002703
  0
VERTEX
  8
0
 10
260.342135
 20
292.404357
 42
0.005267
  0
VERTEX
  8
0
 10
260.012708
 20
280.284428
 42
0.052998
  0
VERTEX
  8
0
 10
260.462937
 20
275.253666
 42
0.171806
  0
VERTEX
  8
0
 10
261.847611
 20
272.919629
 42
0.177392
  0
VERTEX
  8
0
 10
264.372445
 20
272.015313
 42
0.133357
  0
VERTEX
  8
0
 10
267.210968
 20
272.808071
 42
0.184957
  0
VERTEX
  8
0
 10
268.830299
 20
274.862466
 42
0.056026
  0
VERTEX
  8
0
 10
269.706891
 20
279.425229
 42
0.004274
  0
VERTEX
  8
0
 10
270.576403
 20
291.948062
 42
-0.006430
  0
VERTEX
  8
0
 10
271.594862
 20
305.754612
 42
-0.078779
  0
VERTEX
  8
0
 10
272.867539
 20
310.872563
 42
-0.210138
  0
VERTEX
  8
0
 10
275.325269
 20
313.187959
 42
-0.088101
  0
VERTEX
  8
0
 10
279.904988
 20
313.953321
 42
-0.017886
  0
VERTEX
  8
0
 10
282.122596
 20
313.851401
 42
-0.007774
  0
VERTEX
  8
0
 10
285.059590
 20
313.564893
 42
-0.007681
  0
VERTEX
  8
0
 10
288.175148
 20
313.163420
 42
-0.010136
  0
VERTEX
  8
0
 10
291.000000
 20
312.696561
 42
0.000000
  0
VERTEX
  8
0
 10
297.500000
 20
311.486480
 42
0.000000
  0
VERTEX
  8
0
 10
297.776303
 20
295.564010
 42
0.005316
  0
VERTEX
  8
0
 10
297.961970
 20
288.930796
 42
0.010203
  0
VERTEX
  8
0
 10
298.275885
 20
283.618235
 42
0.007094
  0
VERTEX
  8
0
 10
298.666164
 20
279.461354
 42
0.147282
  0
VERTEX
  8
0
 10
299.148748
 20
278.320770
 42
0.151357
  0
VERTEX
  8
0
 10
300.592552
 20
277.379702
 42
0.065448
  0
VERTEX
  8
0
 10
302.886786
 20
277.041186
 42
0.064915
  0
VERTEX
  8
0
 10
305.222356
 20
277.308280
 42
0.136306
  0
VERTEX
  8
0
 10
306.800000
 20
278.200000
 42
0.155119
  0
VERTEX
  8
0
 10
307.339197
 20
279.241762
 42
0.017919
  0
VERTEX
  8
0
 10
307.695383
 20
281.884039
 42
0.017151
  0
VERTEX
  8
0
 10
307.928125
 20
285.523530
 42
0.007391
  0
VERTEX
  8
0
 10
308.000000
 20
290.385549
 42
-0.005080
  0
VERTEX
  8
0
 10
308.065502
 20
296.831848
 42
-0.035447
  0
VERTEX
  8
0
 10
308.352152
 20
299.966728
 42
-0.073211
  0
VERTEX
  8
0
 10
308.989968
 20
301.970198
 42
-0.075095
  0
VERTEX
  8
0
 10
310.174314
 20
303.685549
 42
-0.093040
  0
VERTEX
  8
0
 10
312.353345
 20
305.277858
 42
-0.108685
  0
VERTEX
  8
0
 10
314.844402
 20
305.858484
 42
-0.055400
  0
VERTEX
  8
0
 10
318.548954
 20
305.493479
 42
-0.009210
  0
VERTEX
  8
0
 10
325.536188
 20
303.877214
 42
-0.005183
  0
VERTEX
  8
0
 10
331.027886
 20
302.439188
 42
-0.071992
  0
VERTEX
  8
0
 10
332.902761
 20
301.623847
 42
-0.183443
  0
VERTEX
  8
0
 10
333.736547
 20
300.536116
 42
-0.070999
  0
VERTEX
  8
0
 10
334.023857
 20
298.627214
 42
0.036670
  0
VERTEX
  8
0
 10
334.440266
 20
293.493554
 42
0.068093
  0
VERTEX
  8
0
 10
335.633824
 20
289.497087
 42
0.097283
  0
VERTEX
  8
0
 10
337.458051
 20
286.942645
 42
0.188289
  0
VERTEX
  8
0
 10
339.750000
 20
286.015313
 42
0.165289
  0
VERTEX
  8
0
 10
341.395748
 20
286.552245
 42
0.061891
  0
VERTEX
  8
0
 10
343.167831
 20
288.258944
 42
0.060321
  0
VERTEX
  8
0
 10
344.542213
 20
290.450776
 42
0.110338
  0
VERTEX
  8
0
 10
345.000000
 20
292.500000
 42
-0.065559
  0
VERTEX
  8
0
 10
345.145262
 20
293.603108
 42
-0.039110
  0
VERTEX
  8
0
 10
345.587500
 20
294.853125
 42
-0.038504
  0
VERTEX
  8
0
 10
346.234353
 20
296.050827
 42
-0.053359
  0
VERTEX
  8
0
 10
347.000000
 20
297.000000
 42
-0.093723
  0
VERTEX
  8
0
 10
348.580100
 20
298.077525
 42
-0.067061
  0
VERTEX
  8
0
 10
350.642414
 20
298.665371
 42
-0.031366
  0
VERTEX
  8
0
 10
353.991908
 20
298.937433
 42
-0.004584
  0
VERTEX
  8
0
 10
360.816341
 20
299.000000
 42
0.023142
  0
VERTEX
  8
0
 10
374.528309
 20
299.634973
 42
0.053361
  0
VERTEX
  8
0
 10
384.631170
 20
301.674197
 42
0.063431
  0
VERTEX
  8
0
 10
392.968516
 20
305.522964
 42
0.046966
  0
VERTEX
  8
0
 10
401.041278
 20
311.698701
 42
0.044409
  0
VERTEX
  8
0
 10
406.194855
 20
317.398229
 42
0.043104
  0
VERTEX
  8
0
 10
410.319008
 20
323.973086
 42
0.042657
  0
VERTEX
  8
0
 10
413.290276
 20
331.226074
 42
0.041585
  0
VERTEX
  8
0
 10
415.018685
 20
338.940003
 42
-0.004351
  0
VERTEX
  8
0
 10
415.442331
 20
341.820992
 42
-0.006619
  0
VERTEX
  8
0
 10
415.865153
 20
344.314957
 42
-0.002829
  0
VERTEX
  8
0
 10
416.264886
 20
346.429487
 42
-0.149321
  0
VERTEX
  8
0
 10
416.456719
 20
346.790053
 42
-0.522166
  0
VERTEX
  8
0
 10
417.396716
 20
346.621868
 42
-0.002528
  0
VERTEX
  8
0
 10
422.122510
 20
336.214651
 42
-0.007658
  0
VERTEX
  8
0
 10
426.328402
 20
326.427555
 42
-0.047451
  0
VERTEX
  8
0
 10
427.920820
 20
321.200779
 42
-0.043273
  0
VERTEX
  8
0
 10
428.920938
 20
312.497373
 42
-0.041143
  0
VERTEX
  8
0
 10
428.437151
 20
303.600257
 42
-0.039320
  0
VERTEX
  8
0
 10
426.455275
 20
294.531664
 42
-0.032996
  0
VERTEX
  8
0
 10
422.989838
 20
285.317316
 42
-0.003069
  0
VERTEX
  8
0
 10
421.790868
 20
282.715626
 42
-0.004504
  0
VERTEX
  8
0
 10
420.702014
 20
280.444044
 42
-0.002210
  0
VERTEX
  8
0
 10
419.752661
 20
278.529873
 42
-0.080314
  0
VERTEX
  8
0
 10
419.466050
 20
278.132716
 42
-0.333143
  0
VERTEX
  8
0
 10
419.126704
 20
278.084120
 42
-0.023831
  0
VERTEX
  8
0
 10
418.263020
 20
278.611951
 42
-0.025969
  0
VERTEX
  8
0
 10
417.210672
 20
279.408882
 42
-0.015978
  0
VERTEX
  8
0
 10
416.054378
 20
280.447902
 42
0.070074
  0
VERTEX
  8
0
 10
413.435676
 20
282.333527
 42
0.096074
  0
VERTEX
  8
0
 10
410.662215
 20
283.168976
 42
0.116533
  0
VERTEX
  8
0
 10
408.174612
 20
282.841238
 42
0.145109
  0
VERTEX
  8
0
 10
406.327986
 20
281.433870
 42
0.070943
  0
VERTEX
  8
0
 10
405.294567
 20
279.495117
 42
0.154124
  0
VERTEX
  8
0
 10
405.224091
 20
277.827419
 42
0.106403
  0
VERTEX
  8
0
 10
406.157626
 20
276.014906
 42
0.024449
  0
VERTEX
  8
0
 10
408.482516
 20
273.450818
 42
-0.031607
  0
VERTEX
  8
0
 10
411.721631
 20
269.774093
 42
-0.060482
  0
VERTEX
  8
0
 10
413.735172
 20
266.401215
 42
-0.070650
  0
VERTEX
  8
0
 10
414.693587
 20
263.021355
 42
-0.061951
  0
VERTEX
  8
0
 10
414.735838
 20
259.348714
 42
-0.050467
  0
VERTEX
  8
0
 10
413.871263
 20
255.352984
 42
-0.082928
  0
VERTEX
  8
0
 10
412.279473
 20
252.291083
 42
-0.076936
  0
VERTEX
  8
0
 10
409.683793
 20
249.762359
 42
-0.037994
  0
VERTEX
  8
0
 10
405.732013
 20
247.378414
 42
0.016830
  0
VERTEX
  8
0
 10
399.861741
 20
244.167538
 42
0.010208
  0
VERTEX
  8
0
 10
393.131178
 20
239.998401
 42
0.010234
  0
VERTEX
  8
0
 10
386.687315
 20
235.632655
 42
0.019681
  0
VERTEX
  8
0
 10
381.742037
 20
231.831771
 42
0.000000
  0
VERTEX
  8
0
 10
376.984074
 20
227.867520
 42
0.000000
  0
VERTEX
  8
0
 10
373.264193
 20
230.933760
 42
0.062716
  0
VERTEX
  8
0
 10
369.342719
 20
233.414816
 42
0.157534
  0
VERTEX
  8
0
 10
366.025880
 20
233.836106
 42
0.224107
  0
VERTEX
  8
0
 10
363.833927
 20
232.247677
 42
0.126361
  0
VERTEX
  8
0
 10
363.000000
 20
229.000594
 42
0.147503
  0
VERTEX
  8
0
 10
363.559606
 20
227.144941
 42
0.028676
  0
VERTEX
  8
0
 10
365.680718
 20
224.314584
 42
0.018883
  0
VERTEX
  8
0
 10
369.363064
 20
220.267346
 42
0.004591
  0
VERTEX
  8
0
 10
375.750000
 20
213.877499
 42
0.004653
  0
VERTEX
  8
0
 10
381.071488
 20
208.746897
 42
0.004576
  0
VERTEX
  8
0
 10
386.517187
 20
203.687129
 42
0.004505
  0
VERTEX
  8
0
 10
391.370687
 20
199.339120
 42
0.017372
  0
VERTEX
  8
0
 10
394.500000
 20
196.773336
 42
-0.023423
  0
VERTEX
  8
0
 10
402.347330
 20
190.178807
 42
-0.055872
  0
VERTEX
  8
0
 10
407.322851
 20
184.430552
 42
-0.073881
  0
VERTEX
  8
0
 10
410.058847
 20
178.828844
 42
-0.078153
  0
VERTEX
  8
0
 10
410.978038
 20
172.782119
 42
-0.076785
  0
VERTEX
  8
0
 10
410.134461
 20
167.501064
 42
-0.063764
  0
VERTEX
  8
0
 10
407.713321
 20
162.345198
 42
-0.039218
  0
VERTEX
  8
0
 10
403.006573
 20
156.086196
 42
-0.010027
  0
VERTEX
  8
0
 10
394.421575
 20
146.744800
 42
-0.007214
  0
VERTEX
  8
0
 10
385.302336
 20
137.484268
 42
-0.045810
  0
VERTEX
  8
0
 10
380.200473
 20
133.298321
 42
-0.101103
  0
VERTEX
  8
0
 10
376.381253
 20
131.710421
 42
-0.132754
  0
VERTEX
  8
0
 10
372.630653
 20
131.978911
 42
-0.042974
  0
VERTEX
  8
0
 10
369.750398
 20
133.269729
 42
-0.017319
  0
VERTEX
  8
0
 10
366.054441
 20
135.494515
 42
-0.009469
  0
VERTEX
  8
0
 10
362.514888
 20
137.892356
 42
-0.246774
  0
VERTEX
  8
0
 10
362.006956
 20
138.886001
 42
-0.342241
  0
VERTEX
  8
0
 10
362.206579
 20
139.137545
 42
-0.015612
  0
VERTEX
  8
0
 10
363.351859
 20
139.380770
 42
-0.020515
  0
VERTEX
  8
0
 10
364.826317
 20
139.584070
 42
-0.012601
  0
VERTEX
  8
0
 10
366.575579
 20
139.708110
 42
0.062910
  0
VERTEX
  8
0
 10
371.720135
 20
140.597799
 42
0.043863
  0
VERTEX
  8
0
 10
377.187259
 20
142.810445
 42
0.040893
  0
VERTEX
  8
0
 10
382.592007
 20
146.153766
 42
0.037438
  0
VERTEX
  8
0
 10
387.553906
 20
150.423471
 42
0.049079
  0
VERTEX
  8
0
 10
393.346515
 20
157.480400
 42
0.086549
  0
VERTEX
  8
0
 10
396.388883
 20
164.356301
 42
0.096342
  0
VERTEX
  8
0
 10
396.750485
 20
171.328902
 42
0.074005
  0
VERTEX
  8
0
 10
394.579818
 20
178.655932
 42
0.083047
  0
VERTEX
  8
0
 10
390.262121
 20
184.947208
 42
0.053966
  0
VERTEX
  8
0
 10
383.478714
 20
190.612079
 42
0.042872
  0
VERTEX
  8
0
 10
374.043744
 20
195.794220
 42
0.022865
  0
VERTEX
  8
0
 10
361.626706
 20
200.622504
 42
-0.018442
  0
VERTEX
  8
0
 10
354.277841
 20
203.405498
 42
-0.045836
  0
VERTEX
  8
0
 10
349.209860
 20
206.111920
 42
-0.061371
  0
VERTEX
  8
0
 10
345.663383
 20
209.127627
 42
-0.068849
  0
VERTEX
  8
0
 10
343.112806
 20
212.807932
 42
-0.060274
  0
VERTEX
  8
0
 10
340.852760
 20
219.035073
 42
-0.087691
  0
VERTEX
  8
0
 10
340.545035
 20
224.856211
 42
-0.092288
  0
VERTEX
  8
0
 10
342.238303
 20
230.212700
 42
-0.074025
  0
VERTEX
  8
0
 10
345.846100
 20
235.078539
 42
-0.038428
  0
VERTEX
  8
0
 10
348.070351
 20
236.983354
 42
-0.039419
  0
VERTEX
  8
0
 10
350.541770
 20
238.507363
 42
-0.031266
  0
VERTEX
  8
0
 10
353.684018
 20
239.877816
 42
-0.013218
  0
VERTEX
  8
0
 10
358.050593
 20
241.336113
 42
0.018204
  0
VERTEX
  8
0
 10
361.764046
 20
242.617576
 42
0.012690
  0
VERTEX
  8
0
 10
365.857555
 20
244.319757
 42
0.012821
  0
VERTEX
  8
0
 10
369.705260
 20
246.155176
 42
0.025771
  0
VERTEX
  8
0
 10
372.620271
 20
247.832966
 42
0.057502
  0
VERTEX
  8
0
 10
381.037490
 20
254.761177
 42
0.071442
  0
VERTEX
  8
0
 10
386.960939
 20
262.978016
 42
0.106624
  0
VERTEX
  8
0
 10
388.921882
 20
270.076604
 42
0.309431
  0
VERTEX
  8
0
 10
386.422341
 20
274.217338
 42
0.093230
  0
VERTEX
  8
0
 10
384.113167
 20
274.786359
 42
0.153702
  0
VERTEX
  8
0
 10
382.181878
 20
274.294588
 42
0.109638
  0
VERTEX
  8
0
 10
380.439211
 20
272.595439
 42
0.034793
  0
VERTEX
  8
0
 10
378.656894
 20
269.409685
 42
-0.063964
  0
VERTEX
  8
0
 10
374.833472
 20
263.421941
 42
-0.057263
  0
VERTEX
  8
0
 10
369.489820
 20
258.339367
 42
-0.051688
  0
VERTEX
  8
0
 10
362.603510
 20
254.186417
 42
-0.036891
  0
VERTEX
  8
0
 10
354.189819
 20
250.965167
 42
0.031195
  0
VERTEX
  8
0
 10
347.505427
 20
248.492838
 42
0.046966
  0
VERTEX
  8
0
 10
342.088205
 20
245.459148
 42
0.052627
  0
VERTEX
  8
0
 10
337.800253
 20
241.777150
 42
0.056838
  0
VERTEX
  8
0
 10
334.500000
 20
237.368290
 42
-0.017398
  0
VERTEX
  8
0
 10
332.489210
 20
234.188036
 42
-0.096839
  0
VERTEX
  8
0
 10
331.059186
 20
232.775869
 42
-0.090875
  0
VERTEX
  8
0
 10
329.163146
 20
231.963514
 42
-0.014374
  0
VERTEX
  8
0
 10
325.172161
 20
231.176134
 42
0.019647
  0
VERTEX
  8
0
 10
320.368847
 20
230.175768
 42
0.089920
  0
VERTEX
  8
0
 10
317.782283
 20
229.008319
 42
0.150636
  0
VERTEX
  8
0
 10
316.463861
 20
227.338828
 42
0.092617
  0
VERTEX
  8
0
 10
316.000000
 20
224.856116
 42
0.128809
  0
VERTEX
  8
0
 10
316.643034
 20
222.401465
 42
0.162105
  0
VERTEX
  8
0
 10
318.373283
 20
220.831190
 42
0.111999
  0
VERTEX
  8
0
 10
321.267649
 20
220.267081
 42
0.044917
  0
VERTEX
  8
0
 10
325.295963
 20
220.754270
 42
0.000000
  0
VERTEX
  8
0
 10
329.829717
 20
221.721225
 42
0.000000
  0
VERTEX
  8
0
 10
330.501260
 20
218.110613
 42
0.068146
  0
VERTEX
  8
0
 10
333.088622
 20
210.302273
 42
0.058999
  0
VERTEX
  8
0
 10
337.777681
 20
203.049357
 42
0.059713
  0
VERTEX
  8
0
 10
343.962915
 20
197.173702
 42
0.073948
  0
VERTEX
  8
0
 10
350.953501
 20
193.419607
 42
-0.014796
  0
VERTEX
  8
0
 10
352.837980
 20
192.678289
 42
-0.028022
  0
VERTEX
  8
0
 10
354.299299
 20
191.953540
 42
-0.033660
  0
VERTEX
  8
0
 10
355.244387
 20
191.329296
 42
-0.482194
  0
VERTEX
  8
0
 10
355.251806
 20
190.978862
 42
-0.063550
  0
VERTEX
  8
0
 10
354.662643
 20
190.604187
 42
-0.001777
  0
VERTEX
  8
0
 10
351.926203
 20
189.329453
 42
-0.003613
  0
VERTEX
  8
0
 10
348.686196
 20
187.862438
 42
-0.002471
  0
VERTEX
  8
0
 10
344.986332
 20
186.241163
 42
-0.022793
  0
VERTEX
  8
0
 10
331.096408
 20
180.973645
 42
-0.028072
  0
VERTEX
  8
0
 10
317.709861
 20
177.401504
 42
-0.029502
  0
VERTEX
  8
0
 10
304.606280
 20
175.479328
 42
-0.030871
  0
VERTEX
  8
0
 10
291.565839
 20
175.154007
 42
-0.005521
  0
VERTEX
  8
0
 10
287.920724
 20
175.328456
 42
-0.008369
  0
VERTEX
  8
0
 10
284.755919
 20
175.568173
 42
-0.003969
  0
VERTEX
  8
0
 10
282.090366
 20
175.836361
 42
-0.171320
  0
VERTEX
  8
0
 10
281.586856
 20
176.078070
 42
-0.326013
  0
VERTEX
  8
0
 10
281.513860
 20
176.549576
 42
-0.006162
  0
VERTEX
  8
0
 10
282.751116
 20
178.874656
 42
-0.012449
  0
VERTEX
  8
0
 10
284.350485
 20
181.627999
 42
-0.007693
  0
VERTEX
  8
0
 10
286.359606
 20
184.786605
 42
0.007003
  0
VERTEX
  8
0
 10
288.684484
 20
188.430501
 42
0.004654
  0
VERTEX
  8
0
 10
291.252679
 20
192.670613
 42
0.004685
  0
VERTEX
  8
0
 10
293.669196
 20
196.833840
 42
0.009118
  0
VERTEX
  8
0
 10
295.505404
 20
200.208535
 42
-0.004494
  0
VERTEX
  8
0
 10
297.094619
 20
203.194728
 42
-0.004558
  0
VERTEX
  8
0
 10
298.729963
 20
206.137853
 42
-0.004440
  0
VERTEX
  8
0
 10
300.198570
 20
208.672371
 42
-0.018594
  0
VERTEX
  8
0
 10
301.151062
 20
210.154370
 42
0.084478
  0
VERTEX
  8
0
 10
302.792354
 20
213.641956
 42
0.138250
  0
VERTEX
  8
0
 10
302.781151
 20
216.885761
 42
0.175929
  0
VERTEX
  8
0
 10
301.152621
 20
219.135801
 42
0.150111
  0
VERTEX
  8
0
 10
298.338955
 20
220.000000
 42
0.151472
  0
VERTEX
  8
0
 10
295.967292
 20
219.264647
 42
0.076815
  0
VERTEX
  8
0
 10
293.668217
 20
217.102795
 42
0.034156
  0
VERTEX
  8
0
 10
290.724429
 20
212.748996
 42
0.005164
  0
VERTEX
  8
0
 10
285.532728
 20
203.595099
 42
-0.024281
  0
VERTEX
  8
0
 10
275.536353
 20
187.441241
 42
-0.022799
  0
VERTEX
  8
0
 10
263.821992
 20
171.976850
 42
-0.023656
  0
VERTEX
  8
0
 10
251.327064
 20
158.325047
 42
-0.034492
  0
VERTEX
  8
0
 10
238.998249
 20
147.655939
 42
-0.030632
  0
VERTEX
  8
0
 10
229.894480
 20
141.650314
 42
-0.086950
  0
VERTEX
  8
0
 10
222.772987
 20
139.063314
 42
-0.072016
  0
VERTEX
  8
0
 10
214.445336
 20
138.803437
 42
-0.016562
  0
VERTEX
  8
0
 10
200.500000
 20
140.849903
 42
0.020057
  0
VERTEX
  8
0
 10
187.626977
 20
142.647230
 42
0.033953
  0
VERTEX
  8
0
 10
176.749791
 20
142.981652
 42
0.040705
  0
VERTEX
  8
0
 10
167.570713
 20
141.888731
 42
0.060059
  0
VERTEX
  8
0
 10
159.876622
 20
139.340295
 42
0.018922
  0
VERTEX
  8
0
 10
157.027165
 20
137.865297
 42
0.013360
  0
VERTEX
  8
0
 10
153.938822
 20
136.004718
 42
0.013510
  0
VERTEX
  8
0
 10
151.078110
 20
134.064528
 42
0.027507
  0
VERTEX
  8
0
 10
148.963748
 20
132.361793
 42
0.078381
  0
VERTEX
  8
0
 10
140.625164
 20
122.079229
 42
0.057789
  0
VERTEX
  8
0
 10
134.779469
 20
108.610550
 42
0.057806
  0
VERTEX
  8
0
 10
132.172661
 20
94.166435
 42
0.078570
  0
VERTEX
  8
0
 10
133.410622
 20
81.000000
 42
0.062513
  0
VERTEX
  8
0
 10
136.427346
 20
73.345721
 42
0.095188
  0
VERTEX
  8
0
 10
140.962674
 20
67.851685
 42
0.089360
  0
VERTEX
  8
0
 10
147.439114
 20
64.206482
 42
0.049436
  0
VERTEX
  8
0
 10
156.291308
 20
62.081339
 42
-0.017488
  0
VERTEX
  8
0
 10
161.800312
 20
61.125522
 42
-0.041282
  0
VERTEX
  8
0
 10
165.792436
 20
59.937350
 42
-0.054056
  0
VERTEX
  8
0
 10
168.819978
 20
58.361925
 42
-0.061934
  0
VERTEX
  8
0
 10
171.288879
 20
56.233286
 42
-0.049129
  0
VERTEX
  8
0
 10
172.151665
 20
55.068125
 42
-0.489698
  0
VERTEX
  8
0
 10
171.961610
 20
54.580346
 42
-0.087277
  0
VERTEX
  8
0
 10
170.823028
 20
54.449520
 42
-0.002929
  0
VERTEX
  8
0
 10
166.283198
 20
54.747625
 42
0.025584
  0
VERTEX
  8
0
 10
162.238115
 20
54.829635
 42
0.026725
  0
VERTEX
  8
0
 10
158.264917
 20
54.493808
 42
0.019784
  0
VERTEX
  8
0
 10
153.452561
 20
53.631412
 42
0.006753
  0
VERTEX
  8
0
 10
146.544740
 20
52.011134
 42
-0.023067
  0
VERTEX
  8
0
 10
133.251437
 20
49.347253
 42
-0.084102
  0
VERTEX
  8
0
 10
124.678425
 20
49.485827
 42
-0.131465
  0
VERTEX
  8
0
 10
118.753847
 20
52.314216
 42
-0.098207
  0
VERTEX
  8
0
 10
114.250000
 20
58.020432
 42
-0.059568
  0
VERTEX
  8
0
 10
112.601838
 20
62.488454
 42
-0.063533
  0
VERTEX
  8
0
 10
112.101856
 20
67.121366
 42
-0.058073
  0
VERTEX
  8
0
 10
112.776605
 20
72.073953
 42
-0.038699
  0
VERTEX
  8
0
 10
114.627789
 20
77.500000
 42
0.018965
  0
VERTEX
  8
0
 10
119.892486
 20
91.145728
 42
0.033993
  0
VERTEX
  8
0
 10
123.006228
 20
102.741731
 42
0.032664
  0
VERTEX
  8
0
 10
124.592310
 20
114.962283
 42
0.016071
  0
VERTEX
  8
0
 10
125.088149
 20
130.637053
 42
-0.010664
  0
VERTEX
  8
0
 10
125.380825
 20
144.699015
 42
-0.136364
  0
VERTEX
  8
0
 10
126.989775
 20
149.667153
 42
-0.178412
  0
VERTEX
  8
0
 10
130.809167
 20
152.472076
 42
-0.021203
  0
VERTEX
  8
0
 10
141.191879
 20
154.990096
 42
0.035018
  0
VERTEX
  8
0
 10
144.262830
 20
155.825265
 42
0.025345
  0
VERTEX
  8
0
 10
147.548771
 20
157.161480
 42
0.021557
  0
VERTEX
  8
0
 10
151.190427
 20
159.057409
 42
0.012925
  0
VERTEX
  8
0
 10
155.351349
 20
161.602577
 42
-0.021851
  0
VERTEX
  8
0
 10
163.490055
 20
166.383425
 42
-0.044020
  0
VERTEX
  8
0
 10
170.341894
 20
169.275811
 42
-0.042922
  0
VERTEX
  8
0
 10
177.705883
 20
170.966401
 42
-0.019778
  0
VERTEX
  8
0
 10
187.500000
 20
171.952298
 42
0.014133
  0
VERTEX
  8
0
 10
196.354731
 20
172.742795
 42
0.059702
  0
VERTEX
  8
0
 10
201.526131
 20
173.989505
 42
0.082932
  0
VERTEX
  8
0
 10
205.378484
 20
176.201922
 42
0.044042
  0
VERTEX
  8
0
 10
209.321047
 20
180.061968
 42
0.055737
  0
VERTEX
  8
0
 10
212.407179
 20
184.606150
 42
0.074520
  0
VERTEX
  8
0
 10
214.050632
 20
189.304903
 42
0.062631
  0
VERTEX
  8
0
 10
214.400415
 20
194.885148
 42
0.027806
  0
VERTEX
  8
0
 10
213.529949
 20
202.221722
 42
0.030144
  0
VERTEX
  8
0
 10
210.716865
 20
214.025180
 42
0.032277
  0
VERTEX
  8
0
 10
206.552720
 20
225.129822
 42
0.032506
  0
VERTEX
  8
0
 10
201.025529
 20
235.535226
 42
0.031503
  0
VERTEX
  8
0
 10
194.143779
 20
245.251469
 42
0.018810
  0
VERTEX
  8
0
 10
191.408904
 20
248.389515
 42
0.046040
  0
VERTEX
  8
0
 10
189.116938
 20
250.417265
 42
0.046740
  0
VERTEX
  8
0
 10
186.513595
 20
251.973832
 42
0.019905
  0
VERTEX
  8
0
 10
182.778644
 20
253.577948
 42
0.023506
  0
VERTEX
  8
0
 10
178.010453
 20
255.152027
 42
0.083172
  0
VERTEX
  8
0
 10
174.815938
 20
255.491569
 42
0.137188
  0
VERTEX
  8
0
 10
172.581935
 20
254.719514
 42
0.119054
  0
VERTEX
  8
0
 10
170.927867
 20
252.865218
 42
0.167462
  0
VERTEX
  8
0
 10
170.558317
 20
250.568741
 42
0.133420
  0
VERTEX
  8
0
 10
171.628111
 20
248.281922
 42
0.089186
  0
VERTEX
  8
0
 10
174.199973
 20
246.159028
 42
0.042285
  0
VERTEX
  8
0
 10
178.124140
 20
244.370542
 42
-0.030726
  0
VERTEX
  8
0
 10
181.024450
 20
243.128732
 42
-0.054046
  0
VERTEX
  8
0
 10
183.212104
 20
241.714241
 42
-0.045970
  0
VERTEX
  8
0
 10
185.267898
 20
239.705472
 42
-0.016522
  0
VERTEX
  8
0
 10
187.818159
 20
236.500000
 42
-0.028045
  0
VERTEX
  8
0
 10
191.661276
 20
230.671523
 42
-0.016207
  0
VERTEX
  8
0
 10
195.647829
 20
223.276905
 42
-0.016224
  0
VERTEX
  8
0
 10
199.126678
 20
215.683299
 42
-0.029552
  0
VERTEX
  8
0
 10
201.388358
 20
209.250000
 42
-0.007556
  0
VERTEX
  8
0
 10
201.932320
 20
207.236541
 42
-0.012997
  0
VERTEX
  8
0
 10
202.316121
 20
205.542188
 42
-0.006916
  0
VERTEX
  8
0
 10
202.571487
 20
204.161857
 42
-0.464656
  0
VERTEX
  8
0
 10
202.434922
 20
204.000000
 42
-0.129889
  0
VERTEX
  8
0
 10
202.095626
 20
204.089654
 42
-0.000332
  0
VERTEX
  8
0
 10
197.782441
 20
206.543934
 42
-0.002043
  0
VERTEX
  8
0
 10
192.922165
 20
209.340158
 42
-0.001268
  0
VERTEX
  8
0
 10
187.238822
 20
212.660200
 42
0.007078
  0
VERTEX
  8
0
 10
174.656122
 20
219.815845
 42
0.015117
  0
VERTEX
  8
0
 10
164.700737
 20
224.906573
 42
0.018218
  0
VERTEX
  8
0
 10
155.754633
 20
228.752633
 42
0.017494
  0
VERTEX
  8
0
 10
146.431678
 20
231.994064
 42
-0.005093
  0
VERTEX
  8
0
 10
117.327675
 20
241.310746
 42
-0.015335
  0
VERTEX
  8
0
 10
97.751593
 20
248.471250
 42
-0.021918
  0
VERTEX
  8
0
 10
83.150269
 20
255.082353
 42
-0.029605
  0
VERTEX
  8
0
 10
70.633132
 20
262.385799
 42
-0.025828
  0
VERTEX
  8
0
 10
64.136779
 20
267.212708
 42
-0.020597
  0
VERTEX
  8
0
 10
57.642252
 20
273.046452
 42
-0.020812
  0
VERTEX
  8
0
 10
51.740611
 20
279.303955
 42
-0.028928
  0
VERTEX
  8
0
 10
47.038442
 20
285.404333
 42
-0.007008
  0
VERTEX
  8
0
 10
44.763805
 20
288.839896
 42
-0.603311
  0
VERTEX
  8
0
 10
45.007495
 20
289.270595
 42
-0.153907
  0
VERTEX
  8
0
 10
46.013500
 20
288.920139
 42
-0.002520
  0
VERTEX
  8
0
 10
50.830080
 20
285.291316
 42
0.041260
  0
VERTEX
  8
0
 10
64.254973
 20
276.719633
 42
0.029556
  0
VERTEX
  8
0
 10
80.475265
 20
269.345847
 42
0.026664
  0
VERTEX
  8
0
 10
99.255028
 20
263.241763
 42
0.020199
  0
VERTEX
  8
0
 10
120.401569
 20
258.500632
 42
0.003194
  0
VERTEX
  8
0
 10
128.692825
 20
257.045130
 42
0.026591
  0
VERTEX
  8
0
 10
132.481326
 20
256.610523
 42
0.062595
  0
VERTEX
  8
0
 10
134.802878
 20
256.759253
 42
0.098072
  0
VERTEX
  8
0
 10
136.651569
 20
257.507355
 42
0.113342
  0
VERTEX
  8
0
 10
138.336938
 20
259.262794
 42
0.132460
  0
VERTEX
  8
0
 10
138.964626
 20
261.479567
 42
0.135948
  0
VERTEX
  8
0
 10
138.387823
 20
263.668122
 42
0.122224
  0
VERTEX
  8
0
 10
136.750000
 20
265.353213
 42
0.064427
  0
VERTEX
  8
0
 10
135.399682
 20
265.968749
 42
0.012458
  0
VERTEX
  8
0
 10
132.810937
 20
266.696685
 42
0.013064
  0
VERTEX
  8
0
 10
129.727759
 20
267.396097
 42
0.011733
  0
VERTEX
  8
0
 10
126.500000
 20
267.961734
 42
-0.029654
  0
VERTEX
  8
0
 10
101.424201
 20
273.288264
 42
-0.037189
  0
VERTEX
  8
0
 10
79.046003
 20
281.278370
 42
-0.041260
  0
VERTEX
  8
0
 10
60.307483
 20
291.509365
 42
-0.062260
  0
VERTEX
  8
0
 10
46.179465
 20
303.569288
 42
-0.030334
  0
VERTEX
  8
0
 10
39.023473
 20
312.433033
 42
-0.062858
  0
VERTEX
  8
0
 10
34.820926
 20
320.255484
 42
-0.062491
  0
VERTEX
  8
0
 10
32.679752
 20
328.906678
 42
-0.029667
  0
VERTEX
  8
0
 10
32.007554
 20
340.386490
 42
-0.039636
  0
VERTEX
  8
0
 10
33.322213
 20
356.772256
 42
-0.047780
  0
VERTEX
  8
0
 10
37.213176
 20
371.712244
 42
-0.049719
  0
VERTEX
  8
0
 10
43.695674
 20
385.144946
 42
-0.049521
  0
VERTEX
  8
0
 10
52.709694
 20
397.053151
 42
-0.039177
  0
VERTEX
  8
0
 10
61.376023
 20
405.055446
 42
-0.034228
  0
VERTEX
  8
0
 10
71.570284
 20
412.012350
 42
-0.035053
  0
VERTEX
  8
0
 10
82.306432
 20
417.336018
 42
-0.048587
  0
VERTEX
  8
0
 10
92.584840
 20
420.438625
 42
-0.030324
  0
VERTEX
  8
0
 10
99.925986
 20
421.438984
 42
-0.015135
  0
VERTEX
  8
0
 10
109.297685
 20
421.856640
 42
-0.015087
  0
VERTEX
  8
0
 10
118.576996
 20
421.709042
 42
-0.033943
  0
SEQEND
  0
POLYLINE
  8
0
 66
1
 70
1
  0
VERTEX
  8
0
 10
392.604087
 20
419.520956
 42
-0.029592
  0
VERTEX
  8
0
 10
393.914888
 20
418.879753
 42
-0.049538
  0
VERTEX
  8
0
 10
394.917463
 20
418.174387
 42
-0.068056
  0
VERTEX
  8
0
 10
395.500230
 20
417.513666
 42
-0.293101
  0
VERTEX
  8
0
 10
395.508556
 20
417.013845
 42
-0.113806
  0
VERTEX
  8
0
 10
394.499180
 20
415.993942
 42
-0.015804
  0
VERTEX
  8
0
 10
391.917469
 20
414.473131
 42
-0.010286
  0
VERTEX
  8
0
 10
389.199267
 20
413.057424
 42
-0.324222
  0
VERTEX
  8
0
 10
388.496254
 20
413.176264
 42
-0.128228
  0
VERTEX
  8
0
 10
388.344447
 20
413.440654
 42
-0.005298
  0
VERTEX
  8
0
 10
388.065983
 20
414.506465
 42
-0.008902
  0
VERTEX
  8
0
 10
387.769362
 20
415.789727
 42
-0.006172
  0
VERTEX
  8
0
 10
387.477894
 20
417.250000
 42
-0.032929
  0
VERTEX
  8
0
 10
387.161300
 20
419.901677
 42
-0.311191
  0
VERTEX
  8
0
 10
387.729081
 20
420.826948
 42
-0.191445
  0
VERTEX
  8
0
 10
389.078076
 20
420.879199
 42
-0.014046
  0
SEQEND
  0
POLYLINE
  8
0
 66
1
 70
1
  0
VERTEX
  8
0
 10
305.892295
 20
164.392472
 42
-0.423061
  0
VERTEX
  8
0
 10
305.955255
 20
163.154958
 42
-0.005647
  0
VERTEX
  8
0
 10
300.120199
 20
157.026966
 42
-0.013895
  0
VERTEX
  8
0
 10
293.663600
 20
150.756204
 42
-0.017663
  0
VERTEX
  8
0
 10
287.351625
 20
145.356218
 42
0.007998
  0
VERTEX
  8
0
 10
283.612788
 20
142.280724
 42
0.008426
  0
VERTEX
  8
0
 10
280.039653
 20
139.139213
 42
0.008133
  0
VERTEX
  8
0
 10
277.050865
 20
136.330638
 42
0.037168
  0
VERTEX
  8
0
 10
275.469831
 20
134.549334
 42
0.045572
  0
VERTEX
  8
0
 10
272.722708
 20
130.172675
 42
0.040356
  0
VERTEX
  8
0
 10
270.682443
 20
125.191798
 42
0.039246
  0
VERTEX
  8
0
 10
269.423068
 20
119.804688
 42
0.037818
  0
VERTEX
  8
0
 10
269.000000
 20
114.219174
 42
0.060303
  0
VERTEX
  8
0
 10
270.444207
 20
102.288100
 42
0.038367
  0
VERTEX
  8
0
 10
274.818269
 20
88.982757
 42
0.034722
  0
VERTEX
  8
0
 10
280.408828
 20
77.803859
 42
0.265393
  0
VERTEX
  8
0
 10
285.319222
 20
75.000000
 42
0.108212
  0
VERTEX
  8
0
 10
286.485598
 20
75.255422
 42
0.022839
  0
VERTEX
  8
0
 10
288.348654
 20
76.217877
 42
0.022921
  0
VERTEX
  8
0
 10
290.448438
 20
77.558870
 42
0.019982
  0
VERTEX
  8
0
 10
292.518331
 20
79.145963
 42
-0.027856
  0
VERTEX
  8
0
 10
297.356322
 20
82.736026
 42
-0.043864
  0
VERTEX
  8
0
 10
301.904944
 20
85.191667
 42
-0.051390
  0
VERTEX
  8
0
 10
306.199480
 20
86.542115
 42
-0.068689
  0
VERTEX
  8
0
 10
310.271790
 20
86.806433
 42
0.000000
  0
VERTEX
  8
0
 10
314.500000
 20
86.500000
 42
0.000000
  0
VERTEX
  8
0
 10
309.883112
 20
83.785855
 42
0.051225
  0
VERTEX
  8
0
 10
303.849512
 20
79.351305
 42
0.043380
  0
VERTEX
  8
0
 10
298.464186
 20
73.546316
 42
0.039484
  0
VERTEX
  8
0
 10
293.725846
 20
66.349938
 42
0.029295
  0
VERTEX
  8
0
 10
289.627875
 20
57.752236
 42
-0.116801
  0
VERTEX
  8
0
 10
286.540195
 20
53.415811
 42
-0.244202
  0
VERTEX
  8
0
 10
282.625779
 20
52.455967
 42
-0.186903
  0
VERTEX
  8
0
 10
278.749549
 20
55.154234
 42
-0.075268
  0
VERTEX
  8
0
 10
275.938093
 20
61.081553
 42
0.026530
  0
VERTEX
  8
0
 10
271.086154
 20
74.553465
 42
0.022398
  0
VERTEX
  8
0
 10
264.583582
 20
88.240348
 42
0.021180
  0
VERTEX
  8
0
 10
256.478576
 20
102.052220
 42
0.018079
  0
VERTEX
  8
0
 10
246.817671
 20
115.899131
 42
-0.085130
  0
VERTEX
  8
0
 10
242.667219
 20
123.960144
 42
-0.164085
  0
VERTEX
  8
0
 10
242.808225
 20
131.138132
 42
-0.092105
  0
VERTEX
  8
0
 10
247.714200
 20
139.538119
 42
-0.016187
  0
VERTEX
  8
0
 10
260.163154
 20
153.044792
 42
0.000000
  0
VERTEX
  8
0
 10
272.500000
 20
165.589583
 42
0.000000
  0
VERTEX
  8
0
 10
289.000000
 20
165.162892
 42
-0.001891
  0
VERTEX
  8
0
 10
295.353762
 20
164.974540
 42
-0.003040
  0
VERTEX
  8
0
 10
300.768362
 20
164.760571
 42
-0.000581
  0
VERTEX
  8
0
 10
305.532449
 20
164.537747
 42
-0.169498
  0
SEQEND
  0
POLYLINE
  8
0
 66
1
 70
1
  0
VERTEX
  8
0
 10
331.571429
 20
453.428571
 42
0.070804
  0
VERTEX
  8
0
 10
330.431265
 20
451.910012
 42
0.138903
  0
VERTEX
  8
0
 10
330.094424
 20
450.449123
 42
0.116463
  0
VERTEX
  8
0
 10
330.556112
 20
448.851439
 42
0.041891
  0
VERTEX
  8
0
 10
331.895332
 20
446.880932
 42
0.034210
  0
VERTEX
  8
0
 10
333.031975
 20
445.658509
 42
0.120054
  0
VERTEX
  8
0
 10
333.961086
 20
445.133437
 42
0.119657
  0
VERTEX
  8
0
 10
335.029371
 20
445.093635
 42
0.033878
  0
VERTEX
  8
0
 10
336.645332
 20
445.538554
 42
0.173090
  0
VERTEX
  8
0
 10
339.252130
 20
447.643061
 42
0.170268
  0
VERTEX
  8
0
 10
339.959803
 20
450.938591
 42
0.178742
  0
VERTEX
  8
0
 10
338.451127
 20
453.839853
 42
0.186499
  0
VERTEX
  8
0
 10
335.448984
 20
455.000000
 42
0.057435
  0
VERTEX
  8
0
 10
334.450921
 20
454.884973
 42
0.038907
  0
VERTEX
  8
0
 10
333.358675
 20
454.538393
 42
0.039092
  0
VERTEX
  8
0
 10
332.341562
 20
454.030433
 42
0.061095
  0
SEQEND
  0
POLYLINE
  8
0
 66
1
 70
1
  0
VERTEX
  8
0
 10
408.293050
 20
450.433124
 42
0.058235
  0
VERTEX
  8
0
 10
405.509391
 20
448.806133
 42
0.120049
  0
VERTEX
  8
0
 10
403.920520
 20
446.867522
 42
0.148938
  0
VERTEX
  8
0
 10
403.590124
 20
444.709451
 42
0.109498
  0
VERTEX
  8
0
 10
404.451981
 20
442.432942
 42
0.092139
  0
VERTEX
  8
0
 10
405.988483
 20
440.828587
 42
0.129541
  0
VERTEX
  8
0
 10
407.830713
 20
440.123381
 42
0.093845
  0
VERTEX
  8
0
 10
410.229216
 20
440.313736
 42
0.032371
  0
VERTEX
  8
0
 10
413.532119
 20
441.448973
 42
0.029510
  0
VERTEX
  8
0
 10
415.340405
 20
442.333165
 42
0.098486
  0
VERTEX
  8
0
 10
416.337457
 20
443.190375
 42
0.116531
  0
VERTEX
  8
0
 10
416.839254
 20
444.277865
 42
0.050117
  0
VERTEX
  8
0
 10
417.000000
 20
445.877545
 42
0.079589
  0
VERTEX
  8
0
 10
416.647200
 20
448.079887
 42
0.075965
  0
VERTEX
  8
0
 10
415.622293
 20
450.100934
 42
0.086737
  0
VERTEX
  8
0
 10
414.196080
 20
451.502811
 42
0.169819
  0
VERTEX
  8
0
 10
412.678571
 20
451.918426
 42
0.053678
  0
VERTEX
  8
0
 10
412.028765
 20
451.802625
 42
0.010737
  0
VERTEX
  8
0
 10
410.904164
 20
451.448469
 42
0.011237
  0
VERTEX
  8
0
 10
409.607264
 20
450.976487
 42
0.010272
  0
SEQEND
  0
POLYLINE
  8
0
 66
1
 70
1
  0
VERTEX
  8
0
 10
456.571429
 20
378.428571
 42
0.099197
  0
VERTEX
  8
0
 10
455.367899
 20
376.621902
 42
0.137950
  0
VERTEX
  8
0
 10
455.144600
 20
374.701112
 42
0.105630
  0
VERTEX
  8
0
 10
455.969641
 20
372.567111
 42
0.043018
  0
VERTEX
  8
0
 10
457.901210
 20
370.105755
 42
0.040416
  0
VERTEX
  8
0
 10
460.260692
 20
367.957179
 42
0.133071
  0
VERTEX
  8
0
 10
462.188196
 20
367.157486
 42
0.161678
  0
VERTEX
  8
0
 10
464.025173
 20
367.514387
 42
0.068336
  0
VERTEX
  8
0
 10
466.051152
 20
369.051152
 42
0.104085
  0
VERTEX
  8
0
 10
467.264594
 20
370.911465
 42
0.131612
  0
VERTEX
  8
0
 10
467.486824
 20
372.945339
 42
0.102017
  0
VERTEX
  8
0
 10
466.645126
 20
375.207414
 42
0.045442
  0
VERTEX
  8
0
 10
464.710751
 20
377.750000
 42
0.084032
  0
VERTEX
  8
0
 10
462.773570
 20
379.259468
 42
0.103135
  0
VERTEX
  8
0
 10
460.579462
 20
379.911163
 42
0.110190
  0
VERTEX
  8
0
 10
458.419857
 20
379.614934
 42
0.107811
  0
SEQEND
  0
POLYLINE
  8
0
 66
1
 70
1
  0
VERTEX
  8
0
 10
149.200000
 20
260.800000
 42
0.183157
  0
VERTEX
  8
0
 10
147.985788
 20
258.103528
 42
0.160360
  0
VERTEX
  8
0
 10
148.775896
 20
255.099741
 42
0.130877
  0
VERTEX
  8
0
 10
151.412898
 20
252.714564
 42
0.112116
  0
VERTEX
  8
0
 10
155.048528
 20
251.779557
 42
0.131016
  0
VERTEX
  8
0
 10
158.443755
 20
252.582133
 42
0.169517
  0
VERTEX
  8
0
 10
160.592805
 20
254.924961
 42
0.187703
  0
VERTEX
  8
0
 10
160.698208
 20
257.904930
 42
0.157291
  0
VERTEX
  8
0
 10
158.777494
 20
260.443296
 42
0.086629
  0
VERTEX
  8
0
 10
156.499190
 20
261.510831
 42
0.057095
  0
VERTEX
  8
0
 10
153.631738
 20
261.947996
 42
0.059277
  0
VERTEX
  8
0
 10
150.929649
 20
261.728137
 42
0.147505
  0
SEQEND
  0
POLYLINE
  8
0
 66
1
 70
1
  0
VERTEX
  8
0
 10
261.579030
 20
254.087327
 42
0.138128
  0
VERTEX
  8
0
 10
260.410012
 20
251.733996
 42
0.085593
  0
VERTEX
  8
0
 10
260.361059
 20
248.627293
 42
0.086428
  0
VERTEX
  8
0
 10
261.351201
 20
245.712261
 42
0.145905
  0
VERTEX
  8
0
 10
263.169526
 20
243.909272
 42
0.124629
  0
VERTEX
  8
0
 10
265.383953
 20
243.359339
 42
0.115525
  0
VERTEX
  8
0
 10
267.662868
 20
243.903985
 42
0.110320
  0
VERTEX
  8
0
 10
269.541472
 20
245.436779
 42
0.105581
  0
VERTEX
  8
0
 10
270.626175
 20
247.646698
 42
0.143177
  0
VERTEX
  8
0
 10
270.471040
 20
251.672541
 42
0.158609
  0
VERTEX
  8
0
 10
268.159879
 20
254.792710
 42
0.183210
  0
VERTEX
  8
0
 10
264.731038
 20
255.691155
 42
0.184320
  0
SEQEND
  0
ENDSEC
  0
EOF
