  0
SECTION
  2
HEADER
  9
$ACADVER
  1
AC1006
  9
$EXTMIN
 10
0.000000
 20
0.000000
 30
0.000000
  9
$EXTMAX
 10
512.000000
 20
512.000000
 30
0.000000
  0
ENDSEC
  0
SECTION
  2
ENTITIES
  0
POLYLINE
  8
0
 66
1
 70
1
  0
VERTEX
  8
0
 10
51.346687
 20
487.958795
 42
0.106018
  0
VERTEX
  8
0
 10
31.471805
 20
479.861528
 42
0.096886
  0
VERTEX
  8
0
 10
15.909863
 20
464.114974
 42
0.080551
  0
VERTEX
  8
0
 10
5.419153
 20
440.970947
 42
0.049053
  0
VERTEX
  8
0
 10
0.423265
 20
411.296713
 42
0.004381
  0
VERTEX
  8
0
 10
0.029843
 20
404.747886
 42
0.049858
  0
VERTEX
  8
0
 10
0.155047
 20
402.162659
 42
0.108589
  0
VERTEX
  8
0
 10
0.810757
 20
400.443376
 42
0.051222
  0
VERTEX
  8
0
 10
2.317874
 20
398.591217
 42
0.072412
  0
VERTEX
  8
0
 10
4.665454
 20
396.840322
 42
0.105079
  0
VERTEX
  8
0
 10
7.136841
 20
396.111257
 42
0.108601
  0
VERTEX
  8
0
 10
9.630805
 20
396.459857
 42
0.081537
  0
VERTEX
  8
0
 10
12.045823
 20
397.836022
 42
0.100132
  0
VERTEX
  8
0
 10
13.316322
 20
399.373704
 42
0.062932
  0
VERTEX
  8
0
 10
14.151913
 20
401.558829
 42
0.029737
  0
VERTEX
  8
0
 10
14.814714
 20
405.199383
 42
0.004525
  0
VERTEX
  8
0
 10
15.637368
 20
412.541406
 42
-0.007736
  0
VERTEX
  8
0
 10
16.291360
 20
418.057856
 42
-0.006145
  0
VERTEX
  8
0
 10
17.162733
 20
423.993500
 42
-0.006217
  0
VERTEX
  8
0
 10
18.106753
 20
429.477035
 42
-0.015457
  0
VERTEX
  8
0
 10
18.970649
 20
433.455385
 42
-0.029659
  0
VERTEX
  8
0
 10
21.467254
 20
441.412195
 42
-0.024667
  0
VERTEX
  8
0
 10
25.024444
 20
449.537288
 42
-0.025443
  0
VERTEX
  8
0
 10
29.071122
 20
456.723417
 42
-0.054657
  0
VERTEX
  8
0
 10
33.028946
 20
461.688983
 42
-0.012794
  0
VERTEX
  8
0
 10
35.395680
 20
463.952289
 42
-0.067904
  0
VERTEX
  8
0
 10
36.869339
 20
464.964542
 42
-0.121594
  0
VERTEX
  8
0
 10
38.131446
 20
465.252450
 42
-0.086616
  0
VERTEX
  8
0
 10
39.561325
 20
464.976684
 42
-0.020699
  0
VERTEX
  8
0
 10
42.590315
 20
463.679184
 42
-0.008454
  0
VERTEX
  8
0
 10
46.597906
 20
461.678559
 42
-0.008451
  0
VERTEX
  8
0
 10
50.755545
 20
459.424345
 42
-0.012280
  0
VERTEX
  8
0
 10
54.338202
 20
457.285140
 42
0.000000
  0
VERTEX
  8
0
 10
58.176405
 20
454.863552
 42
0.000000
  0
VERTEX
  8
0
 10
53.838202
 20
452.093547
 42
0.043357
  0
VERTEX
  8
0
 10
47.821934
 20
447.473080
 42
0.056662
  0
VERTEX
  8
0
 10
43.272166
 20
442.243693
 42
0.057476
  0
VERTEX
  8
0
 10
40.058439
 20
436.189216
 42
0.046468
  0
VERTEX
  8
0
 10
38.021443
 20
429.113071
 42
0.028772
  0
VERTEX
  8
0
 10
37.453354
 20
424.764170
 42
0.072558
  0
VERTEX
  8
0
 10
37.684065
 20
421.587399
 42
0.094373
  0
VERTEX
  8
0
 10
38.741111
 20
419.125412
 42
0.077793
  0
VERTEX
  8
0
 10
40.690168
 20
417.029074
 42
0.055672
  0
VERTEX
  8
0
 10
42.270538
 20
416.048604
 42
0.073962
  0
VERTEX
  8
0
 10
43.885941
 20
415.555258
 42
0.048699
  0
VERTEX
  8
0
 10
46.043400
 20
415.444204
 42
0.011805
  0
VERTEX
  8
0
 10
49.609469
 20
415.692453
 42
0.000000
  0
VERTEX
  8
0
 10
56.063357
 20
416.295126
 42
0.000000
  0
VERTEX
  8
0
 10
52.618785
 20
411.176514
 42
0.026682
  0
VERTEX
  8
0
 10
49.689336
 20
406.278232
 42
0.050806
  0
VERTEX
  8
0
 10
47.971022
 20
402.026983
 42
0.053507
  0
VERTEX
  8
0
 10
47.197071
 20
397.666858
 42
0.033101
  0
VERTEX
  8
0
 10
47.183592
 20
392.457686
 42
0.035136
  0
VERTEX
  8
0
 10
47.933525
 20
386.887642
 42
0.145642
  0
VERTEX
  8
0
 10
49.523401
 20
383.930652
 42
0.156122
  0
VERTEX
  8
0
 10
52.400847
 20
382.438189
 42
0.042208
  0
VERTEX
  8
0
 10
57.582407
 20
382.000000
 42
-0.012165
  0
VERTEX
  8
0
 10
61.206471
 20
381.911816
 42
-0.064383
  0
VERTEX
  8
0
 10
63.157286
 20
381.562376
 42
-0.099219
  0
VERTEX
  8
0
 10
64.542838
 20
380.798909
 42
-0.050759
  0
VERTEX
  8
0
 10
65.927420
 20
379.365141
 42
-0.045087
  0
VERTEX
  8
0
 10
67.442635
 20
377.034188
 42
-0.135695
  0
VERTEX
  8
0
 10
67.846527
 20
375.198299
 42
-0.105976
  0
VERTEX
  8
0
 10
67.290919
 20
373.145772
 42
-0.021897
  0
VERTEX
  8
0
 10
65.422210
 20
369.876773
 42
0.016048
  0
VERTEX
  8
0
 10
64.061288
 20
367.559391
 42
0.003421
  0
VERTEX
  8
0
 10
61.853452
 20
363.440670
 42
0.003574
  0
VERTEX
  8
0
 10
59.360656
 20
358.629902
 42
0.003395
  0
VERTEX
  8
0
 10
56.893120
 20
353.700888
 42
-0.001273
  0
VERTEX
  8
0
 10
54.582828
 20
349.036639
 42
-0.002001
  0
VERTEX
  8
0
 10
52.571672
 20
345.042288
 42
-0.000497
  0
VERTEX
  8
0
 10
50.795861
 20
341.558778
 42
-0.078402
  0
VERTEX
  8
0
 10
50.538955
 20
341.205622
 42
-0.327362
  0
VERTEX
  8
0
 10
50.209275
 20
341.154897
 42
-0.005885
  0
VERTEX
  8
0
 10
48.545382
 20
342.046331
 42
-0.012157
  0
VERTEX
  8
0
 10
46.577536
 20
343.193839
 42
-0.007505
  0
VERTEX
  8
0
 10
44.318046
 20
344.633334
 42
-0.034741
  0
VERTEX
  8
0
 10
37.906605
 20
349.524653
 42
-0.021693
  0
VERTEX
  8
0
 10
31.085981
 20
356.066551
 42
-0.021799
  0
VERTEX
  8
0
 10
25.017103
 20
362.996061
 42
-0.043832
  0
VERTEX
  8
0
 10
20.987903
 20
369.038783
 42
0.033500
  0
VERTEX
  8
0
 10
18.006822
 20
373.715877
 42
0.102140
  0
VERTEX
  8
0
 10
15.221713
 20
376.222381
 42
0.151813
  0
VERTEX
  8
0
 10
12.354658
 20
376.887322
 42
0.109949
  0
VERTEX
  8
0
 10
9.195129
 20
375.936047
 42
0.053414
  0
VERTEX
  8
0
 10
8.101163
 20
375.158036
 42
0.035346
  0
VERTEX
  8
0
 10
7.021135
 20
374.055786
 42
0.035469
  0
VERTEX
  8
0
 10
6.113235
 20
372.820065
 42
0.056200
  0
VERTEX
  8
0
 10
5.541868
 20
371.638616
 42
0.078796
  0
VERTEX
  8
0
 10
5.210084
 20
369.824631
 42
0.074284
  0
VERTEX
  8
0
 10
5.444015
 20
367.957806
 42
0.041477
  0
VERTEX
  8
0
 10
6.375290
 20
365.452253
 42
0.008311
  0
VERTEX
  8
0
 10
8.472604
 20
361.169551
 42
0.050185
  0
VERTEX
  8
0
 10
13.314216
 20
353.653983
 42
0.024768
  0
VERTEX
  8
0
 10
20.830803
 20
345.120172
 42
0.024511
  0
VERTEX
  8
0
 10
29.461953
 20
337.076958
 42
0.036328
  0
VERTEX
  8
0
 10
37.822684
 20
331.000000
 42
-0.025568
  0
VERTEX
  8
0
 10
42.981731
 20
327.417104
 42
-0.207522
  0
VERTEX
  8
0
 10
44.338479
 20
324.953658
 42
-0.084651
  0
VERTEX
  8
0
 10
44.064999
 20
321.300100
 42
-0.002393
  0
VERTEX
  8
0
 10
40.184317
 20
306.000000
 42
0.016459
  0
VERTEX
  8
0
 10
34.785008
 20
281.885563
 42
0.018508
  0
VERTEX
  8
0
 10
31.225952
 20
258.391406
 42
0.018624
  0
VERTEX
  8
0
 10
29.429828
 20
234.831216
 42
0.017099
  0
VERTEX
  8
0
 10
29.316779
 20
210.519591
 42
0.005315
  0
VERTEX
  8
0
 10
29.877306
 20
196.575000
 42
0.013698
  0
VERTEX
  8
0
 10
30.664710
 20
186.526453
 42
0.014855
  0
VERTEX
  8
0
 10
31.959657
 20
177.014255
 42
0.007313
  0
VERTEX
  8
0
 10
34.141380
 20
165.000000
 42
0.018414
  0
VERTEX
  8
0
 10
37.654074
 20
150.070678
 42
0.014323
  0
VERTEX
  8
0
 10
42.528759
 20
134.117477
 42
0.011374
  0
VERTEX
  8
0
 10
47.655275
 20
119.983090
 42
0.095117
  0
VERTEX
  8
0
 10
51.252461
 20
114.250000
 42
0.053802
  0
VERTEX
  8
0
 10
52.292289
 20
113.350293
 42
0.044962
  0
VERTEX
  8
0
 10
53.562804
 20
112.629721
 42
0.045643
  0
VERTEX
  8
0
 10
54.918228
 20
112.158130
 42
0.060977
  0
VERTEX
  8
0
 10
56.210047
 20
112.000000
 42
0.059760
  0
VERTEX
  8
0
 10
57.508786
 20
112.155780
 42
0.049585
  0
VERTEX
  8
0
 10
58.823033
 20
112.617491
 42
0.049087
  0
VERTEX
  8
0
 10
60.034190
 20
113.335330
 42
0.055561
  0
VERTEX
  8
0
 10
61.027648
 20
114.250000
 42
-0.005623
  0
VERTEX
  8
0
 10
65.149808
 20
118.884990
 42
-0.028150
  0
VERTEX
  8
0
 10
67.628594
 20
121.319375
 42
-0.052958
  0
VERTEX
  8
0
 10
69.433409
 20
122.592273
 42
-0.127800
  0
VERTEX
  8
0
 10
71.002532
 20
123.000000
 42
-0.051754
  0
VERTEX
  8
0
 10
72.120965
 20
122.883923
 42
-0.211576
  0
VERTEX
  8
0
 10
72.662196
 20
122.494393
 42
-0.156779
  0
VERTEX
  8
0
 10
72.829764
 20
121.741278
 42
-0.025917
  0
VERTEX
  8
0
 10
72.613654
 20
120.250000
 42
0.009890
  0
VERTEX
  8
0
 10
71.672919
 20
114.958883
 42
0.029841
  0
VERTEX
  8
0
 10
71.320054
 20
111.314096
 42
0.035276
  0
VERTEX
  8
0
 10
71.431758
 20
107.998170
 42
0.018793
  0
VERTEX
  8
0
 10
72.012095
 20
103.932382
 42
0.034385
  0
VERTEX
  8
0
 10
73.647314
 20
97.477283
 42
0.038427
  0
VERTEX
  8
0
 10
76.108179
 20
91.552369
 42
0.039395
  0
VERTEX
  8
0
 10
79.381882
 20
86.203546
 42
0.040017
  0
VERTEX
  8
0
 10
83.438572
 20
81.464419
 42
0.039866
  0
VERTEX
  8
0
 10
90.161110
 20
75.765821
 42
0.126082
  0
VERTEX
  8
0
 10
95.615755
 20
73.633711
 42
0.187805
  0
VERTEX
  8
0
 10
100.105114
 20
74.777665
 42
0.109933
  0
VERTEX
  8
0
 10
103.860236
 20
78.965112
 42
-0.028779
  0
VERTEX
  8
0
 10
104.953974
 20
80.673092
 42
-0.015827
  0
VERTEX
  8
0
 10
106.473702
 20
82.636223
 42
-0.015734
  0
VERTEX
  8
0
 10
108.146770
 20
84.536552
 42
-0.024233
  0
VERTEX
  8
0
 10
109.720414
 20
86.059383
 42
0.000000
  0
VERTEX
  8
0
 10
113.418075
 20
89.305972
 42
0.000000
  0
VERTEX
  8
0
 10
114.666273
 20
82.542950
 42
0.059374
  0
VERTEX
  8
0
 10
118.454029
 20
70.346476
 42
0.068175
  0
VERTEX
  8
0
 10
124.885382
 20
59.993470
 42
0.068465
  0
VERTEX
  8
0
 10
133.837796
 20
51.785012
 42
0.060633
  0
VERTEX
  8
0
 10
145.038186
 20
45.893492
 42
0.031527
  0
VERTEX
  8
0
 10
150.401070
 20
44.234042
 42
0.067242
  0
VERTEX
  8
0
 10
154.708645
 20
43.789775
 42
0.091189
  0
VERTEX
  8
0
 10
158.087490
 20
44.521915
 42
0.116820
  0
VERTEX
  8
0
 10
160.655378
 20
46.385742
 42
0.043099
  0
VERTEX
  8
0
 10
161.552886
 20
47.631759
 42
0.033510
  0
VERTEX
  8
0
 10
162.311267
 20
49.120739
 42
0.034447
  0
VERTEX
  8
0
 10
162.832182
 20
50.616028
 42
0.066688
  0
VERTEX
  8
0
 10
163.000000
 20
51.868672
 42
-0.156183
  0
VERTEX
  8
0
 10
164.138831
 20
55.425572
 42
-0.095637
  0
VERTEX
  8
0
 10
167.358360
 20
58.487897
 42
-0.101926
  0
VERTEX
  8
0
 10
171.300400
 20
60.001166
 42
-0.201932
  0
VERTEX
  8
0
 10
174.500000
 20
59.234687
 42
-0.092539
  0
VERTEX
  8
0
 10
175.034380
 20
58.664069
 42
-0.007952
  0
VERTEX
  8
0
 10
176.087500
 20
56.954680
 42
-0.010281
  0
VERTEX
  8
0
 10
177.278031
 20
54.854447
 42
-0.007793
  0
VERTEX
  8
0
 10
178.500000
 20
52.504649
 42
0.046466
  0
VERTEX
  8
0
 10
182.317313
 20
46.372739
 42
0.027979
  0
VERTEX
  8
0
 10
187.877488
 20
39.846429
 42
0.028085
  0
VERTEX
  8
0
 10
194.048860
 20
34.061782
 42
0.052327
  0
VERTEX
  8
0
 10
199.729275
 20
30.239077
 42
0.034908
  0
VERTEX
  8
0
 10
208.592650
 20
26.302166
 42
0.057318
  0
VERTEX
  8
0
 10
216.568975
 20
24.403373
 42
0.027115
  0
VERTEX
  8
0
 10
228.149780
 20
23.649829
 42
0.002690
  0
VERTEX
  8
0
 10
256.000000
 20
23.500000
 42
0.002690
  0
VERTEX
  8
0
 10
283.850220
 20
23.649829
 42
0.027115
  0
VERTEX
  8
0
 10
295.431025
 20
24.403373
 42
0.057318
  0
VERTEX
  8
0
 10
303.407350
 20
26.302166
 42
0.034908
  0
VERTEX
  8
0
 10
312.270725
 20
30.239077
 42
0.052796
  0
VERTEX
  8
0
 10
318.003658
 20
34.104914
 42
0.027896
  0
VERTEX
  8
0
 10
324.261477
 20
39.988139
 42
0.027862
  0
VERTEX
  8
0
 10
329.861726
 20
46.573190
 42
0.049815
  0
VERTEX
  8
0
 10
333.569138
 20
52.626973
 42
-0.008824
  0
VERTEX
  8
0
 10
334.731969
 20
54.929861
 42
-0.011532
  0
VERTEX
  8
0
 10
335.880092
 20
56.990613
 42
-0.009217
  0
VERTEX
  8
0
 10
336.903935
 20
58.661283
 42
-0.097998
  0
VERTEX
  8
0
 10
337.452878
 20
59.234687
 42
-0.195308
  0
VERTEX
  8
0
 10
340.710655
 20
59.983937
 42
-0.102387
  0
VERTEX
  8
0
 10
344.661067
 20
58.479985
 42
-0.096756
  0
VERTEX
  8
0
 10
347.864596
 20
55.430673
 42
-0.155522
  0
VERTEX
  8
0
 10
349.000000
 20
51.868672
 42
0.066649
  0
VERTEX
  8
0
 10
349.167701
 20
50.616169
 42
0.034451
  0
VERTEX
  8
0
 10
349.688206
 20
49.121351
 42
0.033515
  0
VERTEX
  8
0
 10
350.446007
 20
47.633043
 42
0.043127
  0
VERTEX
  8
0
 10
351.342830
 20
46.387825
 42
0.104041
  0
VERTEX
  8
0
 10
353.646335
 20
44.625416
 42
0.088231
  0
VERTEX
  8
0
 10
356.605005
 20
43.807370
 42
0.067989
  0
VERTEX
  8
0
 10
360.324252
 20
43.963756
 42
0.033777
  0
VERTEX
  8
0
 10
364.911063
 20
45.112122
 42
0.067473
  0
VERTEX
  8
0
 10
376.608686
 20
50.727993
 42
0.068399
  0
VERTEX
  8
0
 10
386.328294
 20
59.234168
 42
0.068732
  0
VERTEX
  8
0
 10
393.355738
 20
70.006255
 42
0.069256
  0
VERTEX
  8
0
 10
397.177546
 20
82.252427
 42
-0.008776
  0
VERTEX
  8
0
 10
397.652980
 20
84.839208
 42
-0.014213
  0
VERTEX
  8
0
 10
398.157920
 20
87.017901
 42
-0.007898
  0
VERTEX
  8
0
 10
398.649055
 20
88.779047
 42
-0.332232
  0
VERTEX
  8
0
 10
398.944880
 20
89.000000
 42
-0.204854
  0
VERTEX
  8
0
 10
400.124786
 20
88.495406
 42
-0.007808
  0
VERTEX
  8
0
 10
403.441545
 20
84.913226
 42
-0.014691
  0
VERTEX
  8
0
 10
406.592581
 20
81.186948
 42
-0.038654
  0
VERTEX
  8
0
 10
408.552955
 20
78.292383
 42
0.068066
  0
VERTEX
  8
0
 10
410.748551
 20
75.427798
 42
0.115254
  0
VERTEX
  8
0
 10
413.310731
 20
73.851879
 42
0.118125
  0
VERTEX
  8
0
 10
416.259510
 20
73.595362
 42
0.073803
  0
VERTEX
  8
0
 10
419.591750
 20
74.610562
 42
0.062998
  0
VERTEX
  8
0
 10
423.903026
 20
77.367244
 42
0.029327
  0
VERTEX
  8
0
 10
428.752716
 20
81.915769
 42
0.029170
  0
VERTEX
  8
0
 10
433.174847
 20
87.160888
 42
0.047368
  0
VERTEX
  8
0
 10
436.206592
 20
92.133827
 42
0.039641
  0
VERTEX
  8
0
 10
438.069437
 20
96.886159
 42
0.019716
  0
VERTEX
  8
0
 10
439.701599
 20
103.149767
 42
0.016359
  0
VERTEX
  8
0
 10
440.816664
 20
109.182697
 42
0.113665
  0
VERTEX
  8
0
 10
440.589267
 20
112.156944
 42
-0.030528
  0
VERTEX
  8
0
 10
440.393714
 20
112.950444
 42
-0.005072
  0
VERTEX
  8
0
 10
440.126871
 20
114.500790
 42
-0.005549
  0
VERTEX
  8
0
 10
439.851454
 20
116.332958
 42
-0.004887
  0
VERTEX
  8
0
 10
439.604073
 20
118.250000
 42
-0.009749
  0
VERTEX
  8
0
 10
439.324304
 20
121.064915
 42
-0.096273
  0
VERTEX
  8
0
 10
439.457118
 20
122.241666
 42
-0.232981
  0
VERTEX
  8
0
 10
439.994612
 20
122.804765
 42
-0.087942
  0
VERTEX
  8
0
 10
441.096053
 20
123.000000
 42
-0.131609
  0
VERTEX
  8
0
 10
442.611860
 20
122.593980
 42
-0.050437
  0
VERTEX
  8
0
 10
444.397331
 20
121.307920
 42
-0.027080
  0
VERTEX
  8
0
 10
446.868523
 20
118.867411
 42
-0.005460
  0
VERTEX
  8
0
 10
450.972352
 20
114.250000
 42
0.106759
  0
VERTEX
  8
0
 10
453.161387
 20
112.611897
 42
0.109639
  0
VERTEX
  8
0
 10
455.810106
 20
112.043717
 42
0.106691
  0
VERTEX
  8
0
 10
458.508067
 20
112.646111
 42
0.096386
  0
VERTEX
  8
0
 10
460.830857
 20
114.319956
 42
0.091693
  0
VERTEX
  8
0
 10
463.317565
 20
118.188360
 42
0.008253
  0
VERTEX
  8
0
 10
467.521585
 20
128.965375
 42
0.011473
  0
VERTEX
  8
0
 10
471.686261
 20
141.026303
 42
0.014648
  0
VERTEX
  8
0
 10
474.938770
 20
152.326797
 42
0.035328
  0
VERTEX
  8
0
 10
481.262838
 20
187.016045
 42
0.030825
  0
VERTEX
  8
0
 10
483.036336
 20
223.881325
 42
0.029752
  0
VERTEX
  8
0
 10
480.245773
 20
262.016237
 42
0.027676
  0
VERTEX
  8
0
 10
472.929559
 20
300.500000
 42
0.003561
  0
VERTEX
  8
0
 10
471.633996
 20
305.566900
 42
0.003077
  0
VERTEX
  8
0
 10
470.203210
 20
310.868413
 42
0.003097
  0
VERTEX
  8
0
 10
468.846845
 20
315.658272
 42
0.008999
  0
VERTEX
  8
0
 10
467.829428
 20
318.945660
 42
-0.014509
  0
VERTEX
  8
0
 10
466.392616
 20
323.775977
 42
-0.200889
  0
VERTEX
  8
0
 10
466.635210
 20
325.543542
 42
-0.112801
  0
VERTEX
  8
0
 10
468.072614
 20
327.063324
 42
-0.003300
  0
VERTEX
  8
0
 10
475.500000
 20
331.950729
 42
0.033354
  0
VERTEX
  8
0
 10
485.010494
 20
339.062499
 42
0.033811
  0
VERTEX
  8
0
 10
493.444797
 20
347.345673
 42
0.034444
  0
VERTEX
  8
0
 10
500.541295
 20
356.527594
 42
0.037877
  0
VERTEX
  8
0
 10
506.062329
 20
366.319499
 42
0.093118
  0
VERTEX
  8
0
 10
511.853538
 20
388.813253
 42
0.048552
  0
VERTEX
  8
0
 10
510.960468
 20
417.855436
 42
0.048194
  0
VERTEX
  8
0
 10
504.400263
 20
446.639577
 42
0.081757
  0
VERTEX
  8
0
 10
492.940112
 20
468.463096
 42
0.114093
  0
VERTEX
  8
0
 10
476.060144
 20
482.591543
 42
0.105843
  0
VERTEX
  8
0
 10
454.218789
 20
488.373564
 42
0.092687
  0
VERTEX
  8
0
 10
429.497580
 20
484.966549
 42
0.067265
  0
VERTEX
  8
0
 10
404.500000
 20
472.701820
 42
0.018840
  0
VERTEX
  8
0
 10
397.420321
 20
467.560134
 42
0.011612
  0
VERTEX
  8
0
 10
389.472662
 20
461.013551
 42
0.011649
  0
VERTEX
  8
0
 10
381.997224
 20
454.248504
 42
0.022866
  0
VERTEX
  8
0
 10
376.435145
 20
448.468910
 42
0.000000
  0
VERTEX
  8
0
 10
370.952175
 20
442.223722
 42
0.000000
  0
VERTEX
  8
0
 10
362.226088
 20
446.485661
 42
0.014209
  0
VERTEX
  8
0
 10
352.503169
 20
450.896875
 42
0.012851
  0
VERTEX
  8
0
 10
342.216951
 20
454.907887
 42
0.012557
  0
VERTEX
  8
0
 10
331.488839
 20
458.474877
 42
0.012026
  0
VERTEX
  8
0
 10
320.440409
 20
461.554376
 42
0.011389
  0
VERTEX
  8
0
 10
305.839078
 20
464.896272
 42
0.019648
  0
VERTEX
  8
0
 10
293.541138
 20
466.917937
 42
0.017886
  0
VERTEX
  8
0
 10
280.357783
 20
468.079398
 42
0.007723
  0
VERTEX
  8
0
 10
262.735708
 20
468.725709
 42
0.004292
  0
VERTEX
  8
0
 10
244.355068
 20
468.957866
 42
0.020306
  0
VERTEX
  8
0
 10
233.827739
 20
468.572811
 42
0.034009
  0
VERTEX
  8
0
 10
227.282257
 20
467.615957
 42
0.153085
  0
VERTEX
  8
0
 10
223.960901
 20
465.727657
 42
0.094518
  0
VERTEX
  8
0
 10
222.583134
 20
463.537623
 42
0.090255
  0
VERTEX
  8
0
 10
222.078818
 20
460.957786
 42
0.088303
  0
VERTEX
  8
0
 10
222.513334
 20
458.317696
 42
0.085555
  0
VERTEX
  8
0
 10
223.833614
 20
455.957150
 42
0.135612
  0
VERTEX
  8
0
 10
225.695381
 20
454.626445
 42
0.068232
  0
VERTEX
  8
0
 10
228.539391
 20
454.006196
 42
0.020406
  0
VERTEX
  8
0
 10
233.968912
 20
453.801586
 42
0.001265
  0
VERTEX
  8
0
 10
250.083614
 20
453.892963
 42
-0.004321
  0
VERTEX
  8
0
 10
260.164888
 20
453.888506
 42
-0.004295
  0
VERTEX
  8
0
 10
270.265187
 20
453.709970
 42
-0.004213
  0
VERTEX
  8
0
 10
279.091833
 20
453.403654
 42
-0.016720
  0
VERTEX
  8
0
 10
284.500000
 20
452.988834
 42
-0.032976
  0
VERTEX
  8
0
 10
314.336466
 20
447.685214
 42
-0.035071
  0
VERTEX
  8
0
 10
342.589708
 20
438.573831
 42
-0.036081
  0
VERTEX
  8
0
 10
368.537210
 20
425.904970
 42
-0.039822
  0
VERTEX
  8
0
 10
391.500000
 20
409.994351
 42
-0.021381
  0
VERTEX
  8
0
 10
399.801664
 20
402.590519
 42
-0.011749
  0
VERTEX
  8
0
 10
409.342499
 20
392.873500
 42
-0.011749
  0
VERTEX
  8
0
 10
418.414634
 20
382.720880
 42
-0.021418
  0
VERTEX
  8
0
 10
425.255074
 20
373.960136
 42
-0.025276
  0
VERTEX
  8
0
 10
432.197651
 20
363.118185
 42
-0.014158
  0
VERTEX
  8
0
 10
439.576632
 20
349.307409
 42
-0.014085
  0
VERTEX
  8
0
 10
446.275890
 20
334.861296
 42
-0.021822
  0
VERTEX
  8
0
 10
451.149082
 20
322.008854
 42
0.000000
  0
VERTEX
  8
0
 10
455.455453
 20
308.960623
 42
0.000000
  0
VERTEX
  8
0
 10
453.609680
 20
303.730311
 42
-0.018711
  0
VERTEX
  8
0
 10
450.827503
 20
296.696806
 42
-0.015097
  0
VERTEX
  8
0
 10
447.334773
 20
289.359509
 42
-0.014573
  0
VERTEX
  8
0
 10
443.257991
 20
281.960795
 42
-0.014169
  0
VERTEX
  8
0
 10
438.720558
 20
274.741139
 42
-0.030631
  0
VERTEX
  8
0
 10
432.088768
 20
266.029723
 42
-0.015670
  0
VERTEX
  8
0
 10
422.788478
 20
255.910604
 42
-0.015590
  0
VERTEX
  8
0
 10
412.626060
 20
246.154082
 42
-0.024506
  0
VERTEX
  8
0
 10
403.254145
 20
238.500000
 42
0.017246
  0
VERTEX
  8
0
 10
397.617610
 20
234.031400
 42
0.067382
  0
VERTEX
  8
0
 10
394.655396
 20
230.730779
 42
0.117764
  0
VERTEX
  8
0
 10
393.545378
 20
227.803162
 42
0.123441
  0
VERTEX
  8
0
 10
393.906975
 20
224.744675
 42
0.109321
  0
VERTEX
  8
0
 10
395.589924
 20
222.182093
 42
0.115138
  0
VERTEX
  8
0
 10
398.168378
 20
220.627173
 42
0.065085
  0
VERTEX
  8
0
 10
402.343732
 20
219.852705
 42
0.014965
  0
VERTEX
  8
0
 10
409.522897
 20
219.684057
 42
0.047235
  0
VERTEX
  8
0
 10
423.930964
 20
221.141895
 42
0.044708
  0
VERTEX
  8
0
 10
438.089042
 20
225.283622
 42
0.044491
  0
VERTEX
  8
0
 10
451.350674
 20
231.901593
 42
0.045761
  0
VERTEX
  8
0
 10
463.098322
 20
240.707793
 42
-0.012537
  0
VERTEX
  8
0
 10
464.970119
 20
242.315486
 42
-0.067318
  0
VERTEX
  8
0
 10
466.113074
 20
243.016450
 42
-0.187723
  0
VERTEX
  8
0
 10
466.840800
 20
243.048909
 42
-0.223052
  0
VERTEX
  8
0
 10
467.332182
 20
242.576731
 42
-0.083032
  0
VERTEX
  8
0
 10
467.694184
 20
240.797532
 42
-0.002211
  0
VERTEX
  8
0
 10
467.940634
 20
232.751131
 42
-0.004930
  0
VERTEX
  8
0
 10
468.085956
 20
223.856747
 42
-0.004768
  0
VERTEX
  8
0
 10
468.058431
 20
214.861434
 42
0.000000
  0
VERTEX
  8
0
 10
468.000000
 20
210.222868
 42
0.000000
  0
VERTEX
  8
0
 10
460.109344
 20
206.117697
 42
-0.034272
  0
VERTEX
  8
0
 10
447.430048
 20
200.588705
 42
-0.025185
  0
VERTEX
  8
0
 10
432.742397
 20
196.168447
 42
-0.023873
  0
VERTEX
  8
0
 10
416.768755
 20
193.026244
 42
-0.022364
  0
VERTEX
  8
0
 10
400.216217
 20
191.335796
 42
0.015454
  0
VERTEX
  8
0
 10
391.210452
 20
190.541619
 42
0.094948
  0
VERTEX
  8
0
 10
386.791662
 20
189.134966
 42
0.188882
  0
VERTEX
  8
0
 10
384.711794
 20
186.665213
 42
0.100186
  0
VERTEX
  8
0
 10
384.198046
 20
182.636552
 42
0.048318
  0
VERTEX
  8
0
 10
384.635199
 20
180.081109
 42
0.110731
  0
VERTEX
  8
0
 10
385.543517
 20
178.363954
 42
0.060893
  0
VERTEX
  8
0
 10
387.431609
 20
176.632864
 42
0.007349
  0
VERTEX
  8
0
 10
392.078250
 20
173.414817
 42
0.036528
  0
VERTEX
  8
0
 10
404.205061
 20
166.503820
 42
0.044816
  0
VERTEX
  8
0
 10
416.422636
 20
161.969243
 42
0.044036
  0
VERTEX
  8
0
 10
429.430005
 20
159.631771
 42
0.033410
  0
VERTEX
  8
0
 10
443.926592
 20
159.298354
 42
0.004341
  0
VERTEX
  8
0
 10
448.906221
 20
159.559931
 42
0.005624
  0
VERTEX
  8
0
 10
453.467499
 20
159.890792
 42
0.004305
  0
VERTEX
  8
0
 10
457.276433
 20
160.243229
 42
0.049407
  0
VERTEX
  8
0
 10
458.750000
 20
160.541337
 42
-0.032465
  0
VERTEX
  8
0
 10
459.836037
 20
160.799566
 42
-0.134854
  0
VERTEX
  8
0
 10
460.500076
 20
160.733233
 42
-0.210665
  0
VERTEX
  8
0
 10
460.869820
 20
160.365324
 42
-0.093427
  0
VERTEX
  8
0
 10
461.000000
 20
159.674714
 42
-0.070327
  0
VERTEX
  8
0
 10
460.712384
 20
157.639993
 42
-0.001155
  0
VERTEX
  8
0
 10
457.498425
 20
146.594564
 42
-0.000697
  0
VERTEX
  8
0
 10
454.150975
 20
135.247236
 42
-0.124929
  0
VERTEX
  8
0
 10
453.519516
 20
134.186183
 42
-0.292975
  0
VERTEX
  8
0
 10
453.250009
 20
134.127217
 42
-0.007333
  0
VERTEX
  8
0
 10
452.024393
 20
134.601556
 42
-0.013468
  0
VERTEX
  8
0
 10
450.561464
 20
135.238904
 42
-0.008485
  0
VERTEX
  8
0
 10
448.887108
 20
136.057593
 42
0.066768
  0
VERTEX
  8
0
 10
444.121389
 20
137.734857
 42
0.049261
  0
VERTEX
  8
0
 10
438.553646
 20
138.330775
 42
0.048466
  0
VERTEX
  8
0
 10
432.869767
 20
137.825445
 42
0.058445
  0
VERTEX
  8
0
 10
427.755237
 20
136.230521
 42
0.050310
  0
VERTEX
  8
0
 10
424.052457
 20
134.112535
 42
0.111958
  0
VERTEX
  8
0
 10
421.904210
 20
131.700889
 42
0.134976
  0
VERTEX
  8
0
 10
421.232213
 20
128.911161
 42
0.090078
  0
VERTEX
  8
0
 10
421.926496
 20
125.679512
 42
-0.048284
  0
VERTEX
  8
0
 10
424.681510
 20
116.606439
 42
-0.067811
  0
VERTEX
  8
0
 10
425.212759
 20
108.170728
 42
-0.074289
  0
VERTEX
  8
0
 10
423.490283
 20
100.497780
 42
-0.074441
  0
VERTEX
  8
0
 10
419.601007
 20
93.669272
 42
-0.084039
  0
VERTEX
  8
0
 10
418.632206
 20
92.790400
 42
-0.246121
  0
VERTEX
  8
0
 10
417.761652
 20
92.714968
 42
-0.090424
  0
VERTEX
  8
0
 10
416.609977
 20
93.463881
 42
-0.007117
  0
VERTEX
  8
0
 10
413.978689
 20
96.021311
 42
0.048031
  0
VERTEX
  8
0
 10
409.515888
 20
99.700193
 42
0.041566
  0
VERTEX
  8
0
 10
404.218111
 20
102.665893
 42
0.041286
  0
VERTEX
  8
0
 10
398.462856
 20
104.732409
 42
0.045708
  0
VERTEX
  8
0
 10
392.639164
 20
105.737195
 42
0.049096
  0
VERTEX
  8
0
 10
387.048047
 20
105.633119
 42
0.210753
  0
VERTEX
  8
0
 10
384.244130
 20
103.982141
 42
0.137854
  0
VERTEX
  8
0
 10
382.891696
 20
100.268331
 42
0.017624
  0
VERTEX
  8
0
 10
382.548629
 20
91.698747
 42
-0.008170
  0
VERTEX
  8
0
 10
382.424426
 20
85.815266
 42
-0.034063
  0
VERTEX
  8
0
 10
382.051089
 20
82.291250
 42
-0.046110
  0
VERTEX
  8
0
 10
381.262787
 20
79.395680
 42
-0.024647
  0
VERTEX
  8
0
 10
379.792653
 20
75.987507
 42
-0.035771
  0
VERTEX
  8
0
 10
377.250363
 20
71.628932
 42
-0.040618
  0
VERTEX
  8
0
 10
374.207072
 20
67.871264
 42
-0.041347
  0
VERTEX
  8
0
 10
370.648302
 20
64.710619
 42
-0.039689
  0
VERTEX
  8
0
 10
366.570843
 20
62.130145
 42
0.000000
  0
VERTEX
  8
0
 10
362.641687
 20
60.060065
 42
0.000000
  0
VERTEX
  8
0
 10
360.943226
 20
62.780033
 42
0.058123
  0
VERTEX
  8
0
 10
357.162724
 20
67.509809
 42
0.051717
  0
VERTEX
  8
0
 10
352.253866
 20
71.455329
 42
0.054393
  0
VERTEX
  8
0
 10
346.955730
 20
74.113394
 42
0.089318
  0
VERTEX
  8
0
 10
342.032119
 20
75.000000
 42
-0.154877
  0
VERTEX
  8
0
 10
339.561399
 20
75.784123
 42
-0.332654
  0
VERTEX
  8
0
 10
338.978273
 20
77.580410
 42
-0.114935
  0
VERTEX
  8
0
 10
340.829507
 20
80.551312
 42
-0.025756
  0
VERTEX
  8
0
 10
345.293397
 20
84.571779
 42
0.039312
  0
VERTEX
  8
0
 10
350.857295
 20
89.862798
 42
0.030609
  0
VERTEX
  8
0
 10
356.047646
 20
96.404106
 42
0.030204
  0
VERTEX
  8
0
 10
360.476822
 20
103.641932
 42
0.034975
  0
VERTEX
  8
0
 10
363.762613
 20
111.022570
 42
0.026982
  0
VERTEX
  8
0
 10
365.370372
 20
116.314055
 42
0.038652
  0
VERTEX
  8
0
 10
366.169382
 20
121.149552
 42
0.017106
  0
VERTEX
  8
0
 10
366.543825
 20
128.304639
 42
0.001552
  0
VERTEX
  8
0
 10
366.811534
 20
146.184877
 42
0.002455
  0
VERTEX
  8
0
 10
366.900480
 20
158.969422
 42
0.007242
  0
VERTEX
  8
0
 10
366.791204
 20
167.756694
 42
0.006075
  0
VERTEX
  8
0
 10
366.544945
 20
174.056878
 42
0.110491
  0
VERTEX
  8
0
 10
366.009235
 20
175.982744
 42
0.152285
  0
VERTEX
  8
0
 10
363.332750
 20
178.615445
 42
0.131056
  0
VERTEX
  8
0
 10
359.462252
 20
179.457734
 42
0.129322
  0
VERTEX
  8
0
 10
355.647018
 20
178.262620
 42
0.146660
  0
VERTEX
  8
0
 10
353.129720
 20
175.385358
 42
0.090414
  0
VERTEX
  8
0
 10
352.613718
 20
173.340562
 42
0.006191
  0
VERTEX
  8
0
 10
352.287059
 20
167.349252
 42
0.007382
  0
VERTEX
  8
0
 10
352.067576
 20
159.318425
 42
0.003140
  0
VERTEX
  8
0
 10
352.000000
 20
148.558282
 42
-0.002359
  0
VERTEX
  8
0
 10
351.934337
 20
134.638539
 42
-0.013613
  0
VERTEX
  8
0
 10
351.664576
 20
127.283303
 42
-0.025470
  0
VERTEX
  8
0
 10
351.090352
 20
122.303928
 42
-0.033512
  0
VERTEX
  8
0
 10
350.035874
 20
117.855335
 42
-0.085860
  0
VERTEX
  8
0
 10
342.692303
 20
103.435693
 42
-0.090430
  0
VERTEX
  8
0
 10
331.039703
 20
92.621756
 42
-0.090647
  0
VERTEX
  8
0
 10
316.345484
 20
86.634532
 42
-0.086774
  0
VERTEX
  8
0
 10
300.248113
 20
86.103103
 42
-0.041312
  0
VERTEX
  8
0
 10
292.742183
 20
87.802778
 42
-0.049118
  0
VERTEX
  8
0
 10
286.063906
 20
90.653290
 42
-0.043277
  0
VERTEX
  8
0
 10
279.438109
 20
95.071225
 42
-0.023127
  0
VERTEX
  8
0
 10
272.038469
 20
101.572027
 42
0.000000
  0
VERTEX
  8
0
 10
263.000000
 20
110.285136
 42
0.000000
  0
VERTEX
  8
0
 10
263.000000
 20
120.432874
 42
0.000000
  0
VERTEX
  8
0
 10
263.000000
 20
130.580613
 42
0.000000
  0
VERTEX
  8
0
 10
274.688178
 20
140.040306
 42
0.007875
  0
VERTEX
  8
0
 10
279.508904
 20
144.069195
 42
0.013580
  0
VERTEX
  8
0
 10
283.373288
 20
147.591118
 42
0.012173
  0
VERTEX
  8
0
 10
286.254818
 20
150.502615
 42
0.117642
  0
VERTEX
  8
0
 10
287.115491
 20
152.000000
 42
0.002194
  0
VERTEX
  8
0
 10
287.502428
 20
153.330195
 42
0.000598
  0
VERTEX
  8
0
 10
288.101789
 20
155.434399
 42
0.000605
  0
VERTEX
  8
0
 10
288.775838
 20
157.822609
 42
0.000630
  0
VERTEX
  8
0
 10
289.435169
 20
160.180934
 42
-0.052241
  0
VERTEX
  8
0
 10
291.402628
 20
165.168349
 42
-0.080474
  0
VERTEX
  8
0
 10
294.169181
 20
168.878456
 42
-0.074629
  0
VERTEX
  8
0
 10
298.129126
 20
171.708383
 42
-0.038947
  0
VERTEX
  8
0
 10
303.743095
 20
174.040002
 42
0.017472
  0
VERTEX
  8
0
 10
309.720989
 20
176.227072
 42
0.047916
  0
VERTEX
  8
0
 10
313.700529
 20
178.306118
 42
0.063686
  0
VERTEX
  8
0
 10
316.529301
 20
180.710077
 42
0.056854
  0
VERTEX
  8
0
 10
318.788090
 20
183.836746
 42
0.101665
  0
VERTEX
  8
0
 10
320.847998
 20
190.280709
 42
0.084025
  0
VERTEX
  8
0
 10
320.408445
 20
197.490256
 42
0.076304
  0
VERTEX
  8
0
 10
317.498979
 20
204.756426
 42
0.063376
  0
VERTEX
  8
0
 10
312.389782
 20
211.342852
 42
0.079542
  0
VERTEX
  8
0
 10
307.217142
 20
215.080390
 42
0.089790
  0
VERTEX
  8
0
 10
301.346230
 20
216.818654
 42
0.025949
  0
VERTEX
  8
0
 10
290.907685
 20
217.412961
 42
0.001247
  0
VERTEX
  8
0
 10
256.000000
 20
217.500000
 42
0.001273
  0
VERTEX
  8
0
 10
221.000644
 20
217.410918
 42
0.026423
  0
VERTEX
  8
0
 10
210.523359
 20
216.803351
 42
0.090850
  0
VERTEX
  8
0
 10
204.608740
 20
215.025717
 42
0.078297
  0
VERTEX
  8
0
 10
199.356119
 20
211.200470
 42
0.063776
  0
VERTEX
  8
0
 10
194.341827
 20
204.708889
 42
0.076095
  0
VERTEX
  8
0
 10
191.487498
 20
197.529778
 42
0.083621
  0
VERTEX
  8
0
 10
191.061707
 20
190.402951
 42
0.101560
  0
VERTEX
  8
0
 10
193.096525
 20
184.042046
 42
0.053733
  0
VERTEX
  8
0
 10
195.378401
 20
180.841647
 42
0.064202
  0
VERTEX
  8
0
 10
198.171279
 20
178.412729
 42
0.047720
  0
VERTEX
  8
0
 10
202.125879
 20
176.292125
 42
0.016231
  0
VERTEX
  8
0
 10
208.224272
 20
173.966056
 42
-0.040999
  0
VERTEX
  8
0
 10
214.205877
 20
171.338597
 42
-0.084081
  0
VERTEX
  8
0
 10
218.227049
 20
168.194461
 42
-0.081238
  0
VERTEX
  8
0
 10
221.072137
 20
163.826294
 42
-0.036250
  0
VERTEX
  8
0
 10
223.385509
 20
157.342547
 42
0.000000
  0
VERTEX
  8
0
 10
225.558086
 20
149.500000
 42
0.000000
  0
VERTEX
  8
0
 10
236.758297
 20
140.500000
 42
0.000000
  0
VERTEX
  8
0
 10
247.958508
 20
131.500000
 42
0.000000
  0
VERTEX
  8
0
 10
247.979254
 20
120.387818
 42
0.000000
  0
VERTEX
  8
0
 10
248.000000
 20
109.275636
 42
0.000000
  0
VERTEX
  8
0
 10
239.438999
 20
101.056733
 42
-0.024665
  0
VERTEX
  8
0
 10
232.326968
 20
94.872984
 42
-0.042818
  0
VERTEX
  8
0
 10
225.788800
 20
90.582000
 42
-0.047709
  0
VERTEX
  8
0
 10
219.145917
 20
87.774526
 42
-0.041124
  0
VERTEX
  8
0
 10
211.751887
 20
86.103103
 42
-0.076093
  0
VERTEX
  8
0
 10
197.243705
 20
86.274035
 42
-0.083148
  0
VERTEX
  8
0
 10
183.923818
 20
90.830309
 42
-0.082181
  0
VERTEX
  8
0
 10
172.694975
 20
99.536021
 42
-0.072145
  0
VERTEX
  8
0
 10
164.268856
 20
111.766592
 42
0.000000
  0
VERTEX
  8
0
 10
160.500000
 20
119.388435
 42
0.000000
  0
VERTEX
  8
0
 10
160.179555
 20
148.433028
 42
-0.002445
  0
VERTEX
  8
0
 10
160.084416
 20
163.923366
 42
-0.008933
  0
VERTEX
  8
0
 10
160.247626
 20
173.745675
 42
-0.013758
  0
VERTEX
  8
0
 10
160.697140
 20
180.987177
 42
-0.019045
  0
VERTEX
  8
0
 10
161.525117
 20
187.441064
 42
-0.034924
  0
VERTEX
  8
0
 10
165.711702
 20
204.888740
 42
-0.037261
  0
VERTEX
  8
0
 10
172.221131
 20
221.195446
 42
-0.037083
  0
VERTEX
  8
0
 10
181.111621
 20
236.424021
 42
-0.033939
  0
VERTEX
  8
0
 10
192.397455
 20
250.657284
 42
0.012060
  0
VERTEX
  8
0
 10
195.144989
 20
253.827191
 42
0.036375
  0
VERTEX
  8
0
 10
196.799393
 20
256.157841
 42
0.054181
  0
VERTEX
  8
0
 10
197.698547
 20
258.086091
 42
0.082203
  0
VERTEX
  8
0
 10
198.000000
 20
259.907284
 42
0.095813
  0
VERTEX
  8
0
 10
197.462277
 20
262.687645
 42
0.103935
  0
VERTEX
  8
0
 10
195.932127
 20
264.976876
 42
0.102716
  0
VERTEX
  8
0
 10
193.592999
 20
266.475343
 42
0.091512
  0
VERTEX
  8
0
 10
190.750399
 20
267.000000
 42
0.082575
  0
VERTEX
  8
0
 10
188.762465
 20
266.669440
 42
0.071571
  0
VERTEX
  8
0
 10
186.878506
 20
265.706641
 42
0.040571
  0
VERTEX
  8
0
 10
184.569451
 20
263.775736
 42
0.008652
  0
VERTEX
  8
0
 10
180.901253
 20
260.037546
 42
0.040891
  0
VERTEX
  8
0
 10
168.831247
 20
245.016910
 42
0.035835
  0
VERTEX
  8
0
 10
158.761953
 20
227.573736
 42
0.035503
  0
VERTEX
  8
0
 10
151.200151
 20
208.691755
 42
0.038182
  0
VERTEX
  8
0
 10
146.604901
 20
189.380671
 42
0.031820
  0
VERTEX
  8
0
 10
145.260811
 20
175.073383
 42
0.007315
  0
VERTEX
  8
0
 10
144.886655
 20
150.813908
 42
0.005796
  0
VERTEX
  8
0
 10
145.149127
 20
126.512563
 42
0.057960
  0
VERTEX
  8
0
 10
146.547128
 20
116.460099
 42
0.041149
  0
VERTEX
  8
0
 10
149.821267
 20
107.091978
 42
0.037799
  0
VERTEX
  8
0
 10
154.662877
 20
98.102562
 42
0.038502
  0
VERTEX
  8
0
 10
160.690853
 20
90.116406
 42
0.047445
  0
VERTEX
  8
0
 10
167.500349
 20
83.741542
 42
-0.032024
  0
VERTEX
  8
0
 10
171.467107
 20
80.250809
 42
-0.128195
  0
VERTEX
  8
0
 10
173.089037
 20
77.483368
 42
-0.326781
  0
VERTEX
  8
0
 10
172.440089
 20
75.741167
 42
-0.146675
  0
VERTEX
  8
0
 10
169.967881
 20
75.000000
 42
0.079786
  0
VERTEX
  8
0
 10
165.170380
 20
74.229553
 42
0.057106
  0
VERTEX
  8
0
 10
160.227843
 20
71.947492
 42
0.053925
  0
VERTEX
  8
0
 10
155.646004
 20
68.432513
 42
0.053666
  0
VERTEX
  8
0
 10
151.913403
 20
64.013880
 42
-0.011813
  0
VERTEX
  8
0
 10
150.183119
 20
61.579041
 42
-0.135549
  0
VERTEX
  8
0
 10
149.263177
 20
60.865235
 42
-0.186107
  0
VERTEX
  8
0
 10
148.232428
 20
60.842114
 42
-0.026367
  0
VERTEX
  8
0
 10
146.241889
 20
61.679713
 42
-0.047591
  0
VERTEX
  8
0
 10
142.163905
 20
64.158286
 42
-0.037530
  0
VERTEX
  8
0
 10
138.265407
 20
67.551853
 42
-0.037147
  0
VERTEX
  8
0
 10
134.874464
 20
71.535106
 42
-0.043657
  0
VERTEX
  8
0
 10
132.310949
 20
75.775753
 42
-0.022977
  0
VERTEX
  8
0
 10
130.769177
 20
79.317977
 42
-0.046755
  0
VERTEX
  8
0
 10
129.956885
 20
82.240078
 42
-0.035067
  0
VERTEX
  8
0
 10
129.576881
 20
85.758457
 42
-0.008179
  0
VERTEX
  8
0
 10
129.451371
 20
91.698747
 42
0.017624
  0
VERTEX
  8
0
 10
129.108304
 20
100.268331
 42
0.137854
  0
VERTEX
  8
0
 10
127.755870
 20
103.982141
 42
0.210753
  0
VERTEX
  8
0
 10
124.951953
 20
105.633119
 42
0.049096
  0
VERTEX
  8
0
 10
119.360836
 20
105.737195
 42
0.045108
  0
VERTEX
  8
0
 10
113.623441
 20
104.754365
 42
0.040665
  0
VERTEX
  8
0
 10
107.943629
 20
102.738191
 42
0.040527
  0
VERTEX
  8
0
 10
102.645734
 20
99.820548
 42
0.044036
  0
VERTEX
  8
0
 10
98.044089
 20
96.156722
 42
-0.007571
  0
VERTEX
  8
0
 10
95.372106
 20
93.690905
 42
-0.084140
  0
VERTEX
  8
0
 10
94.148539
 20
92.919920
 42
-0.227726
  0
VERTEX
  8
0
 10
93.244982
 20
92.968245
 42
-0.097297
  0
VERTEX
  8
0
 10
92.292340
 20
93.762909
 42
-0.076559
  0
VERTEX
  8
0
 10
88.757724
 20
99.812707
 42
-0.065687
  0
VERTEX
  8
0
 10
86.969305
 20
106.973194
 42
-0.061346
  0
VERTEX
  8
0
 10
87.039613
 20
114.812666
 42
-0.052359
  0
VERTEX
  8
0
 10
88.974296
 20
122.853171
 42
0.035180
  0
VERTEX
  8
0
 10
90.421308
 20
128.073092
 42
0.134844
  0
VERTEX
  8
0
 10
90.194337
 20
131.406602
 42
0.154736
  0
VERTEX
  8
0
 10
88.330647
 20
133.893651
 42
0.051094
  0
VERTEX
  8
0
 10
84.317966
 20
136.183547
 42
0.058566
  0
VERTEX
  8
0
 10
79.235706
 20
137.752740
 42
0.046258
  0
VERTEX
  8
0
 10
73.499776
 20
138.270507
 42
0.046821
  0
VERTEX
  8
0
 10
67.852015
 20
137.726648
 42
0.065218
  0
VERTEX
  8
0
 10
63.036853
 20
136.131894
 42
-0.005808
  0
VERTEX
  8
0
 10
61.342351
 20
135.337344
 42
-0.009467
  0
VERTEX
  8
0
 10
59.884631
 20
134.707394
 42
-0.003628
  0
VERTEX
  8
0
 10
58.641093
 20
134.208227
 42
-0.331359
  0
VERTEX
  8
0
 10
58.462102
 20
134.256894
 42
-0.089272
  0
VERTEX
  8
0
 10
58.024301
 20
135.083053
 42
-0.000739
  0
VERTEX
  8
0
 10
55.799937
 20
142.081240
 42
-0.003034
  0
VERTEX
  8
0
 10
53.698265
 20
148.870421
 42
-0.005984
  0
VERTEX
  8
0
 10
52.126247
 20
154.292921
 42
0.000000
  0
VERTEX
  8
0
 10
50.244762
 20
161.085842
 42
0.000000
  0
VERTEX
  8
0
 10
54.872381
 20
160.292921
 42
0.026567
  0
VERTEX
  8
0
 10
57.480786
 20
159.987461
 42
0.005470
  0
VERTEX
  8
0
 10
62.106262
 20
159.744341
 42
0.005740
  0
VERTEX
  8
0
 10
67.492176
 20
159.582212
 42
0.005374
  0
VERTEX
  8
0
 10
73.000000
 20
159.538880
 42
0.006951
  0
VERTEX
  8
0
 10
80.237375
 20
159.660346
 42
0.018749
  0
VERTEX
  8
0
 10
85.366853
 20
160.010604
 42
0.023725
  0
VERTEX
  8
0
 10
89.710992
 20
160.680992
 42
0.019240
  0
VERTEX
  8
0
 10
94.291487
 20
161.797201
 42
0.034728
  0
VERTEX
  8
0
 10
104.726456
 20
165.570043
 42
0.027212
  0
VERTEX
  8
0
 10
115.457802
 20
171.031634
 42
0.023872
  0
VERTEX
  8
0
 10
124.448421
 20
176.831409
 42
0.162101
  0
VERTEX
  8
0
 10
127.515682
 20
181.049410
 42
0.114331
  0
VERTEX
  8
0
 10
127.704094
 20
183.409693
 42
0.072603
  0
VERTEX
  8
0
 10
126.904105
 20
186.061740
 42
0.071761
  0
VERTEX
  8
0
 10
125.363705
 20
188.406754
 42
0.105083
  0
VERTEX
  8
0
 10
123.385358
 20
189.870280
 42
0.053914
  0
VERTEX
  8
0
 10
122.069934
 20
190.305911
 42
0.017428
  0
VERTEX
  8
0
 10
120.047478
 20
190.668145
 42
0.017151
  0
VERTEX
  8
0
 10
117.754117
 20
190.916968
 42
0.018446
  0
VERTEX
  8
0
 10
115.504163
 20
191.000000
 42
-0.032220
  0
VERTEX
  8
0
 10
102.155926
 20
191.861065
 42
-0.018702
  0
VERTEX
  8
0
 10
86.305133
 20
194.520595
 42
-0.018701
  0
VERTEX
  8
0
 10
70.694336
 20
198.357944
 42
-0.032164
  0
VERTEX
  8
0
 10
58.086512
 20
202.856694
 42
-0.006712
  0
VERTEX
  8
0
 10
49.940247
 20
206.499189
 42
-0.053557
  0
VERTEX
  8
0
 10
46.415150
 20
208.616580
 42
-0.115971
  0
VERTEX
  8
0
 10
44.650130
 20
210.746568
 42
-0.084946
  0
VERTEX
  8
0
 10
43.764518
 20
213.697339
 42
-0.034911
  0
VERTEX
  8
0
 10
43.511749
 20
218.526282
 42
-0.003603
  0
VERTEX
  8
0
 10
43.793513
 20
229.930414
 42
-0.000697
  0
VERTEX
  8
0
 10
44.213260
 20
242.530048
 42
-0.404087
  0
VERTEX
  8
0
 10
44.699807
 20
243.000000
 42
-0.163174
  0
VERTEX
  8
0
 10
44.983373
 20
242.904928
 42
-0.001442
  0
VERTEX
  8
0
 10
46.810528
 20
241.516271
 42
-0.004788
  0
VERTEX
  8
0
 10
48.902155
 20
239.885098
 42
-0.003049
  0
VERTEX
  8
0
 10
51.306109
 20
237.949006
 42
0.034225
  0
VERTEX
  8
0
 10
58.014102
 20
233.203658
 42
0.021293
  0
VERTEX
  8
0
 10
66.453476
 20
228.541730
 42
0.021178
  0
VERTEX
  8
0
 10
75.358086
 20
224.567768
 42
0.031175
  0
VERTEX
  8
0
 10
83.500000
 20
221.914020
 42
0.033259
  0
VERTEX
  8
0
 10
92.008840
 20
220.310609
 42
0.025010
  0
VERTEX
  8
0
 10
101.512569
 20
219.646616
 42
0.022526
  0
VERTEX
  8
0
 10
110.066055
 20
219.863066
 42
0.128118
  0
VERTEX
  8
0
 10
114.342730
 20
221.304996
 42
0.078767
  0
VERTEX
  8
0
 10
116.166838
 20
222.961390
 42
0.078765
  0
VERTEX
  8
0
 10
117.389279
 20
225.100727
 42
0.080388
  0
VERTEX
  8
0
 10
117.873906
 20
227.473222
 42
0.087320
  0
VERTEX
  8
0
 10
117.561429
 20
229.806453
 42
0.121634
  0
VERTEX
  8
0
 10
116.891924
 20
230.899889
 42
0.009699
  0
VERTEX
  8
0
 10
114.415440
 20
233.253238
 42
0.012677
  0
VERTEX
  8
0
 10
111.298183
 20
235.960697
 42
0.009376
  0
VERTEX
  8
0
 10
107.721135
 20
238.800773
 42
-0.028646
  0
VERTEX
  8
0
 10
91.879990
 20
252.405113
 42
-0.032950
  0
VERTEX
  8
0
 10
78.473028
 20
267.145403
 42
-0.034417
  0
VERTEX
  8
0
 10
67.622466
 20
282.891169
 42
-0.037839
  0
VERTEX
  8
0
 10
59.416116
 20
299.499230
 42
-0.007291
  0
VERTEX
  8
0
 10
57.451184
 20
304.584755
 42
-0.041991
  0
VERTEX
  8
0
 10
56.681672
 20
307.363126
 42
-0.069513
  0
VERTEX
  8
0
 10
56.576846
 20
309.570410
 42
-0.042948
  0
VERTEX
  8
0
 10
57.035552
 20
312.132031
 42
-0.034166
  0
VERTEX
  8
0
 10
65.571229
 20
336.943547
 42
-0.033976
  0
VERTEX
  8
0
 10
77.419507
 20
360.409542
 42
-0.034089
  0
VERTEX
  8
0
 10
92.293404
 20
381.981319
 42
-0.034929
  0
VERTEX
  8
0
 10
109.849510
 20
401.145617
 42
-0.028519
  0
VERTEX
  8
0
 10
126.876585
 20
415.554798
 42
-0.031120
  0
VERTEX
  8
0
 10
144.961282
 20
427.482841
 42
-0.030701
  0
VERTEX
  8
0
 10
164.611668
 20
437.205588
 42
-0.026345
  0
VERTEX
  8
0
 10
186.324189
 20
445.018466
 42
0.008228
  0
VERTEX
  8
0
 10
191.542445
 20
446.685324
 42
0.012176
  0
VERTEX
  8
0
 10
196.054595
 20
448.332337
 42
0.009006
  0
VERTEX
  8
0
 10
199.679312
 20
449.832269
 42
0.132109
  0
VERTEX
  8
0
 10
200.750000
 20
450.685872
 42
0.127108
  0
VERTEX
  8
0
 10
201.944983
 20
453.658897
 42
0.102391
  0
VERTEX
  8
0
 10
201.686931
 20
457.104612
 42
0.103001
  0
VERTEX
  8
0
 10
200.086371
 20
460.148461
 42
0.130253
  0
VERTEX
  8
0
 10
197.512334
 20
461.995311
 42
0.153445
  0
VERTEX
  8
0
 10
192.428018
 20
462.294645
 42
0.014033
  0
VERTEX
  8
0
 10
180.083031
 20
458.827868
 42
0.017976
  0
VERTEX
  8
0
 10
165.917763
 20
453.852339
 42
0.016560
  0
VERTEX
  8
0
 10
151.746873
 20
447.746178
 42
0.000000
  0
VERTEX
  8
0
 10
140.993745
 20
442.684203
 42
0.000000
  0
VERTEX
  8
0
 10
132.746873
 20
451.151373
 42
0.023048
  0
VERTEX
  8
0
 10
119.239281
 20
463.797980
 42
0.032898
  0
VERTEX
  8
0
 10
106.075009
 20
473.612255
 42
0.036205
  0
VERTEX
  8
0
 10
92.833163
 20
480.888975
 42
0.039963
  0
VERTEX
  8
0
 10
79.102776
 20
485.904303
 42
0.028019
  0
VERTEX
  8
0
 10
72.256865
 20
487.394311
 42
0.021103
  0
VERTEX
  8
0
 10
64.604593
 20
488.286629
 42
0.021508
  0
VERTEX
  8
0
 10
57.242909
 20
488.513990
 42
0.040897
  0
SEQEND
  0
POLYLINE
  8
0
 66
1
 70
1
  0
VERTEX
  8
0
 10
73.500000
 20
471.849232
 42
-0.040861
  0
VERTEX
  8
0
 10
79.557806
 20
470.006760
 42
-0.017209
  0
VERTEX
  8
0
 10
87.364527
 20
466.601178
 42
-0.017179
  0
VERTEX
  8
0
 10
95.286410
 20
462.475749
 42
-0.026001
  0
VERTEX
  8
0
 10
101.843520
 20
458.305477
 42
-0.025236
  0
VERTEX
  8
0
 10
107.825605
 20
453.576682
 42
-0.006776
  0
VERTEX
  8
0
 10
116.831038
 20
445.469896
 42
-0.001980
  0
VERTEX
  8
0
 10
126.308863
 20
436.632523
 42
-0.206980
  0
VERTEX
  8
0
 10
127.000000
 20
435.034473
 42
-0.219776
  0
VERTEX
  8
0
 10
126.813682
 20
434.631066
 42
-0.004498
  0
VERTEX
  8
0
 10
125.060005
 20
433.164560
 42
-0.009698
  0
VERTEX
  8
0
 10
122.926987
 20
431.481378
 42
-0.006263
  0
VERTEX
  8
0
 10
120.395761
 20
429.611901
 42
0.000000
  0
VERTEX
  8
0
 10
113.791521
 20
424.860924
 42
0.000000
  0
VERTEX
  8
0
 10
104.645761
 20
434.609367
 42
0.011933
  0
VERTEX
  8
0
 10
95.515355
 20
443.887436
 42
0.014432
  0
VERTEX
  8
0
 10
86.499627
 20
452.131050
 42
0.015090
  0
VERTEX
  8
0
 10
77.398887
 20
459.515368
 42
0.015852
  0
VERTEX
  8
0
 10
68.014404
 20
466.211818
 42
-0.001110
  0
VERTEX
  8
0
 10
63.948449
 20
468.935920
 42
-0.001706
  0
VERTEX
  8
0
 10
60.441731
 20
471.314067
 42
-0.000550
  0
VERTEX
  8
0
 10
57.414563
 20
473.387001
 42
-0.049449
  0
VERTEX
  8
0
 10
57.000000
 20
473.736433
 42
-0.698391
  0
VERTEX
  8
0
 10
57.191611
 20
474.135475
 42
-0.004430
  0
VERTEX
  8
0
 10
62.698542
 20
473.555000
 42
-0.009813
  0
VERTEX
  8
0
 10
68.511603
 20
472.774278
 42
-0.015114
  0
SEQEND
  0
POLYLINE
  8
0
 66
1
 70
1
  0
VERTEX
  8
0
 10
454.916667
 20
473.611234
 42
-0.038666
  0
VERTEX
  8
0
 10
454.573414
 20
473.337343
 42
-0.000280
  0
VERTEX
  8
0
 10
451.533790
 20
471.277290
 42
-0.001066
  0
VERTEX
  8
0
 10
448.045846
 20
468.927070
 42
-0.000683
  0
VERTEX
  8
0
 10
443.985596
 20
466.211818
 42
0.015864
  0
VERTEX
  8
0
 10
434.590408
 20
459.507383
 42
0.015127
  0
VERTEX
  8
0
 10
425.485069
 20
452.117485
 42
0.014449
  0
VERTEX
  8
0
 10
416.456990
 20
443.858751
 42
0.011867
  0
VERTEX
  8
0
 10
407.292446
 20
434.543527
 42
0.000000
  0
VERTEX
  8
0
 10
398.084893
 20
424.729244
 42
0.000000
  0
VERTEX
  8
0
 10
391.012038
 20
429.561911
 42
0.000000
  0
VERTEX
  8
0
 10
383.939184
 20
434.394578
 42
0.000000
  0
VERTEX
  8
0
 10
391.719592
 20
442.314611
 42
-0.026045
  0
VERTEX
  8
0
 10
402.307619
 20
452.025492
 42
-0.026202
  0
VERTEX
  8
0
 10
413.827332
 20
460.562089
 42
-0.027860
  0
VERTEX
  8
0
 10
425.141268
 20
467.185723
 42
-0.051866
  0
VERTEX
  8
0
 10
435.037148
 20
471.027377
 42
-0.021883
  0
VERTEX
  8
0
 10
440.888441
 20
472.353669
 42
-0.012473
  0
VERTEX
  8
0
 10
448.055349
 20
473.467621
 42
-0.007742
  0
VERTEX
  8
0
 10
454.641427
 20
474.220152
 42
-0.717351
  0
SEQEND
  0
POLYLINE
  8
0
 66
1
 70
1
  0
VERTEX
  8
0
 10
487.422499
 20
448.689441
 42
-0.056103
  0
VERTEX
  8
0
 10
493.215362
 20
432.002138
 42
-0.033869
  0
VERTEX
  8
0
 10
496.436588
 20
411.295008
 42
-0.034065
  0
VERTEX
  8
0
 10
496.812139
 20
391.006158
 42
-0.075148
  0
VERTEX
  8
0
 10
493.746739
 20
375.853643
 42
-0.047734
  0
VERTEX
  8
0
 10
489.614195
 20
367.188657
 42
-0.040990
  0
VERTEX
  8
0
 10
483.724267
 20
358.979207
 42
-0.038025
  0
VERTEX
  8
0
 10
476.108463
 20
351.285268
 42
-0.030117
  0
VERTEX
  8
0
 10
466.819825
 20
344.161199
 42
-0.008174
  0
VERTEX
  8
0
 10
464.962298
 20
342.950284
 42
-0.011274
  0
VERTEX
  8
0
 10
463.253276
 20
341.928602
 42
-0.008065
  0
VERTEX
  8
0
 10
461.804040
 20
341.136626
 42
-0.121596
  0
VERTEX
  8
0
 10
461.250543
 20
341.000000
 42
-0.262480
  0
VERTEX
  8
0
 10
460.779953
 20
341.265320
 42
-0.008676
  0
VERTEX
  8
0
 10
459.658263
 20
343.194357
 42
-0.014489
  0
VERTEX
  8
0
 10
458.401068
 20
345.607070
 42
-0.009332
  0
VERTEX
  8
0
 10
457.078548
 20
348.470150
 42
0.009676
  0
VERTEX
  8
0
 10
455.471976
 20
351.941891
 42
0.004894
  0
VERTEX
  8
0
 10
453.321271
 20
356.255122
 42
0.004858
  0
VERTEX
  8
0
 10
451.012647
 20
360.667420
 42
0.007213
  0
VERTEX
  8
0
 10
448.897830
 20
364.482185
 42
-0.008651
  0
VERTEX
  8
0
 10
447.022005
 20
367.888919
 42
-0.011425
  0
VERTEX
  8
0
 10
445.438738
 20
371.059241
 42
-0.008955
  0
VERTEX
  8
0
 10
444.232648
 20
373.742612
 42
-0.101472
  0
VERTEX
  8
0
 10
444.000000
 20
374.877176
 42
-0.079018
  0
VERTEX
  8
0
 10
444.142128
 20
375.770897
 42
-0.029311
  0
VERTEX
  8
0
 10
444.608820
 20
376.959922
 42
-0.028168
  0
VERTEX
  8
0
 10
445.279354
 20
378.220225
 42
-0.030321
  0
VERTEX
  8
0
 10
446.072580
 20
379.365141
 42
-0.050759
  0
VERTEX
  8
0
 10
447.457162
 20
380.798909
 42
-0.099219
  0
VERTEX
  8
0
 10
448.842714
 20
381.562376
 42
-0.064383
  0
VERTEX
  8
0
 10
450.793529
 20
381.911816
 42
-0.012165
  0
VERTEX
  8
0
 10
454.417593
 20
382.000000
 42
0.042208
  0
VERTEX
  8
0
 10
459.599153
 20
382.438189
 42
0.156122
  0
VERTEX
  8
0
 10
462.476599
 20
383.930652
 42
0.145642
  0
VERTEX
  8
0
 10
464.066475
 20
386.887642
 42
0.035136
  0
VERTEX
  8
0
 10
464.816408
 20
392.457686
 42
0.034479
  0
VERTEX
  8
0
 10
464.787901
 20
397.793882
 42
0.052775
  0
VERTEX
  8
0
 10
463.961691
 20
402.341365
 42
0.051656
  0
VERTEX
  8
0
 10
462.184701
 20
406.684159
 42
0.031405
  0
VERTEX
  8
0
 10
459.261733
 20
411.404837
 42
0.000000
  0
VERTEX
  8
0
 10
455.780847
 20
416.309674
 42
0.000000
  0
VERTEX
  8
0
 10
462.312633
 20
415.699727
 42
0.011525
  0
VERTEX
  8
0
 10
465.930750
 20
415.445818
 42
0.048464
  0
VERTEX
  8
0
 10
468.103608
 20
415.554199
 42
0.074244
  0
VERTEX
  8
0
 10
469.724531
 20
416.046575
 42
0.055907
  0
VERTEX
  8
0
 10
471.309832
 20
417.029074
 42
0.083763
  0
VERTEX
  8
0
 10
473.301063
 20
419.222383
 42
0.091930
  0
VERTEX
  8
0
 10
474.383170
 20
421.880073
 42
0.070776
  0
VERTEX
  8
0
 10
474.595586
 20
425.301544
 42
0.030027
  0
VERTEX
  8
0
 10
473.955797
 20
429.863056
 42
0.057389
  0
VERTEX
  8
0
 10
471.689982
 20
436.839410
 42
0.050708
  0
VERTEX
  8
0
 10
467.823887
 20
443.437503
 42
0.051549
  0
VERTEX
  8
0
 10
462.788453
 20
449.015152
 42
0.064706
  0
VERTEX
  8
0
 10
457.061468
 20
452.968651
 42
0.000000
  0
VERTEX
  8
0
 10
453.622936
 20
454.736881
 42
0.000000
  0
VERTEX
  8
0
 10
458.000411
 20
457.500260
 42
-0.011164
  0
VERTEX
  8
0
 10
460.107263
 20
458.765374
 42
-0.005306
  0
VERTEX
  8
0
 10
462.872438
 20
460.304233
 42
-0.005256
  0
VERTEX
  8
0
 10
465.798602
 20
461.852655
 42
-0.007428
  0
VERTEX
  8
0
 10
468.438943
 20
463.165211
 42
0.000000
  0
VERTEX
  8
0
 10
474.500000
 20
466.066784
 42
0.000000
  0
VERTEX
  8
0
 10
479.241548
 20
460.972833
 42
-0.026379
  0
VERTEX
  8
0
 10
481.305885
 20
458.506177
 42
-0.014136
  0
VERTEX
  8
0
 10
483.600591
 20
455.263332
 42
-0.014039
  0
VERTEX
  8
0
 10
485.760869
 20
451.813631
 42
-0.021300
  0
SEQEND
  0
POLYLINE
  8
0
 66
1
 70
1
  0
VERTEX
  8
0
 10
76.535516
 20
439.986497
 42
-0.085960
  0
VERTEX
  8
0
 10
79.555538
 20
438.197410
 42
-0.010940
  0
VERTEX
  8
0
 10
85.216866
 20
433.149350
 42
-0.013121
  0
VERTEX
  8
0
 10
91.446340
 20
427.032009
 42
-0.013340
  0
VERTEX
  8
0
 10
97.311102
 20
420.629112
 42
0.000000
  0
VERTEX
  8
0
 10
102.407342
 20
414.758225
 42
0.000000
  0
VERTEX
  8
0
 10
98.314669
 20
411.129112
 42
0.018540
  0
VERTEX
  8
0
 10
94.554207
 20
407.536952
 42
0.007218
  0
VERTEX
  8
0
 10
89.616141
 20
402.307780
 42
0.007307
  0
VERTEX
  8
0
 10
84.680023
 20
396.766733
 42
0.013244
  0
VERTEX
  8
0
 10
80.831632
 20
392.071702
 42
0.000000
  0
VERTEX
  8
0
 10
78.170171
 20
388.643403
 42
0.000000
  0
VERTEX
  8
0
 10
74.528760
 20
391.840605
 42
0.034203
  0
VERTEX
  8
0
 10
72.811499
 20
393.151921
 42
0.021691
  0
VERTEX
  8
0
 10
70.651684
 20
394.447751
 42
0.021769
  0
VERTEX
  8
0
 10
68.409470
 20
395.540537
 42
0.037172
  0
VERTEX
  8
0
 10
66.443674
 20
396.226308
 42
-0.014087
  0
VERTEX
  8
0
 10
64.740674
 20
396.733603
 42
-0.021802
  0
VERTEX
  8
0
 10
63.305329
 20
397.275974
 42
-0.017583
  0
VERTEX
  8
0
 10
62.205523
 20
397.793799
 42
-0.280959
  0
VERTEX
  8
0
 10
62.000000
 20
398.130680
 42
-0.185123
  0
VERTEX
  8
0
 10
62.713731
 20
399.992339
 42
-0.028796
  0
VERTEX
  8
0
 10
65.564955
 20
402.818693
 42
-0.032074
  0
VERTEX
  8
0
 10
69.111632
 20
405.567396
 42
-0.044730
  0
VERTEX
  8
0
 10
72.621512
 20
407.511319
 42
0.047474
  0
VERTEX
  8
0
 10
76.335161
 20
409.594750
 42
0.124030
  0
VERTEX
  8
0
 10
78.333611
 20
411.883182
 42
0.143939
  0
VERTEX
  8
0
 10
78.845625
 20
414.617008
 42
0.073112
  0
VERTEX
  8
0
 10
77.983573
 20
418.039659
 42
0.101041
  0
VERTEX
  8
0
 10
75.210051
 20
422.145507
 42
0.049932
  0
VERTEX
  8
0
 10
70.277763
 20
426.097649
 42
0.047845
  0
VERTEX
  8
0
 10
64.280135
 20
429.221004
 42
0.060118
  0
VERTEX
  8
0
 10
58.236686
 20
430.857279
 42
0.000000
  0
VERTEX
  8
0
 10
53.814266
 20
431.500000
 42
0.000000
  0
VERTEX
  8
0
 10
56.068436
 20
434.362792
 42
-0.081162
  0
VERTEX
  8
0
 10
60.198351
 20
438.147545
 42
-0.078082
  0
VERTEX
  8
0
 10
65.371857
 20
440.482747
 42
-0.077915
  0
VERTEX
  8
0
 10
71.022329
 20
441.121889
 42
-0.080282
  0
SEQEND
  0
POLYLINE
  8
0
 66
1
 70
1
  0
VERTEX
  8
0
 10
449.930544
 20
439.535917
 42
-0.038086
  0
VERTEX
  8
0
 10
451.209589
 20
438.745758
 42
-0.018198
  0
VERTEX
  8
0
 10
452.729967
 20
437.551316
 42
-0.017922
  0
VERTEX
  8
0
 10
454.235188
 20
436.182029
 42
-0.024331
  0
VERTEX
  8
0
 10
455.484732
 20
434.835776
 42
0.000000
  0
VERTEX
  8
0
 10
458.207696
 20
431.599717
 42
0.000000
  0
VERTEX
  8
0
 10
452.853848
 20
430.496483
 42
0.027948
  0
VERTEX
  8
0
 10
448.215451
 20
429.267034
 42
0.041988
  0
VERTEX
  8
0
 10
444.359946
 20
427.641906
 42
0.043306
  0
VERTEX
  8
0
 10
440.917008
 20
425.438032
 42
0.032373
  0
VERTEX
  8
0
 10
437.530116
 20
422.463449
 42
0.070295
  0
VERTEX
  8
0
 10
434.051066
 20
417.839545
 42
0.162986
  0
VERTEX
  8
0
 10
433.276717
 20
413.621242
 42
0.179820
  0
VERTEX
  8
0
 10
435.206624
 20
410.066807
 42
0.088412
  0
VERTEX
  8
0
 10
439.680364
 20
407.377968
 42
-0.060855
  0
VERTEX
  8
0
 10
442.790445
 20
405.733564
 42
-0.030124
  0
VERTEX
  8
0
 10
446.301239
 20
402.962620
 42
-0.025583
  0
VERTEX
  8
0
 10
449.286388
 20
400.012205
 42
-0.187164
  0
VERTEX
  8
0
 10
450.000000
 20
398.172609
 42
-0.278145
  0
VERTEX
  8
0
 10
449.785741
 20
397.817249
 42
-0.018772
  0
VERTEX
  8
0
 10
448.673771
 20
397.282701
 42
-0.022634
  0
VERTEX
  8
0
 10
447.215396
 20
396.724909
 42
-0.014678
  0
VERTEX
  8
0
 10
445.485177
 20
396.207279
 42
0.038911
  0
VERTEX
  8
0
 10
443.492307
 20
395.504287
 42
0.022833
  0
VERTEX
  8
0
 10
441.228031
 20
394.375205
 42
0.022745
  0
VERTEX
  8
0
 10
439.053843
 20
393.031085
 42
0.035673
  0
VERTEX
  8
0
 10
437.332729
 20
391.666113
 42
0.000000
  0
VERTEX
  8
0
 10
433.695105
 20
388.332479
 42
0.000000
  0
VERTEX
  8
0
 10
428.208677
 20
394.916239
 42
0.006574
  0
VERTEX
  8
0
 10
425.638956
 20
397.918760
 42
0.003612
  0
VERTEX
  8
0
 10
422.419232
 20
401.529198
 42
0.003600
  0
VERTEX
  8
0
 10
419.098580
 20
405.146392
 42
0.005751
  0
VERTEX
  8
0
 10
416.204274
 20
408.183158
 42
0.000000
  0
VERTEX
  8
0
 10
409.686299
 20
414.866316
 42
0.000000
  0
VERTEX
  8
0
 10
414.765429
 20
420.683158
 42
-0.011529
  0
VERTEX
  8
0
 10
420.347902
 20
426.786508
 42
-0.012324
  0
VERTEX
  8
0
 10
426.086082
 20
432.488529
 42
-0.011833
  0
VERTEX
  8
0
 10
431.239301
 20
437.136800
 42
-0.057072
  0
VERTEX
  8
0
 10
434.500000
 20
439.349616
 42
-0.077216
  0
VERTEX
  8
0
 10
437.858486
 20
440.492835
 42
-0.040496
  0
VERTEX
  8
0
 10
442.263387
 20
440.903769
 42
-0.040555
  0
VERTEX
  8
0
 10
446.647465
 20
440.600820
 42
-0.081981
  0
SEQEND
  0
POLYLINE
  8
0
 66
1
 70
1
  0
VERTEX
  8
0
 10
464.417219
 20
266.866942
 42
-0.227225
  0
VERTEX
  8
0
 10
463.095751
 20
261.984767
 42
-0.028918
  0
VERTEX
  8
0
 10
455.311688
 20
253.941444
 42
-0.033234
  0
VERTEX
  8
0
 10
445.541459
 20
246.080728
 42
-0.047603
  0
VERTEX
  8
0
 10
435.876887
 20
240.599196
 42
-0.004058
  0
VERTEX
  8
0
 10
428.459102
 20
237.351482
 42
-0.404811
  0
VERTEX
  8
0
 10
427.487609
 20
237.722404
 42
-0.305931
  0
VERTEX
  8
0
 10
427.676689
 20
238.916818
 42
-0.003273
  0
VERTEX
  8
0
 10
433.691857
 20
245.279569
 42
0.014552
  0
VERTEX
  8
0
 10
440.617562
 20
252.944644
 42
0.013663
  0
VERTEX
  8
0
 10
447.237734
 20
261.159060
 42
0.014168
  0
VERTEX
  8
0
 10
453.101407
 20
269.326113
 42
0.020932
  0
VERTEX
  8
0
 10
457.730151
 20
276.833769
 42
0.000000
  0
VERTEX
  8
0
 10
461.464493
 20
283.500000
 42
0.000000
  0
VERTEX
  8
0
 10
462.697854
 20
276.500000
 42
0.000274
  0
VERTEX
  8
0
 10
463.205691
 20
273.626946
 42
0.000282
  0
VERTEX
  8
0
 10
463.711679
 20
270.782789
 42
0.000272
  0
VERTEX
  8
0
 10
464.153026
 20
268.317818
 42
0.001202
  0
SEQEND
  0
POLYLINE
  8
0
 66
1
 70
1
  0
VERTEX
  8
0
 10
54.416029
 20
275.583769
 42
0.021197
  0
VERTEX
  8
0
 10
58.938562
 20
268.245100
 42
0.014802
  0
VERTEX
  8
0
 10
64.621881
 20
260.355844
 42
0.014303
  0
VERTEX
  8
0
 10
71.031683
 20
252.469546
 42
0.015220
  0
VERTEX
  8
0
 10
77.754891
 20
245.128923
 42
-0.005218
  0
VERTEX
  8
0
 10
83.853861
 20
238.731586
 42
-0.428278
  0
VERTEX
  8
0
 10
83.782063
 20
237.499306
 42
-0.296748
  0
VERTEX
  8
0
 10
82.278617
 20
237.308301
 42
-0.004065
  0
VERTEX
  8
0
 10
73.591342
 20
241.598390
 42
-0.027220
  0
VERTEX
  8
0
 10
67.314430
 20
245.202838
 42
-0.021118
  0
VERTEX
  8
0
 10
60.891434
 20
249.768127
 42
-0.021490
  0
VERTEX
  8
0
 10
55.057935
 20
254.712839
 42
-0.034570
  0
VERTEX
  8
0
 10
50.590253
 20
259.455163
 42
0.000000
  0
VERTEX
  8
0
 10
46.893656
 20
263.966373
 42
0.000000
  0
VERTEX
  8
0
 10
48.550718
 20
272.983186
 42
-0.003116
  0
VERTEX
  8
0
 10
49.208376
 20
276.440453
 42
-0.005146
  0
VERTEX
  8
0
 10
49.812094
 20
279.351311
 42
-0.001081
  0
VERTEX
  8
0
 10
50.369764
 20
281.881285
 42
-0.351398
  0
VERTEX
  8
0
 10
50.517824
 20
282.000000
 42
-0.260451
  0
VERTEX
  8
0
 10
50.700944
 20
281.897671
 42
-0.001420
  0
VERTEX
  8
0
 10
51.790815
 20
280.115232
 42
-0.005567
  0
VERTEX
  8
0
 10
53.018088
 20
278.043574
 42
-0.003446
  0
SEQEND
  0
POLYLINE
  8
0
 66
1
 70
1
  0
VERTEX
  8
0
 10
301.229782
 20
201.033894
 42
-0.067587
  0
VERTEX
  8
0
 10
303.199977
 20
198.999268
 42
-0.048065
  0
VERTEX
  8
0
 10
304.829501
 20
196.270219
 42
-0.049492
  0
VERTEX
  8
0
 10
305.803169
 20
193.546561
 42
-0.153906
  0
VERTEX
  8
0
 10
305.685726
 20
191.623400
 42
-0.165494
  0
VERTEX
  8
0
 10
305.130784
 20
190.957039
 42
-0.019289
  0
VERTEX
  8
0
 10
303.413982
 20
189.997210
 42
-0.021489
  0
VERTEX
  8
0
 10
301.215605
 20
188.993657
 42
-0.016007
  0
VERTEX
  8
0
 10
298.713284
 20
188.070976
 42
0.047291
  0
VERTEX
  8
0
 10
289.310612
 20
183.919700
 42
0.078167
  0
VERTEX
  8
0
 10
282.502073
 20
178.566584
 42
0.077317
  0
VERTEX
  8
0
 10
277.617635
 20
171.336792
 42
0.045303
  0
VERTEX
  8
0
 10
274.034838
 20
161.500000
 42
-0.044284
  0
VERTEX
  8
0
 10
273.294030
 20
159.453123
 42
-0.051030
  0
VERTEX
  8
0
 10
272.230970
 20
157.670531
 42
-0.045680
  0
VERTEX
  8
0
 10
270.725587
 20
155.991775
 42
-0.026327
  0
VERTEX
  8
0
 10
268.640200
 20
154.250000
 42
-0.006719
  0
VERTEX
  8
0
 10
266.931574
 20
153.004798
 42
-0.009718
  0
VERTEX
  8
0
 10
265.386389
 20
151.954688
 42
-0.005860
  0
VERTEX
  8
0
 10
264.070021
 20
151.118814
 42
-0.139399
  0
VERTEX
  8
0
 10
263.652139
 20
151.000000
 42
-0.401356
  0
VERTEX
  8
0
 10
263.387065
 20
151.253635
 42
-0.001439
  0
VERTEX
  8
0
 10
263.191566
 20
155.993750
 42
-0.005991
  0
VERTEX
  8
0
 10
263.046870
 20
161.481425
 42
-0.003595
  0
VERTEX
  8
0
 10
263.000000
 20
168.000000
 42
0.002577
  0
VERTEX
  8
0
 10
262.947213
 20
178.243045
 42
0.023647
  0
VERTEX
  8
0
 10
262.691176
 20
182.683824
 42
0.058803
  0
VERTEX
  8
0
 10
262.115179
 20
185.231526
 42
0.111858
  0
VERTEX
  8
0
 10
261.000000
 20
187.000000
 42
0.129006
  0
VERTEX
  8
0
 10
258.181810
 20
188.646695
 42
0.105309
  0
VERTEX
  8
0
 10
254.684580
 20
188.865071
 42
0.107654
  0
VERTEX
  8
0
 10
251.463485
 20
187.645408
 42
0.140551
  0
VERTEX
  8
0
 10
249.407449
 20
185.277780
 42
0.086489
  0
VERTEX
  8
0
 10
249.058529
 20
183.983137
 42
0.003707
  0
VERTEX
  8
0
 10
248.664214
 20
179.260007
 42
0.006248
  0
VERTEX
  8
0
 10
248.306787
 20
173.628364
 42
0.004401
  0
VERTEX
  8
0
 10
248.039800
 20
167.288202
 42
0.000000
  0
VERTEX
  8
0
 10
247.500000
 20
151.076404
 42
0.000000
  0
VERTEX
  8
0
 10
243.305048
 20
154.288202
 42
-0.031537
  0
VERTEX
  8
0
 10
241.022560
 20
156.275946
 42
-0.058436
  0
VERTEX
  8
0
 10
239.489968
 20
158.192554
 42
-0.048687
  0
VERTEX
  8
0
 10
238.275672
 20
160.640477
 42
-0.015973
  0
VERTEX
  8
0
 10
236.965541
 20
164.449918
 42
0.043764
  0
VERTEX
  8
0
 10
233.507302
 20
172.940766
 42
0.076464
  0
VERTEX
  8
0
 10
229.061026
 20
179.079110
 42
0.073028
  0
VERTEX
  8
0
 10
222.823405
 20
183.776727
 42
0.036713
  0
VERTEX
  8
0
 10
213.827295
 20
187.862293
 42
-0.009321
  0
VERTEX
  8
0
 10
209.766718
 20
189.444474
 42
-0.054037
  0
VERTEX
  8
0
 10
207.749001
 20
190.541934
 42
-0.107878
  0
VERTEX
  8
0
 10
206.695602
 20
191.673254
 42
-0.104886
  0
VERTEX
  8
0
 10
206.195976
 20
193.152074
 42
-0.081794
  0
VERTEX
  8
0
 10
206.260897
 20
194.549678
 42
-0.063856
  0
VERTEX
  8
0
 10
206.764417
 20
195.985966
 42
-0.049393
  0
VERTEX
  8
0
 10
207.756159
 20
197.555838
 42
-0.023505
  0
VERTEX
  8
0
 10
209.314053
 20
199.371516
 42
0.000000
  0
VERTEX
  8
0
 10
212.736154
 20
203.000000
 42
0.000000
  0
VERTEX
  8
0
 10
255.733218
 20
203.000000
 42
-0.000771
  0
VERTEX
  8
0
 10
282.931693
 20
202.958074
 42
-0.010026
  0
VERTEX
  8
0
 10
293.046005
 20
202.724035
 42
-0.025293
  0
VERTEX
  8
0
 10
298.483255
 20
202.212720
 42
-0.131291
  0
SEQEND
  0
POLYLINE
  8
0
 66
1
 70
1
  0
VERTEX
  8
0
 10
52.111685
 20
189.106022
 42
0.020703
  0
VERTEX
  8
0
 10
59.112049
 20
186.277833
 42
0.013562
  0
VERTEX
  8
0
 10
67.385325
 20
183.578027
 42
0.013062
  0
VERTEX
  8
0
 10
76.235308
 20
181.202986
 42
0.013979
  0
VERTEX
  8
0
 10
85.000000
 20
179.352176
 42
0.000000
  0
VERTEX
  8
0
 10
94.500000
 20
177.621971
 42
0.000000
  0
VERTEX
  8
0
 10
90.000000
 20
176.138295
 42
-0.042056
  0
VERTEX
  8
0
 10
87.223242
 20
175.475178
 42
-0.015964
  0
VERTEX
  8
0
 10
83.263804
 20
175.004053
 42
-0.013158
  0
VERTEX
  8
0
 10
78.229931
 20
174.700691
 42
-0.007038
  0
VERTEX
  8
0
 10
72.000000
 20
174.577309
 42
-0.013971
  0
VERTEX
  8
0
 10
62.189172
 20
174.795278
 42
-0.030009
  0
VERTEX
  8
0
 10
54.672192
 20
175.626667
 42
-0.036770
  0
VERTEX
  8
0
 10
49.342883
 20
176.951531
 42
-0.196199
  0
VERTEX
  8
0
 10
47.104474
 20
178.854749
 42
-0.076865
  0
VERTEX
  8
0
 10
46.379366
 20
181.004965
 42
-0.008659
  0
VERTEX
  8
0
 10
45.584581
 20
186.108095
 42
-0.003720
  0
VERTEX
  8
0
 10
44.876727
 20
191.533124
 42
-0.450507
  0
VERTEX
  8
0
 10
45.289728
 20
192.000000
 42
-0.099348
  0
VERTEX
  8
0
 10
45.604005
 20
191.936932
 42
-0.001278
  0
VERTEX
  8
0
 10
47.472555
 20
191.149894
 42
-0.003655
  0
VERTEX
  8
0
 10
49.631932
 20
190.215168
 42
-0.002382
  0
SEQEND
  0
POLYLINE
  8
0
 66
1
 70
1
  0
VERTEX
  8
0
 10
466.534370
 20
187.750000
 42
-0.006682
  0
VERTEX
  8
0
 10
465.463254
 20
181.243448
 42
-0.092361
  0
VERTEX
  8
0
 10
464.624629
 20
179.020314
 42
-0.154591
  0
VERTEX
  8
0
 10
463.141875
 20
177.722139
 42
-0.028105
  0
VERTEX
  8
0
 10
459.674103
 20
176.431988
 42
-0.047139
  0
VERTEX
  8
0
 10
452.286666
 20
174.890043
 42
-0.021420
  0
VERTEX
  8
0
 10
442.427578
 20
174.211354
 42
-0.021458
  0
VERTEX
  8
0
 10
432.397251
 20
174.382014
 42
-0.040595
  0
VERTEX
  8
0
 10
424.396664
 20
175.518188
 42
0.000000
  0
VERTEX
  8
0
 10
416.500000
 20
177.302398
 42
0.000000
  0
VERTEX
  8
0
 10
429.500000
 20
180.068887
 42
0.009576
  0
VERTEX
  8
0
 10
438.649826
 20
182.199977
 42
0.013080
  0
VERTEX
  8
0
 10
446.797516
 20
184.491288
 42
0.014291
  0
VERTEX
  8
0
 10
454.175547
 20
187.009230
 42
0.016828
  0
VERTEX
  8
0
 10
461.000000
 20
189.823357
 42
-0.005257
  0
VERTEX
  8
0
 10
462.784663
 20
190.608072
 42
-0.006988
  0
VERTEX
  8
0
 10
464.424257
 20
191.281586
 42
-0.005115
  0
VERTEX
  8
0
 10
465.806700
 20
191.810734
 42
-0.067911
  0
VERTEX
  8
0
 10
466.337898
 20
191.929363
 42
-0.384603
  0
VERTEX
  8
0
 10
466.626561
 20
191.709818
 42
-0.034832
  0
VERTEX
  8
0
 10
466.741244
 20
190.730813
 42
-0.031250
  0
VERTEX
  8
0
 10
466.720217
 20
189.374756
 42
-0.017954
  0
SEQEND
  0
POLYLINE
  8
0
 66
1
 70
1
  0
VERTEX
  8
0
 10
264.315192
 20
88.326937
 42
0.000000
  0
VERTEX
  8
0
 10
271.844039
 20
81.153875
 42
0.000000
  0
VERTEX
  8
0
 10
268.172020
 20
79.332116
 42
-0.085741
  0
VERTEX
  8
0
 10
263.408729
 20
77.913411
 42
-0.028641
  0
VERTEX
  8
0
 10
256.126598
 20
77.467581
 42
-0.028908
  0
VERTEX
  8
0
 10
248.780607
 20
77.864058
 42
-0.076948
  0
VERTEX
  8
0
 10
243.726823
 20
79.237264
 42
0.000000
  0
VERTEX
  8
0
 10
239.953647
 20
80.917314
 42
0.000000
  0
VERTEX
  8
0
 10
247.726823
 20
88.426131
 42
-0.005223
  0
VERTEX
  8
0
 10
250.752979
 20
91.288863
 42
-0.008327
  0
VERTEX
  8
0
 10
253.405561
 20
93.665349
 42
-0.003082
  0
VERTEX
  8
0
 10
255.707227
 20
95.634647
 42
-0.262712
  0
VERTEX
  8
0
 10
256.143172
 20
95.717473
 42
-0.101196
  0
VERTEX
  8
0
 10
256.574236
 20
95.466199
 42
-0.001439
  0
VERTEX
  8
0
 10
258.809011
 20
93.456796
 42
-0.003925
  0
VERTEX
  8
0
 10
261.383216
 20
91.091758
 42
-0.002569
  0
SEQEND
  0
POLYLINE
  8
0
 66
1
 70
1
  0
VERTEX
  8
0
 10
232.840862
 20
68.359500
 42
0.028012
  0
VERTEX
  8
0
 10
237.706932
 20
65.744643
 42
0.037842
  0
VERTEX
  8
0
 10
242.377995
 20
63.978793
 42
0.035616
  0
VERTEX
  8
0
 10
247.478165
 20
62.867265
 42
0.021136
  0
VERTEX
  8
0
 10
253.671398
 20
62.238887
 42
0.039076
  0
VERTEX
  8
0
 10
261.128256
 20
62.382551
 42
0.042593
  0
VERTEX
  8
0
 10
268.253781
 20
63.697668
 42
0.042500
  0
VERTEX
  8
0
 10
275.066886
 20
66.204690
 42
0.038591
  0
VERTEX
  8
0
 10
281.593884
 20
69.895889
 42
-0.010633
  0
VERTEX
  8
0
 10
284.851804
 20
71.986710
 42
-0.053068
  0
VERTEX
  8
0
 10
286.810866
 20
72.916821
 42
-0.093704
  0
VERTEX
  8
0
 10
288.352052
 20
73.150323
 42
-0.082176
  0
VERTEX
  8
0
 10
289.949813
 20
72.825639
 42
0.067361
  0
VERTEX
  8
0
 10
296.452607
 20
71.303411
 42
0.022164
  0
VERTEX
  8
0
 10
306.285148
 20
70.800444
 42
0.021997
  0
VERTEX
  8
0
 10
316.086843
 20
71.165222
 42
0.071427
  0
VERTEX
  8
0
 10
322.413780
 20
72.605288
 42
-0.062763
  0
VERTEX
  8
0
 10
323.425820
 20
72.854073
 42
-0.345743
  0
VERTEX
  8
0
 10
323.873113
 20
72.579793
 42
-0.123922
  0
VERTEX
  8
0
 10
323.964116
 20
71.743465
 42
-0.008818
  0
VERTEX
  8
0
 10
323.597707
 20
69.411308
 42
-0.082841
  0
VERTEX
  8
0
 10
319.927465
 20
58.995226
 42
-0.071909
  0
VERTEX
  8
0
 10
312.935786
 20
49.753208
 42
-0.071037
  0
VERTEX
  8
0
 10
303.520137
 20
42.775950
 42
-0.077273
  0
VERTEX
  8
0
 10
292.789469
 20
38.960074
 42
-0.044896
  0
VERTEX
  8
0
 10
284.051006
 20
38.103704
 42
-0.002421
  0
VERTEX
  8
0
 10
256.255283
 20
38.017171
 42
-0.002519
  0
VERTEX
  8
0
 10
228.548718
 20
38.204692
 42
-0.042368
  0
VERTEX
  8
0
 10
219.433659
 20
39.086953
 42
-0.075622
  0
VERTEX
  8
0
 10
208.554770
 20
42.839179
 42
-0.072926
  0
VERTEX
  8
0
 10
199.131762
 20
49.690630
 42
-0.073811
  0
VERTEX
  8
0
 10
192.163475
 20
58.872832
 42
-0.080722
  0
VERTEX
  8
0
 10
188.427111
 20
69.411308
 42
-0.008685
  0
VERTEX
  8
0
 10
188.044574
 20
71.748236
 42
-0.123880
  0
VERTEX
  8
0
 10
188.129601
 20
72.582071
 42
-0.348303
  0
VERTEX
  8
0
 10
188.573277
 20
72.855527
 42
-0.062188
  0
VERTEX
  8
0
 10
189.586220
 20
72.605288
 42
0.072096
  0
VERTEX
  8
0
 10
195.944284
 20
71.167040
 42
0.022126
  0
VERTEX
  8
0
 10
205.805516
 20
70.828904
 42
0.022304
  0
VERTEX
  8
0
 10
215.696897
 20
71.369220
 42
0.067777
  0
VERTEX
  8
0
 10
222.232883
 20
72.930767
 42
-0.053005
  0
VERTEX
  8
0
 10
223.366059
 20
73.237021
 42
-0.069832
  0
VERTEX
  8
0
 10
224.435121
 20
73.256916
 42
-0.069731
  0
VERTEX
  8
0
 10
225.469538
 20
72.981663
 42
-0.052661
  0
VERTEX
  8
0
 10
226.500000
 20
72.412645
 42
0.007895
  0
VERTEX
  8
0
 10
227.555231
 20
71.700036
 42
0.002355
  0
VERTEX
  8
0
 10
229.187628
 20
70.645728
 42
0.002361
  0
VERTEX
  8
0
 10
231.032259
 20
69.478854
 42
0.002552
  0
SEQEND
  0
POLYLINE
  8
0
 66
1
 70
1
  0
VERTEX
  8
0
 10
241.500000
 20
438.300408
 42
0.042323
  0
VERTEX
  8
0
 10
219.640178
 20
434.431064
 42
0.038268
  0
VERTEX
  8
0
 10
197.964450
 20
426.854003
 42
0.039206
  0
VERTEX
  8
0
 10
178.271681
 20
416.320796
 42
0.051581
  0
VERTEX
  8
0
 10
162.343447
 20
403.633989
 42
0.019900
  0
VERTEX
  8
0
 10
157.199662
 20
398.171156
 42
0.103691
  0
VERTEX
  8
0
 10
155.195243
 20
394.578361
 42
0.182109
  0
VERTEX
  8
0
 10
155.371668
 20
391.541268
 42
0.092035
  0
VERTEX
  8
0
 10
157.573466
 20
388.335625
 42
0.033312
  0
VERTEX
  8
0
 10
159.015029
 20
387.074337
 42
0.078275
  0
VERTEX
  8
0
 10
160.269568
 20
386.395534
 42
0.084143
  0
VERTEX
  8
0
 10
161.614106
 20
386.162181
 42
0.043203
  0
VERTEX
  8
0
 10
163.323466
 20
386.303348
 42
0.002797
  0
VERTEX
  8
0
 10
165.268026
 20
386.645849
 42
0.000340
  0
VERTEX
  8
0
 10
169.532518
 20
387.424580
 42
0.000403
  0
VERTEX
  8
0
 10
174.598234
 20
388.357408
 42
0.000333
  0
VERTEX
  8
0
 10
180.000000
 20
389.360341
 42
-0.009348
  0
VERTEX
  8
0
 10
198.930279
 20
392.523153
 42
-0.016517
  0
VERTEX
  8
0
 10
214.666390
 20
394.322045
 42
-0.014568
  0
VERTEX
  8
0
 10
231.763819
 20
395.206038
 42
-0.005631
  0
VERTEX
  8
0
 10
255.500000
 20
395.473362
 42
-0.005524
  0
VERTEX
  8
0
 10
279.221165
 20
395.211298
 42
-0.014468
  0
VERTEX
  8
0
 10
296.231816
 20
394.342520
 42
-0.015993
  0
VERTEX
  8
0
 10
312.162808
 20
392.551621
 42
-0.008210
  0
VERTEX
  8
0
 10
332.000000
 20
389.343202
 42
-0.000004
  0
VERTEX
  8
0
 10
337.749627
 20
388.316084
 42
-0.000005
  0
VERTEX
  8
0
 10
343.031008
 20
387.372511
 42
-0.000004
  0
VERTEX
  8
0
 10
347.458553
 20
386.581400
 42
-0.000047
  0
VERTEX
  8
0
 10
349.190664
 20
386.271726
 42
0.145776
  0
VERTEX
  8
0
 10
351.750322
 20
386.560921
 42
0.085562
  0
VERTEX
  8
0
 10
354.361462
 20
388.244638
 42
0.083255
  0
VERTEX
  8
0
 10
356.320229
 20
390.762048
 42
0.124413
  0
VERTEX
  8
0
 10
357.000000
 20
393.451665
 42
0.185913
  0
VERTEX
  8
0
 10
355.266486
 20
397.952683
 42
0.023984
  0
VERTEX
  8
0
 10
347.848834
 20
405.402761
 42
0.026882
  0
VERTEX
  8
0
 10
338.242128
 20
413.265046
 42
0.025887
  0
VERTEX
  8
0
 10
327.729192
 20
420.158161
 42
0.043983
  0
VERTEX
  8
0
 10
308.521912
 20
429.216656
 42
0.036367
  0
VERTEX
  8
0
 10
286.768482
 20
435.473671
 42
0.035773
  0
VERTEX
  8
0
 10
263.934695
 20
438.594981
 42
0.038754
  0
SEQEND
  0
POLYLINE
  8
0
 66
1
 70
1
  0
VERTEX
  8
0
 10
280.727051
 20
421.526746
 42
-0.009351
  0
VERTEX
  8
0
 10
284.440357
 20
420.734471
 42
-0.005608
  0
VERTEX
  8
0
 10
288.820710
 20
419.661942
 42
-0.005614
  0
VERTEX
  8
0
 10
293.156468
 20
418.496600
 42
-0.009732
  0
VERTEX
  8
0
 10
296.727051
 20
417.418403
 42
-0.016680
  0
VERTEX
  8
0
 10
303.446578
 20
414.995390
 42
-0.009269
  0
VERTEX
  8
0
 10
311.476413
 20
411.619580
 42
-0.002629
  0
VERTEX
  8
0
 10
319.489718
 20
408.024026
 42
-0.523527
  0
VERTEX
  8
0
 10
319.622772
 20
407.289438
 42
-0.222525
  0
VERTEX
  8
0
 10
319.256867
 20
407.156916
 42
-0.001038
  0
VERTEX
  8
0
 10
315.127521
 20
407.540014
 42
-0.004522
  0
VERTEX
  8
0
 10
310.402400
 20
408.031437
 42
-0.002809
  0
VERTEX
  8
0
 10
304.866665
 20
408.689339
 42
0.012230
  0
VERTEX
  8
0
 10
296.008049
 20
409.573261
 42
0.009599
  0
VERTEX
  8
0
 10
286.369770
 20
410.111608
 42
0.006834
  0
VERTEX
  8
0
 10
274.000870
 20
410.395303
 42
0.002316
  0
VERTEX
  8
0
 10
256.000000
 20
410.478681
 42
0.002316
  0
VERTEX
  8
0
 10
237.999130
 20
410.395303
 42
0.006834
  0
VERTEX
  8
0
 10
225.630230
 20
410.111608
 42
0.009599
  0
VERTEX
  8
0
 10
215.991951
 20
409.573261
 42
0.012230
  0
VERTEX
  8
0
 10
207.133335
 20
408.689339
 42
-0.002872
  0
VERTEX
  8
0
 10
201.597001
 20
408.032066
 42
-0.004618
  0
VERTEX
  8
0
 10
196.869935
 20
407.542559
 42
-0.001083
  0
VERTEX
  8
0
 10
192.742147
 20
407.162626
 42
-0.222312
  0
VERTEX
  8
0
 10
192.368565
 20
407.298101
 42
-0.499475
  0
VERTEX
  8
0
 10
192.404334
 20
407.549995
 42
-0.003248
  0
VERTEX
  8
0
 10
194.681448
 20
408.784507
 42
-0.008742
  0
VERTEX
  8
0
 10
197.443037
 20
410.197070
 42
-0.005095
  0
VERTEX
  8
0
 10
200.801250
 20
411.799166
 42
-0.021490
  0
VERTEX
  8
0
 10
210.549335
 20
415.828642
 42
-0.020196
  0
VERTEX
  8
0
 10
220.809639
 20
419.099578
 42
-0.019579
  0
VERTEX
  8
0
 10
231.615891
 20
421.619187
 42
-0.017490
  0
VERTEX
  8
0
 10
243.000000
 20
423.397302
 42
-0.034413
  0
VERTEX
  8
0
 10
249.855862
 20
423.748393
 42
-0.007977
  0
VERTEX
  8
0
 10
261.403062
 20
423.360407
 42
-0.008376
  0
VERTEX
  8
0
 10
273.051870
 20
422.587040
 42
-0.027122
  0
SEQEND
  0
POLYLINE
  8
0
 66
1
 70
1
  0
VERTEX
  8
0
 10
239.000000
 20
379.417338
 42
0.050869
  0
VERTEX
  8
0
 10
228.878286
 20
375.612138
 42
0.043550
  0
VERTEX
  8
0
 10
219.155394
 20
369.673782
 42
0.044983
  0
VERTEX
  8
0
 10
210.970502
 20
362.418785
 42
0.068438
  0
VERTEX
  8
0
 10
205.466052
 20
354.691923
 42
0.040718
  0
VERTEX
  8
0
 10
203.702565
 20
350.531709
 42
0.099536
  0
VERTEX
  8
0
 10
203.302438
 20
347.244460
 42
0.130695
  0
VERTEX
  8
0
 10
204.223455
 20
344.617492
 42
0.098726
  0
VERTEX
  8
0
 10
206.412990
 20
342.465054
 42
0.143021
  0
VERTEX
  8
0
 10
214.310821
 20
340.057200
 42
0.002952
  0
VERTEX
  8
0
 10
256.000000
 20
339.811075
 42
0.002952
  0
VERTEX
  8
0
 10
297.689179
 20
340.057200
 42
0.143021
  0
VERTEX
  8
0
 10
305.587010
 20
342.465054
 42
0.098726
  0
VERTEX
  8
0
 10
307.776545
 20
344.617492
 42
0.130695
  0
VERTEX
  8
0
 10
308.697562
 20
347.244460
 42
0.099536
  0
VERTEX
  8
0
 10
308.297435
 20
350.531709
 42
0.040718
  0
VERTEX
  8
0
 10
306.533948
 20
354.691923
 42
0.054806
  0
VERTEX
  8
0
 10
303.248171
 20
359.580005
 42
0.022086
  0
VERTEX
  8
0
 10
297.784606
 20
365.498014
 42
0.019280
  0
VERTEX
  8
0
 10
292.058572
 20
370.753596
 42
0.115034
  0
VERTEX
  8
0
 10
288.477833
 20
372.594920
 42
0.067725
  0
VERTEX
  8
0
 10
285.566578
 20
372.918405
 42
0.094238
  0
VERTEX
  8
0
 10
283.009202
 20
372.366625
 42
0.101846
  0
VERTEX
  8
0
 10
280.973967
 20
370.964019
 42
0.091848
  0
VERTEX
  8
0
 10
279.567775
 20
368.823359
 42
0.062036
  0
VERTEX
  8
0
 10
278.752320
 20
365.923347
 42
0.125149
  0
VERTEX
  8
0
 10
278.984986
 20
363.576206
 42
0.103168
  0
VERTEX
  8
0
 10
280.371087
 20
361.332655
 42
0.033914
  0
VERTEX
  8
0
 10
283.241223
 20
358.690996
 42
0.000000
  0
VERTEX
  8
0
 10
287.218323
 20
355.500000
 42
0.000000
  0
VERTEX
  8
0
 10
271.609162
 20
355.000000
 42
-0.005057
  0
VERTEX
  8
0
 10
264.493629
 20
354.844086
 42
-0.002949
  0
VERTEX
  8
0
 10
255.958629
 20
354.793750
 42
-0.002948
  0
VERTEX
  8
0
 10
247.410247
 20
354.844147
 42
-0.004986
  0
VERTEX
  8
0
 10
240.250000
 20
355.000000
 42
0.000000
  0
VERTEX
  8
0
 10
224.500000
 20
355.500000
 42
0.000000
  0
VERTEX
  8
0
 10
227.500000
 20
357.619415
 42
-0.028306
  0
VERTEX
  8
0
 10
232.741950
 20
360.894621
 42
-0.039543
  0
VERTEX
  8
0
 10
237.779773
 20
363.161436
 42
-0.032741
  0
VERTEX
  8
0
 10
243.789457
 20
364.878605
 42
-0.012878
  0
VERTEX
  8
0
 10
252.253951
 20
366.481097
 42
0.093000
  0
VERTEX
  8
0
 10
256.596079
 20
368.050454
 42
0.149373
  0
VERTEX
  8
0
 10
259.235850
 20
370.930136
 42
0.163575
  0
VERTEX
  8
0
 10
259.681256
 20
374.589253
 42
0.116363
  0
VERTEX
  8
0
 10
257.927420
 20
378.365141
 42
0.048225
  0
VERTEX
  8
0
 10
256.572971
 20
379.781973
 42
0.098173
  0
VERTEX
  8
0
 10
255.238791
 20
380.538469
 42
0.068431
  0
VERTEX
  8
0
 10
253.412843
 20
380.877234
 42
0.014597
  0
VERTEX
  8
0
 10
250.177420
 20
380.934189
 42
0.019358
  0
VERTEX
  8
0
 10
247.605200
 20
380.804690
 42
0.011468
  0
VERTEX
  8
0
 10
244.552117
 20
380.461467
 42
0.011467
  0
VERTEX
  8
0
 10
241.516995
 20
379.978462
 42
0.019303
  0
SEQEND
  0
POLYLINE
  8
0
 66
1
 70
1
  0
VERTEX
  8
0
 10
252.302761
 20
313.803048
 42
0.073589
  0
VERTEX
  8
0
 10
251.384575
 20
313.178935
 42
0.038628
  0
VERTEX
  8
0
 10
250.441712
 20
312.166188
 42
0.037392
  0
VERTEX
  8
0
 10
249.617500
 20
310.955507
 42
0.046918
  0
VERTEX
  8
0
 10
249.052761
 20
309.721505
 42
0.081150
  0
VERTEX
  8
0
 10
248.104409
 20
304.309935
 42
0.003139
  0
VERTEX
  8
0
 10
247.997204
 20
283.933855
 42
0.003154
  0
VERTEX
  8
0
 10
248.146374
 20
263.565887
 42
0.080623
  0
VERTEX
  8
0
 10
249.105184
 20
258.128114
 42
0.116926
  0
VERTEX
  8
0
 10
251.137613
 20
254.944808
 42
0.128861
  0
VERTEX
  8
0
 10
254.317057
 20
253.151852
 42
0.133180
  0
VERTEX
  8
0
 10
257.884548
 20
253.179117
 42
0.128946
  0
VERTEX
  8
0
 10
261.000000
 20
255.000000
 42
0.136745
  0
VERTEX
  8
0
 10
262.161395
 20
257.058897
 42
0.043217
  0
VERTEX
  8
0
 10
262.712863
 20
260.578791
 42
0.015923
  0
VERTEX
  8
0
 10
262.955024
 20
267.088066
 42
0.001335
  0
VERTEX
  8
0
 10
263.000000
 20
283.927420
 42
0.000000
  0
VERTEX
  8
0
 10
263.000000
 20
310.854840
 42
0.000000
  0
VERTEX
  8
0
 10
260.365141
 20
312.927420
 42
0.045056
  0
VERTEX
  8
0
 10
258.307431
 20
314.265196
 42
0.094841
  0
VERTEX
  8
0
 10
256.492291
 20
314.821316
 42
0.094834
  0
VERTEX
  8
0
 10
254.599993
 20
314.667858
 42
0.045044
  0
SEQEND
  0
POLYLINE
  8
0
 66
1
 70
1
  0
VERTEX
  8
0
 10
156.712389
 20
306.580452
 42
0.125659
  0
VERTEX
  8
0
 10
154.967359
 20
304.386222
 42
0.056221
  0
VERTEX
  8
0
 10
153.836004
 20
300.848592
 42
0.036880
  0
VERTEX
  8
0
 10
153.190206
 20
295.645073
 42
0.012438
  0
VERTEX
  8
0
 10
153.000000
 20
288.000000
 42
0.012438
  0
VERTEX
  8
0
 10
153.190206
 20
280.354927
 42
0.036880
  0
VERTEX
  8
0
 10
153.836004
 20
275.151408
 42
0.056221
  0
VERTEX
  8
0
 10
154.967359
 20
271.613778
 42
0.125659
  0
VERTEX
  8
0
 10
156.712389
 20
269.419548
 42
0.094686
  0
VERTEX
  8
0
 10
158.845968
 20
268.362140
 42
0.085025
  0
VERTEX
  8
0
 10
161.303887
 20
268.111371
 42
0.083633
  0
VERTEX
  8
0
 10
163.740595
 20
268.694382
 42
0.087296
  0
VERTEX
  8
0
 10
165.811439
 20
270.038955
 42
0.101709
  0
VERTEX
  8
0
 10
167.050415
 20
271.781609
 42
0.073652
  0
VERTEX
  8
0
 10
167.683622
 20
274.084854
 42
0.027717
  0
VERTEX
  8
0
 10
167.948466
 20
278.102032
 42
0.002603
  0
VERTEX
  8
0
 10
168.000000
 20
288.000000
 42
0.002603
  0
VERTEX
  8
0
 10
167.948466
 20
297.897968
 42
0.027717
  0
VERTEX
  8
0
 10
167.683622
 20
301.915146
 42
0.073652
  0
VERTEX
  8
0
 10
167.050415
 20
304.218391
 42
0.101709
  0
VERTEX
  8
0
 10
165.811439
 20
305.961045
 42
0.087296
  0
VERTEX
  8
0
 10
163.740595
 20
307.305618
 42
0.083633
  0
VERTEX
  8
0
 10
161.303887
 20
307.888629
 42
0.085025
  0
VERTEX
  8
0
 10
158.845968
 20
307.637860
 42
0.094686
  0
SEQEND
  0
POLYLINE
  8
0
 66
1
 70
1
  0
VERTEX
  8
0
 10
346.712389
 20
306.580452
 42
0.125659
  0
VERTEX
  8
0
 10
344.967359
 20
304.386222
 42
0.056221
  0
VERTEX
  8
0
 10
343.836004
 20
300.848592
 42
0.036880
  0
VERTEX
  8
0
 10
343.190206
 20
295.645073
 42
0.012438
  0
VERTEX
  8
0
 10
343.000000
 20
288.000000
 42
0.012438
  0
VERTEX
  8
0
 10
343.190206
 20
280.354927
 42
0.036880
  0
VERTEX
  8
0
 10
343.836004
 20
275.151408
 42
0.056221
  0
VERTEX
  8
0
 10
344.967359
 20
271.613778
 42
0.125659
  0
VERTEX
  8
0
 10
346.712389
 20
269.419548
 42
0.094686
  0
VERTEX
  8
0
 10
348.845968
 20
268.362140
 42
0.085025
  0
VERTEX
  8
0
 10
351.303887
 20
268.111371
 42
0.083633
  0
VERTEX
  8
0
 10
353.740595
 20
268.694382
 42
0.087296
  0
VERTEX
  8
0
 10
355.811439
 20
270.038955
 42
0.101709
  0
VERTEX
  8
0
 10
357.050415
 20
271.781609
 42
0.073652
  0
VERTEX
  8
0
 10
357.683622
 20
274.084854
 42
0.027717
  0
VERTEX
  8
0
 10
357.948466
 20
278.102032
 42
0.002603
  0
VERTEX
  8
0
 10
358.000000
 20
288.000000
 42
0.002603
  0
VERTEX
  8
0
 10
357.948466
 20
297.897968
 42
0.027717
  0
VERTEX
  8
0
 10
357.683622
 20
301.915146
 42
0.073652
  0
VERTEX
  8
0
 10
357.050415
 20
304.218391
 42
0.101709
  0
VERTEX
  8
0
 10
355.811439
 20
305.961045
 42
0.087296
  0
VERTEX
  8
0
 10
353.740595
 20
307.305618
 42
0.083633
  0
VERTEX
  8
0
 10
351.303887
 20
307.888629
 42
0.085025
  0
VERTEX
  8
0
 10
348.845968
 20
307.637860
 42
0.094686
  0
SEQEND
  0
POLYLINE
  8
0
 66
1
 70
1
  0
VERTEX
  8
0
 10
316.000000
 20
265.000000
 42
0.119378
  0
VERTEX
  8
0
 10
314.235426
 20
262.107423
 42
0.146443
  0
VERTEX
  8
0
 10
314.174558
 20
258.956378
 42
0.087308
  0
VERTEX
  8
0
 10
316.030299
 20
255.071928
 42
0.023763
  0
VERTEX
  8
0
 10
320.256969
 20
249.707999
 42
-0.017419
  0
VERTEX
  8
0
 10
328.335685
 20
239.718818
 42
-0.024098
  0
VERTEX
  8
0
 10
334.813885
 20
230.189084
 42
-0.025369
  0
VERTEX
  8
0
 10
340.089071
 20
220.489571
 42
-0.023087
  0
VERTEX
  8
0
 10
344.539128
 20
210.000000
 42
0.020766
  0
VERTEX
  8
0
 10
346.792461
 20
204.619184
 42
0.067321
  0
VERTEX
  8
0
 10
348.885140
 20
201.372554
 42
0.105710
  0
VERTEX
  8
0
 10
351.173363
 20
199.621560
 42
0.111087
  0
VERTEX
  8
0
 10
353.936470
 20
199.000000
 42
0.118806
  0
VERTEX
  8
0
 10
356.418478
 20
199.598201
 42
0.082254
  0
VERTEX
  8
0
 10
358.749352
 20
201.323325
 42
0.081379
  0
VERTEX
  8
0
 10
360.420705
 20
203.729439
 42
0.111638
  0
VERTEX
  8
0
 10
361.000000
 20
206.291622
 42
0.097116
  0
VERTEX
  8
0
 10
359.598804
 20
213.437602
 42
0.018032
  0
VERTEX
  8
0
 10
354.073072
 20
225.702067
 42
0.020007
  0
VERTEX
  8
0
 10
346.928406
 20
238.799664
 42
0.026470
  0
VERTEX
  8
0
 10
339.344462
 20
250.069991
 42
0.017509
  0
VERTEX
  8
0
 10
331.057537
 20
260.312303
 42
0.071755
  0
VERTEX
  8
0
 10
325.024149
 20
265.521925
 42
0.152355
  0
VERTEX
  8
0
 10
320.215655
 20
266.835190
 42
0.189632
  0
SEQEND
  0
POLYLINE
  8
0
 66
1
 70
1
  0
VERTEX
  8
0
 10
202.454545
 20
143.545455
 42
0.046014
  0
VERTEX
  8
0
 10
201.515146
 20
142.415182
 42
0.037190
  0
VERTEX
  8
0
 10
200.721023
 20
141.050852
 42
0.038507
  0
VERTEX
  8
0
 10
200.176081
 20
139.669695
 42
0.074846
  0
VERTEX
  8
0
 10
200.000000
 20
138.500000
 42
0.074846
  0
VERTEX
  8
0
 10
200.176081
 20
137.330305
 42
0.038507
  0
VERTEX
  8
0
 10
200.721023
 20
135.949148
 42
0.037190
  0
VERTEX
  8
0
 10
201.515146
 20
134.584818
 42
0.046014
  0
VERTEX
  8
0
 10
202.454545
 20
133.454545
 42
0.046014
  0
VERTEX
  8
0
 10
203.584818
 20
132.515146
 42
0.037190
  0
VERTEX
  8
0
 10
204.949148
 20
131.721023
 42
0.038507
  0
VERTEX
  8
0
 10
206.330305
 20
131.176081
 42
0.074846
  0
VERTEX
  8
0
 10
207.500000
 20
131.000000
 42
0.074846
  0
VERTEX
  8
0
 10
208.669695
 20
131.176081
 42
0.038507
  0
VERTEX
  8
0
 10
210.050852
 20
131.721023
 42
0.037190
  0
VERTEX
  8
0
 10
211.415182
 20
132.515146
 42
0.046014
  0
VERTEX
  8
0
 10
212.545455
 20
133.454545
 42
0.046014
  0
VERTEX
  8
0
 10
213.484854
 20
134.584818
 42
0.037190
  0
VERTEX
  8
0
 10
214.278977
 20
135.949148
 42
0.038507
  0
VERTEX
  8
0
 10
214.823919
 20
137.330305
 42
0.074846
  0
VERTEX
  8
0
 10
215.000000
 20
138.500000
 42
0.074846
  0
VERTEX
  8
0
 10
214.823919
 20
139.669695
 42
0.038507
  0
VERTEX
  8
0
 10
214.278977
 20
141.050852
 42
0.037190
  0
VERTEX
  8
0
 10
213.484854
 20
142.415182
 42
0.046014
  0
VERTEX
  8
0
 10
212.545455
 20
143.545455
 42
0.046014
  0
VERTEX
  8
0
 10
211.415182
 20
144.484854
 42
0.037190
  0
VERTEX
  8
0
 10
210.050852
 20
145.278977
 42
0.038507
  0
VERTEX
  8
0
 10
208.669695
 20
145.823919
 42
0.074846
  0
VERTEX
  8
0
 10
207.500000
 20
146.000000
 42
0.074846
  0
VERTEX
  8
0
 10
206.330305
 20
145.823919
 42
0.038507
  0
VERTEX
  8
0
 10
204.949148
 20
145.278977
 42
0.037190
  0
VERTEX
  8
0
 10
203.584818
 20
144.484854
 42
0.046014
  0
SEQEND
  0
POLYLINE
  8
0
 66
1
 70
1
  0
VERTEX
  8
0
 10
299.454545
 20
143.545455
 42
0.046014
  0
VERTEX
  8
0
 10
298.515146
 20
142.415182
 42
0.037190
  0
VERTEX
  8
0
 10
297.721023
 20
141.050852
 42
0.038507
  0
VERTEX
  8
0
 10
297.176081
 20
139.669695
 42
0.074846
  0
VERTEX
  8
0
 10
297.000000
 20
138.500000
 42
0.124838
  0
VERTEX
  8
0
 10
297.634163
 20
135.999638
 42
0.072280
  0
VERTEX
  8
0
 10
299.499708
 20
133.499708
 42
0.072280
  0
VERTEX
  8
0
 10
301.999638
 20
131.634163
 42
0.124838
  0
VERTEX
  8
0
 10
304.500000
 20
131.000000
 42
0.124838
  0
VERTEX
  8
0
 10
307.000362
 20
131.634163
 42
0.072280
  0
VERTEX
  8
0
 10
309.500292
 20
133.499708
 42
0.072280
  0
VERTEX
  8
0
 10
311.365837
 20
135.999638
 42
0.124838
  0
VERTEX
  8
0
 10
312.000000
 20
138.500000
 42
0.124838
  0
VERTEX
  8
0
 10
311.365837
 20
141.000362
 42
0.072280
  0
VERTEX
  8
0
 10
309.500292
 20
143.500292
 42
0.072280
  0
VERTEX
  8
0
 10
307.000362
 20
145.365837
 42
0.124838
  0
VERTEX
  8
0
 10
304.500000
 20
146.000000
 42
0.074846
  0
VERTEX
  8
0
 10
303.330305
 20
145.823919
 42
0.038507
  0
VERTEX
  8
0
 10
301.949148
 20
145.278977
 42
0.037190
  0
VERTEX
  8
0
 10
300.584818
 20
144.484854
 42
0.046014
  0
SEQEND
  0
POLYLINE
  8
0
 66
1
 70
1
  0
VERTEX
  8
0
 10
178.000000
 20
129.000000
 42
0.154545
  0
VERTEX
  8
0
 10
176.127684
 20
125.392479
 42
0.151604
  0
VERTEX
  8
0
 10
176.653560
 20
121.333651
 42
0.145910
  0
VERTEX
  8
0
 10
179.420024
 20
118.176490
 42
0.141300
  0
VERTEX
  8
0
 10
183.500000
 20
117.000000
 42
0.092814
  0
VERTEX
  8
0
 10
186.353961
 20
117.534381
 42
0.095471
  0
VERTEX
  8
0
 10
188.789424
 20
119.063204
 42
0.098712
  0
VERTEX
  8
0
 10
190.423774
 20
121.337650
 42
0.106979
  0
VERTEX
  8
0
 10
191.000000
 20
124.000000
 42
0.166560
  0
VERTEX
  8
0
 10
189.678546
 20
127.856846
 42
0.136703
  0
VERTEX
  8
0
 10
186.163856
 20
130.467656
 42
0.133493
  0
VERTEX
  8
0
 10
181.737124
 20
130.919671
 42
0.156699
  0
SEQEND
  0
POLYLINE
  8
0
 66
1
 70
1
  0
VERTEX
  8
0
 10
323.038955
 20
128.811439
 42
0.143344
  0
VERTEX
  8
0
 10
321.190943
 20
125.130404
 42
0.154616
  0
VERTEX
  8
0
 10
321.695747
 20
121.154056
 42
0.150901
  0
VERTEX
  8
0
 10
324.419709
 20
118.126251
 42
0.135478
  0
VERTEX
  8
0
 10
328.500000
 20
117.000000
 42
0.043767
  0
VERTEX
  8
0
 10
330.103975
 20
117.140671
 42
0.051597
  0
VERTEX
  8
0
 10
331.568912
 20
117.558840
 42
0.053916
  0
VERTEX
  8
0
 10
332.862978
 20
118.247233
 42
0.056098
  0
VERTEX
  8
0
 10
333.961045
 20
119.188561
 42
0.143344
  0
VERTEX
  8
0
 10
335.809057
 20
122.869596
 42
0.154616
  0
VERTEX
  8
0
 10
335.304253
 20
126.845944
 42
0.150901
  0
VERTEX
  8
0
 10
332.580291
 20
129.873749
 42
0.135478
  0
VERTEX
  8
0
 10
328.500000
 20
131.000000
 42
0.043767
  0
VERTEX
  8
0
 10
326.896025
 20
130.859329
 42
0.051597
  0
VERTEX
  8
0
 10
325.431088
 20
130.441160
 42
0.053916
  0
VERTEX
  8
0
 10
324.137022
 20
129.752767
 42
0.056098
  0
SEQEND
  0
POLYLINE
  8
0
 66
1
 70
1
  0
VERTEX
  8
0
 10
202.454545
 20
114.545455
 42
0.046014
  0
VERTEX
  8
0
 10
201.515146
 20
113.415182
 42
0.037190
  0
VERTEX
  8
0
 10
200.721023
 20
112.050852
 42
0.038507
  0
VERTEX
  8
0
 10
200.176081
 20
110.669695
 42
0.074846
  0
VERTEX
  8
0
 10
200.000000
 20
109.500000
 42
0.124838
  0
VERTEX
  8
0
 10
200.634163
 20
106.999638
 42
0.072280
  0
VERTEX
  8
0
 10
202.499708
 20
104.499708
 42
0.072280
  0
VERTEX
  8
0
 10
204.999638
 20
102.634163
 42
0.124838
  0
VERTEX
  8
0
 10
207.500000
 20
102.000000
 42
0.124838
  0
VERTEX
  8
0
 10
210.000362
 20
102.634163
 42
0.072280
  0
VERTEX
  8
0
 10
212.500292
 20
104.499708
 42
0.072280
  0
VERTEX
  8
0
 10
214.365837
 20
106.999638
 42
0.124838
  0
VERTEX
  8
0
 10
215.000000
 20
109.500000
 42
0.124838
  0
VERTEX
  8
0
 10
214.365837
 20
112.000362
 42
0.072280
  0
VERTEX
  8
0
 10
212.500292
 20
114.500292
 42
0.072280
  0
VERTEX
  8
0
 10
210.000362
 20
116.365837
 42
0.124838
  0
VERTEX
  8
0
 10
207.500000
 20
117.000000
 42
0.074846
  0
VERTEX
  8
0
 10
206.330305
 20
116.823919
 42
0.038507
  0
VERTEX
  8
0
 10
204.949148
 20
116.278977
 42
0.037190
  0
VERTEX
  8
0
 10
203.584818
 20
115.484854
 42
0.046014
  0
SEQEND
  0
POLYLINE
  8
0
 66
1
 70
1
  0
VERTEX
  8
0
 10
299.454545
 20
114.545455
 42
0.046014
  0
VERTEX
  8
0
 10
298.515146
 20
113.415182
 42
0.037190
  0
VERTEX
  8
0
 10
297.721023
 20
112.050852
 42
0.038507
  0
VERTEX
  8
0
 10
297.176081
 20
110.669695
 42
0.074846
  0
VERTEX
  8
0
 10
297.000000
 20
109.500000
 42
0.124838
  0
VERTEX
  8
0
 10
297.634163
 20
106.999638
 42
0.072280
  0
VERTEX
  8
0
 10
299.499708
 20
104.499708
 42
0.072280
  0
VERTEX
  8
0
 10
301.999638
 20
102.634163
 42
0.124838
  0
VERTEX
  8
0
 10
304.500000
 20
102.000000
 42
0.124838
  0
VERTEX
  8
0
 10
307.000362
 20
102.634163
 42
0.072280
  0
VERTEX
  8
0
 10
309.500292
 20
104.499708
 42
0.072280
  0
VERTEX
  8
0
 10
311.365837
 20
106.999638
 42
0.124838
  0
VERTEX
  8
0
 10
312.000000
 20
109.500000
 42
0.124838
  0
VERTEX
  8
0
 10
311.365837
 20
112.000362
 42
0.072280
  0
VERTEX
  8
0
 10
309.500292
 20
114.500292
 42
0.072280
  0
VERTEX
  8
0
 10
307.000362
 20
116.365837
 42
0.124838
  0
VERTEX
  8
0
 10
304.500000
 20
117.000000
 42
0.074846
  0
VERTEX
  8
0
 10
303.330305
 20
116.823919
 42
0.038507
  0
VERTEX
  8
0
 10
301.949148
 20
116.278977
 42
0.037190
  0
VERTEX
  8
0
 10
300.584818
 20
115.484854
 42
0.046014
  0
SEQEND
  0
ENDSEC
  0
EOF
