  0
SECTION
  2
HEADER
  9
$ACADVER
  1
AC1006
  9
$EXTMIN
 10
0.000000
 20
0.000000
 30
0.000000
  9
$EXTMAX
 10
512.000000
 20
512.000000
 30
0.000000
  0
ENDSEC
  0
SECTION
  2
ENTITIES
  0
POLYLINE
  8
0
 66
1
 70
1
  0
VERTEX
  8
0
 10
61.659277
 20
511.250000
 42
0.095601
  0
VERTEX
  8
0
 10
61.439449
 20
510.663019
 42
0.002342
  0
VERTEX
  8
0
 10
60.969429
 20
507.805568
 42
0.004999
  0
VERTEX
  8
0
 10
60.465575
 20
504.434069
 42
0.003371
  0
VERTEX
  8
0
 10
59.955070
 20
500.577467
 42
0.026982
  0
VERTEX
  8
0
 10
59.178590
 20
489.646097
 42
0.014585
  0
VERTEX
  8
0
 10
59.343302
 20
476.152607
 42
0.014585
  0
VERTEX
  8
0
 10
60.294761
 20
462.687095
 42
0.026896
  0
VERTEX
  8
0
 10
61.972643
 20
451.841430
 42
0.035783
  0
VERTEX
  8
0
 10
67.995014
 20
430.803258
 42
0.033548
  0
VERTEX
  8
0
 10
77.059897
 20
410.362466
 42
0.033843
  0
VERTEX
  8
0
 10
88.681105
 20
391.498577
 42
0.038151
  0
VERTEX
  8
0
 10
102.328851
 20
375.165426
 42
0.017221
  0
VERTEX
  8
0
 10
107.923649
 20
369.804801
 42
0.007893
  0
VERTEX
  8
0
 10
115.563417
 20
363.187540
 42
0.002699
  0
VERTEX
  8
0
 10
123.506271
 20
356.596980
 42
0.173516
  0
VERTEX
  8
0
 10
125.174726
 20
356.000000
 42
0.219247
  0
VERTEX
  8
0
 10
125.610269
 20
356.200627
 42
0.007096
  0
VERTEX
  8
0
 10
126.874432
 20
357.722146
 42
0.012447
  0
VERTEX
  8
0
 10
128.326625
 20
359.615892
 42
0.008187
  0
VERTEX
  8
0
 10
129.906711
 20
361.862625
 42
0.000000
  0
VERTEX
  8
0
 10
133.887944
 20
367.725251
 42
0.000000
  0
VERTEX
  8
0
 10
125.867634
 20
374.042617
 42
-0.044389
  0
VERTEX
  8
0
 10
109.263729
 20
389.694652
 42
-0.042226
  0
VERTEX
  8
0
 10
95.373435
 20
408.281663
 42
-0.041585
  0
VERTEX
  8
0
 10
84.621468
 20
429.227247
 42
-0.040261
  0
VERTEX
  8
0
 10
77.346078
 20
451.888785
 42
-0.014197
  0
VERTEX
  8
0
 10
76.114437
 20
457.909595
 42
-0.015554
  0
VERTEX
  8
0
 10
75.269131
 20
463.810463
 42
-0.013097
  0
VERTEX
  8
0
 10
74.695071
 20
470.549068
 42
-0.006222
  0
VERTEX
  8
0
 10
74.291520
 20
479.250000
 42
-0.004329
  0
VERTEX
  8
0
 10
74.115327
 20
486.227649
 42
-0.009864
  0
VERTEX
  8
0
 10
74.131872
 20
491.496949
 42
-0.004673
  0
VERTEX
  8
0
 10
74.264302
 20
495.606387
 42
-0.402092
  0
VERTEX
  8
0
 10
74.674623
 20
496.000000
 42
-0.145092
  0
VERTEX
  8
0
 10
75.191350
 20
495.846829
 42
-0.020062
  0
VERTEX
  8
0
 10
76.115222
 20
495.192187
 42
-0.021613
  0
VERTEX
  8
0
 10
77.171270
 20
494.303049
 42
-0.016778
  0
VERTEX
  8
0
 10
78.243070
 20
493.250000
 42
-0.060420
  0
VERTEX
  8
0
 10
79.565294
 20
491.474034
 42
-0.032983
  0
VERTEX
  8
0
 10
80.756677
 20
489.028596
 42
-0.025491
  0
VERTEX
  8
0
 10
81.890924
 20
485.785352
 42
-0.012033
  0
VERTEX
  8
0
 10
83.037324
 20
481.500000
 42
0.049881
  0
VERTEX
  8
0
 10
90.780351
 20
459.400837
 42
0.052596
  0
VERTEX
  8
0
 10
102.642091
 20
439.692333
 42
0.052987
  0
VERTEX
  8
0
 10
118.264141
 20
423.015595
 42
0.052063
  0
VERTEX
  8
0
 10
137.129566
 20
409.882521
 42
0.014383
  0
VERTEX
  8
0
 10
143.169925
 20
406.773541
 42
0.011015
  0
VERTEX
  8
0
 10
149.937904
 20
403.714165
 42
0.003658
  0
VERTEX
  8
0
 10
156.533032
 20
400.963012
 42
0.334629
  0
VERTEX
  8
0
 10
157.487545
 20
401.214834
 42
0.088776
  0
VERTEX
  8
0
 10
157.616340
 20
401.456341
 42
0.000800
  0
VERTEX
  8
0
 10
158.247493
 20
403.418293
 42
0.002714
  0
VERTEX
  8
0
 10
158.958395
 20
405.682609
 42
0.001746
  0
VERTEX
  8
0
 10
159.759288
 20
408.315524
 42
0.000000
  0
VERTEX
  8
0
 10
161.806488
 20
415.131048
 42
0.000000
  0
VERTEX
  8
0
 10
159.153244
 20
416.207568
 42
-0.017282
  0
VERTEX
  8
0
 10
148.078511
 20
421.153280
 42
-0.027596
  0
VERTEX
  8
0
 10
139.034399
 20
426.209126
 42
-0.029282
  0
VERTEX
  8
0
 10
130.992406
 20
431.992604
 42
-0.023100
  0
VERTEX
  8
0
 10
122.988252
 20
439.129903
 42
-0.035937
  0
VERTEX
  8
0
 10
114.657717
 20
448.541322
 42
-0.036574
  0
VERTEX
  8
0
 10
107.814426
 20
458.995702
 42
-0.034921
  0
VERTEX
  8
0
 10
102.313386
 20
470.782513
 42
-0.027575
  0
VERTEX
  8
0
 10
97.995631
 20
484.182568
 42
0.025819
  0
VERTEX
  8
0
 10
94.664495
 20
494.646319
 42
0.062843
  0
VERTEX
  8
0
 10
90.893746
 20
501.795538
 42
0.078598
  0
VERTEX
  8
0
 10
86.055905
 20
506.807232
 42
0.062680
  0
VERTEX
  8
0
 10
79.531726
 20
510.551191
 42
0.072116
  0
VERTEX
  8
0
 10
75.861127
 20
511.495478
 42
0.017185
  0
VERTEX
  8
0
 10
69.555403
 20
511.959452
 42
0.010273
  0
VERTEX
  8
0
 10
63.133768
 20
512.078494
 42
0.260629
  0
SEQEND
  0
POLYLINE
  8
0
 66
1
 70
1
  0
VERTEX
  8
0
 10
434.044270
 20
510.442927
 42
0.061157
  0
VERTEX
  8
0
 10
427.643342
 20
506.637343
 42
0.078251
  0
VERTEX
  8
0
 10
422.944562
 20
501.654428
 42
0.061755
  0
VERTEX
  8
0
 10
419.275633
 20
494.546810
 42
0.024152
  0
VERTEX
  8
0
 10
415.955174
 20
483.995058
 42
-0.032102
  0
VERTEX
  8
0
 10
411.294069
 20
469.965439
 42
-0.037251
  0
VERTEX
  8
0
 10
405.057352
 20
457.358717
 42
-0.038167
  0
VERTEX
  8
0
 10
397.170258
 20
446.078196
 42
-0.037035
  0
VERTEX
  8
0
 10
387.586525
 20
436.005095
 42
-0.020788
  0
VERTEX
  8
0
 10
380.321002
 20
429.951182
 42
-0.027359
  0
VERTEX
  8
0
 10
373.193909
 20
425.091909
 42
-0.025100
  0
VERTEX
  8
0
 10
365.106533
 20
420.741609
 42
-0.013896
  0
VERTEX
  8
0
 10
354.846756
 20
416.214692
 42
0.000000
  0
VERTEX
  8
0
 10
352.193512
 20
415.131048
 42
0.000000
  0
VERTEX
  8
0
 10
354.240712
 20
408.315524
 42
0.001746
  0
VERTEX
  8
0
 10
355.041605
 20
405.682609
 42
0.002714
  0
VERTEX
  8
0
 10
355.752507
 20
403.418293
 42
0.000800
  0
VERTEX
  8
0
 10
356.383660
 20
401.456341
 42
0.088776
  0
VERTEX
  8
0
 10
356.512455
 20
401.214834
 42
0.334629
  0
VERTEX
  8
0
 10
357.466968
 20
400.963012
 42
0.003658
  0
VERTEX
  8
0
 10
364.062096
 20
403.714165
 42
0.011015
  0
VERTEX
  8
0
 10
370.830075
 20
406.773541
 42
0.014383
  0
VERTEX
  8
0
 10
376.870434
 20
409.882521
 42
0.052063
  0
VERTEX
  8
0
 10
395.735859
 20
423.015595
 42
0.052987
  0
VERTEX
  8
0
 10
411.357909
 20
439.692333
 42
0.052596
  0
VERTEX
  8
0
 10
423.219649
 20
459.400837
 42
0.049881
  0
VERTEX
  8
0
 10
430.962676
 20
481.500000
 42
-0.012033
  0
VERTEX
  8
0
 10
432.109076
 20
485.785352
 42
-0.025491
  0
VERTEX
  8
0
 10
433.243323
 20
489.028596
 42
-0.032983
  0
VERTEX
  8
0
 10
434.434706
 20
491.474034
 42
-0.060420
  0
VERTEX
  8
0
 10
435.756930
 20
493.250000
 42
-0.016778
  0
VERTEX
  8
0
 10
436.828730
 20
494.303049
 42
-0.021613
  0
VERTEX
  8
0
 10
437.884778
 20
495.192187
 42
-0.020062
  0
VERTEX
  8
0
 10
438.808650
 20
495.846829
 42
-0.145092
  0
VERTEX
  8
0
 10
439.325377
 20
496.000000
 42
-0.402092
  0
VERTEX
  8
0
 10
439.735698
 20
495.606387
 42
-0.004673
  0
VERTEX
  8
0
 10
439.868128
 20
491.496949
 42
-0.009864
  0
VERTEX
  8
0
 10
439.884673
 20
486.227649
 42
-0.004329
  0
VERTEX
  8
0
 10
439.708480
 20
479.250000
 42
-0.006222
  0
VERTEX
  8
0
 10
439.304929
 20
470.549068
 42
-0.013097
  0
VERTEX
  8
0
 10
438.730869
 20
463.810463
 42
-0.015554
  0
VERTEX
  8
0
 10
437.885563
 20
457.909595
 42
-0.014197
  0
VERTEX
  8
0
 10
436.653922
 20
451.888785
 42
-0.040261
  0
VERTEX
  8
0
 10
429.378532
 20
429.227247
 42
-0.041585
  0
VERTEX
  8
0
 10
418.626565
 20
408.281663
 42
-0.042226
  0
VERTEX
  8
0
 10
404.736271
 20
389.694652
 42
-0.044389
  0
VERTEX
  8
0
 10
388.132366
 20
374.042617
 42
0.000000
  0
VERTEX
  8
0
 10
380.112056
 20
367.725251
 42
0.000000
  0
VERTEX
  8
0
 10
384.093289
 20
361.862625
 42
0.008187
  0
VERTEX
  8
0
 10
385.673375
 20
359.615892
 42
0.012447
  0
VERTEX
  8
0
 10
387.125568
 20
357.722146
 42
0.007096
  0
VERTEX
  8
0
 10
388.389731
 20
356.200627
 42
0.219247
  0
VERTEX
  8
0
 10
388.825274
 20
356.000000
 42
0.174457
  0
VERTEX
  8
0
 10
390.719773
 20
356.681768
 42
0.003399
  0
VERTEX
  8
0
 10
398.772846
 20
363.432831
 42
0.008950
  0
VERTEX
  8
0
 10
406.589026
 20
370.321051
 42
0.018569
  0
VERTEX
  8
0
 10
412.383559
 20
376.023713
 42
0.048894
  0
VERTEX
  8
0
 10
431.574620
 20
400.825554
 42
0.051108
  0
VERTEX
  8
0
 10
445.255105
 20
428.527921
 42
0.051265
  0
VERTEX
  8
0
 10
453.001461
 20
458.349815
 42
0.049773
  0
VERTEX
  8
0
 10
454.626203
 20
489.426484
 42
0.003577
  0
VERTEX
  8
0
 10
454.316929
 20
495.107922
 42
0.004078
  0
VERTEX
  8
0
 10
453.937683
 20
500.540905
 42
0.003702
  0
VERTEX
  8
0
 10
453.544117
 20
505.146289
 42
0.022855
  0
VERTEX
  8
0
 10
453.216375
 20
507.500000
 42
0.000000
  0
VERTEX
  8
0
 10
452.471718
 20
511.500000
 42
0.000000
  0
VERTEX
  8
0
 10
444.985859
 20
511.731156
 42
0.014423
  0
VERTEX
  8
0
 10
441.501048
 20
511.738213
 42
0.022598
  0
VERTEX
  8
0
 10
438.512259
 20
511.522623
 42
0.026528
  0
VERTEX
  8
0
 10
436.015281
 20
511.093382
 42
0.047773
  0
SEQEND
  0
POLYLINE
  8
0
 66
1
 70
1
  0
VERTEX
  8
0
 10
227.000000
 20
387.500000
 42
0.000000
  0
VERTEX
  8
0
 10
227.000000
 20
320.000000
 42
0.000000
  0
VERTEX
  8
0
 10
172.000000
 20
320.000000
 42
0.000000
  0
VERTEX
  8
0
 10
117.000000
 20
320.000000
 42
0.000000
  0
VERTEX
  8
0
 10
117.000000
 20
290.000000
 42
0.000000
  0
VERTEX
  8
0
 10
117.000000
 20
260.000000
 42
0.000000
  0
VERTEX
  8
0
 10
172.000000
 20
260.000000
 42
0.000000
  0
VERTEX
  8
0
 10
227.000000
 20
260.000000
 42
0.000000
  0
VERTEX
  8
0
 10
227.003271
 20
245.750000
 42
0.000000
  0
VERTEX
  8
0
 10
227.006542
 20
231.500000
 42
0.000000
  0
VERTEX
  8
0
 10
241.583443
 20
213.750000
 42
0.002709
  0
VERTEX
  8
0
 10
247.233689
 20
206.945303
 42
0.004357
  0
VERTEX
  8
0
 10
252.131058
 20
201.214062
 42
0.000985
  0
VERTEX
  8
0
 10
256.463228
 20
196.252574
 42
0.216030
  0
VERTEX
  8
0
 10
257.020528
 20
196.000000
 42
0.216353
  0
VERTEX
  8
0
 10
257.577480
 20
196.252831
 42
0.000988
  0
VERTEX
  8
0
 10
261.898587
 20
201.214063
 42
0.004367
  0
VERTEX
  8
0
 10
266.783416
 20
206.945303
 42
0.002714
  0
VERTEX
  8
0
 10
272.418772
 20
213.750000
 42
0.000000
  0
VERTEX
  8
0
 10
286.956834
 20
231.500000
 42
0.000000
  0
VERTEX
  8
0
 10
286.978417
 20
245.750000
 42
0.000000
  0
VERTEX
  8
0
 10
287.000000
 20
260.000000
 42
0.000000
  0
VERTEX
  8
0
 10
342.000000
 20
260.000000
 42
0.000000
  0
VERTEX
  8
0
 10
397.000000
 20
260.000000
 42
0.000000
  0
VERTEX
  8
0
 10
397.000000
 20
290.000000
 42
0.000000
  0
VERTEX
  8
0
 10
397.000000
 20
320.000000
 42
0.000000
  0
VERTEX
  8
0
 10
342.000000
 20
320.000000
 42
0.000000
  0
VERTEX
  8
0
 10
287.000000
 20
320.000000
 42
0.000000
  0
VERTEX
  8
0
 10
287.000000
 20
387.500000
 42
0.000000
  0
VERTEX
  8
0
 10
287.000000
 20
455.000000
 42
0.000000
  0
VERTEX
  8
0
 10
257.000000
 20
455.000000
 42
0.000000
  0
VERTEX
  8
0
 10
227.000000
 20
455.000000
 42
0.000000
  0
SEQEND
  0
POLYLINE
  8
0
 66
1
 70
1
  0
VERTEX
  8
0
 10
272.000000
 20
372.500000
 42
0.000000
  0
VERTEX
  8
0
 10
272.000000
 20
305.000000
 42
0.000000
  0
VERTEX
  8
0
 10
327.000000
 20
305.000000
 42
0.000000
  0
VERTEX
  8
0
 10
382.000000
 20
305.000000
 42
0.000000
  0
VERTEX
  8
0
 10
382.000000
 20
290.000000
 42
0.000000
  0
VERTEX
  8
0
 10
382.000000
 20
275.000000
 42
0.000000
  0
VERTEX
  8
0
 10
327.000000
 20
275.000000
 42
0.000000
  0
VERTEX
  8
0
 10
272.000000
 20
275.000000
 42
0.000000
  0
VERTEX
  8
0
 10
272.000000
 20
255.927648
 42
0.000000
  0
VERTEX
  8
0
 10
272.000000
 20
236.855297
 42
0.000000
  0
VERTEX
  8
0
 10
264.848344
 20
228.177648
 42
-0.004470
  0
VERTEX
  8
0
 10
262.056753
 20
224.851444
 42
-0.007021
  0
VERTEX
  8
0
 10
259.592835
 20
222.049059
 42
-0.002523
  0
VERTEX
  8
0
 10
257.439869
 20
219.692607
 42
-0.209342
  0
VERTEX
  8
0
 10
257.000000
 20
219.500000
 42
-0.209342
  0
VERTEX
  8
0
 10
256.560131
 20
219.692607
 42
-0.002523
  0
VERTEX
  8
0
 10
254.407165
 20
222.049059
 42
-0.007021
  0
VERTEX
  8
0
 10
251.943247
 20
224.851444
 42
-0.004470
  0
VERTEX
  8
0
 10
249.151656
 20
228.177648
 42
0.000000
  0
VERTEX
  8
0
 10
242.000000
 20
236.855297
 42
0.000000
  0
VERTEX
  8
0
 10
242.000000
 20
255.927648
 42
0.000000
  0
VERTEX
  8
0
 10
242.000000
 20
275.000000
 42
0.000000
  0
VERTEX
  8
0
 10
187.000000
 20
275.000000
 42
0.000000
  0
VERTEX
  8
0
 10
132.000000
 20
275.000000
 42
0.000000
  0
VERTEX
  8
0
 10
132.000000
 20
290.000000
 42
0.000000
  0
VERTEX
  8
0
 10
132.000000
 20
305.000000
 42
0.000000
  0
VERTEX
  8
0
 10
187.000000
 20
305.000000
 42
0.000000
  0
VERTEX
  8
0
 10
242.000000
 20
305.000000
 42
0.000000
  0
VERTEX
  8
0
 10
242.000000
 20
372.500000
 42
0.000000
  0
VERTEX
  8
0
 10
242.000000
 20
440.000000
 42
0.000000
  0
VERTEX
  8
0
 10
257.000000
 20
440.000000
 42
0.000000
  0
VERTEX
  8
0
 10
272.000000
 20
440.000000
 42
0.000000
  0
SEQEND
  0
POLYLINE
  8
0
 66
1
 70
1
  0
VERTEX
  8
0
 10
203.278761
 20
424.086042
 42
0.052214
  0
VERTEX
  8
0
 10
181.958630
 20
410.843560
 42
0.049097
  0
VERTEX
  8
0
 10
163.355529
 20
393.223806
 42
0.049528
  0
VERTEX
  8
0
 10
148.690355
 20
372.482729
 42
0.055337
  0
VERTEX
  8
0
 10
139.027757
 20
350.000000
 42
0.003873
  0
VERTEX
  8
0
 10
136.439923
 20
341.251510
 42
0.029766
  0
VERTEX
  8
0
 10
135.505203
 20
337.078233
 42
0.077579
  0
VERTEX
  8
0
 10
135.491534
 20
334.791464
 42
0.270180
  0
VERTEX
  8
0
 10
136.380870
 20
333.684088
 42
0.043684
  0
VERTEX
  8
0
 10
137.284426
 20
333.425152
 42
0.006427
  0
VERTEX
  8
0
 10
139.158405
 20
333.086222
 42
0.007213
  0
VERTEX
  8
0
 10
141.389419
 20
332.745277
 42
0.006141
  0
VERTEX
  8
0
 10
143.752277
 20
332.448517
 42
0.000000
  0
VERTEX
  8
0
 10
149.639601
 20
331.782442
 42
0.000000
  0
VERTEX
  8
0
 10
151.849666
 20
340.148444
 42
-0.033893
  0
VERTEX
  8
0
 10
156.441121
 20
353.728674
 42
-0.033115
  0
VERTEX
  8
0
 10
162.854948
 20
366.674143
 42
-0.032935
  0
VERTEX
  8
0
 10
170.960394
 20
378.726247
 42
-0.032687
  0
VERTEX
  8
0
 10
180.597137
 20
389.641909
 42
-0.016820
  0
VERTEX
  8
0
 10
187.457003
 20
396.014066
 42
-0.023111
  0
VERTEX
  8
0
 10
194.061519
 20
401.232625
 42
-0.023325
  0
VERTEX
  8
0
 10
201.070503
 20
405.783240
 42
-0.017633
  0
VERTEX
  8
0
 10
209.150606
 20
410.134124
 42
0.011873
  0
VERTEX
  8
0
 10
214.885483
 20
413.137493
 42
0.186520
  0
VERTEX
  8
0
 10
216.276521
 20
414.803069
 42
0.176975
  0
VERTEX
  8
0
 10
216.225071
 20
417.010421
 42
0.010476
  0
VERTEX
  8
0
 10
213.611750
 20
423.286160
 42
0.000000
  0
VERTEX
  8
0
 10
211.500000
 20
428.072320
 42
0.000000
  0
SEQEND
  0
POLYLINE
  8
0
 66
1
 70
1
  0
VERTEX
  8
0
 10
299.583693
 20
421.432908
 42
0.002505
  0
VERTEX
  8
0
 10
298.593548
 20
418.923195
 42
0.003785
  0
VERTEX
  8
0
 10
297.758960
 20
416.727242
 42
0.001509
  0
VERTEX
  8
0
 10
297.063892
 20
414.838409
 42
0.087621
  0
VERTEX
  8
0
 10
297.000000
 20
414.476614
 42
0.268191
  0
VERTEX
  8
0
 10
297.162820
 20
414.194895
 42
0.003310
  0
VERTEX
  8
0
 10
299.050239
 20
413.124043
 42
0.008687
  0
VERTEX
  8
0
 10
301.304004
 20
411.915874
 42
0.005446
  0
VERTEX
  8
0
 10
303.979536
 20
410.577535
 42
-0.052798
  0
VERTEX
  8
0
 10
323.595465
 20
398.322303
 42
-0.052572
  0
VERTEX
  8
0
 10
340.241003
 20
382.214818
 42
-0.052632
  0
VERTEX
  8
0
 10
353.145436
 20
363.008676
 42
-0.053161
  0
VERTEX
  8
0
 10
361.703982
 20
341.594677
 42
0.000000
  0
VERTEX
  8
0
 10
364.458777
 20
331.793572
 42
0.000000
  0
VERTEX
  8
0
 10
370.296911
 20
332.454082
 42
0.008526
  0
VERTEX
  8
0
 10
375.892384
 20
333.183966
 42
0.111146
  0
VERTEX
  8
0
 10
377.836513
 20
333.933873
 42
0.239890
  0
VERTEX
  8
0
 10
378.571585
 20
335.246811
 42
0.054780
  0
VERTEX
  8
0
 10
378.388083
 20
337.866025
 42
0.019337
  0
VERTEX
  8
0
 10
377.953726
 20
339.826213
 42
0.004659
  0
VERTEX
  8
0
 10
377.079026
 20
343.035971
 42
0.004776
  0
VERTEX
  8
0
 10
376.004944
 20
346.703148
 42
0.004723
  0
VERTEX
  8
0
 10
374.857139
 20
350.362814
 42
0.050280
  0
VERTEX
  8
0
 10
365.097994
 20
372.582738
 42
0.047619
  0
VERTEX
  8
0
 10
350.949295
 20
392.848715
 42
0.047853
  0
VERTEX
  8
0
 10
333.299329
 20
409.980986
 42
0.051932
  0
VERTEX
  8
0
 10
313.166888
 20
422.916853
 42
0.005293
  0
VERTEX
  8
0
 10
305.436765
 20
426.715539
 42
0.139644
  0
VERTEX
  8
0
 10
303.184250
 20
427.099129
 42
0.254721
  0
VERTEX
  8
0
 10
301.652446
 20
426.033869
 42
0.020884
  0
SEQEND
  0
POLYLINE
  8
0
 66
1
 70
1
  0
VERTEX
  8
0
 10
394.488846
 20
410.442741
 42
-0.015504
  0
VERTEX
  8
0
 10
391.665116
 20
406.983762
 42
-0.007798
  0
VERTEX
  8
0
 10
387.900824
 20
402.787872
 42
-0.007736
  0
VERTEX
  8
0
 10
383.870893
 20
398.567322
 42
-0.011369
  0
VERTEX
  8
0
 10
380.189920
 20
394.995933
 42
0.000000
  0
VERTEX
  8
0
 10
371.679388
 20
387.106384
 42
0.000000
  0
VERTEX
  8
0
 10
375.872089
 20
381.553192
 42
0.009304
  0
VERTEX
  8
0
 10
377.541705
 20
379.425320
 42
0.013815
  0
VERTEX
  8
0
 10
379.088573
 20
377.631250
 42
0.008856
  0
VERTEX
  8
0
 10
380.428438
 20
376.212701
 42
0.201722
  0
VERTEX
  8
0
 10
380.934198
 20
376.000000
 42
0.179324
  0
VERTEX
  8
0
 10
381.508994
 20
376.212999
 42
0.002271
  0
VERTEX
  8
0
 10
384.495398
 20
378.802281
 42
0.006297
  0
VERTEX
  8
0
 10
387.928216
 20
381.883224
 42
0.004044
  0
VERTEX
  8
0
 10
391.836562
 20
385.539681
 42
0.015234
  0
VERTEX
  8
0
 10
398.708870
 20
392.484793
 42
0.013706
  0
VERTEX
  8
0
 10
405.399777
 20
400.078941
 42
0.008112
  0
VERTEX
  8
0
 10
411.120646
 20
407.173459
 42
0.167129
  0
VERTEX
  8
0
 10
412.000000
 20
409.730734
 42
0.235891
  0
VERTEX
  8
0
 10
411.552846
 20
410.625791
 42
0.003590
  0
VERTEX
  8
0
 10
406.753846
 20
414.176463
 42
0.004742
  0
VERTEX
  8
0
 10
401.992494
 20
417.577992
 42
0.153909
  0
VERTEX
  8
0
 10
400.654004
 20
418.000000
 42
0.224142
  0
VERTEX
  8
0
 10
400.414162
 20
417.886796
 42
0.001127
  0
VERTEX
  8
0
 10
398.687573
 20
415.780055
 42
0.004728
  0
VERTEX
  8
0
 10
396.735051
 20
413.339905
 42
0.002941
  0
SEQEND
  0
POLYLINE
  8
0
 66
1
 70
1
  0
VERTEX
  8
0
 10
304.578558
 20
391.129320
 42
0.003693
  0
VERTEX
  8
0
 10
303.207141
 20
388.833686
 42
0.005591
  0
VERTEX
  8
0
 10
302.051201
 20
386.814511
 42
0.002349
  0
VERTEX
  8
0
 10
301.092825
 20
385.077013
 42
0.125493
  0
VERTEX
  8
0
 10
301.000000
 20
384.712995
 42
0.242218
  0
VERTEX
  8
0
 10
301.483531
 20
383.773424
 42
0.004530
  0
VERTEX
  8
0
 10
306.160558
 20
380.496408
 42
0.004509
  0
VERTEX
  8
0
 10
310.897568
 20
377.303460
 42
0.244305
  0
VERTEX
  8
0
 10
311.941454
 20
377.193604
 42
0.103551
  0
VERTEX
  8
0
 10
312.412513
 20
377.502725
 42
0.004871
  0
VERTEX
  8
0
 10
313.747359
 20
378.868484
 42
0.007852
  0
VERTEX
  8
0
 10
315.300485
 20
380.540651
 42
0.005549
  0
VERTEX
  8
0
 10
316.994139
 20
382.465065
 42
0.000000
  0
VERTEX
  8
0
 10
321.266998
 20
387.430131
 42
0.000000
  0
VERTEX
  8
0
 10
317.731834
 20
390.465065
 42
0.011298
  0
VERTEX
  8
0
 10
316.157742
 20
391.755808
 42
0.008163
  0
VERTEX
  8
0
 10
314.348065
 20
393.125526
 42
0.008251
  0
VERTEX
  8
0
 10
312.584626
 20
394.371372
 42
0.017711
  0
VERTEX
  8
0
 10
311.176893
 20
395.260131
 42
0.000000
  0
VERTEX
  8
0
 10
308.157116
 20
397.020262
 42
0.000000
  0
SEQEND
  0
POLYLINE
  8
0
 66
1
 70
1
  0
VERTEX
  8
0
 10
323.712408
 20
375.215651
 42
0.007551
  0
VERTEX
  8
0
 10
321.906750
 20
373.326186
 42
0.011127
  0
VERTEX
  8
0
 10
320.384270
 20
371.608991
 42
0.006606
  0
VERTEX
  8
0
 10
319.168908
 20
370.136129
 42
0.170805
  0
VERTEX
  8
0
 10
319.000000
 20
369.656108
 42
0.171796
  0
VERTEX
  8
0
 10
319.448172
 20
368.390237
 42
0.006280
  0
VERTEX
  8
0
 10
322.755681
 20
364.408000
 42
0.005492
  0
VERTEX
  8
0
 10
326.190857
 20
360.464747
 42
0.213970
  0
VERTEX
  8
0
 10
327.227147
 20
360.000000
 42
0.143031
  0
VERTEX
  8
0
 10
328.406816
 20
360.344506
 42
0.003123
  0
VERTEX
  8
0
 10
333.475302
 20
363.625630
 42
0.002118
  0
VERTEX
  8
0
 10
338.635060
 20
367.043126
 42
0.250437
  0
VERTEX
  8
0
 10
339.000000
 20
367.726034
 42
0.169734
  0
VERTEX
  8
0
 10
338.655132
 20
368.712671
 42
0.001987
  0
VERTEX
  8
0
 10
334.277199
 20
374.165388
 42
0.001626
  0
VERTEX
  8
0
 10
329.810258
 20
379.647356
 42
0.224622
  0
VERTEX
  8
0
 10
329.064892
 20
380.000000
 42
0.179332
  0
VERTEX
  8
0
 10
328.661811
 20
379.850626
 42
0.004907
  0
VERTEX
  8
0
 10
327.228569
 20
378.594597
 42
0.009554
  0
VERTEX
  8
0
 10
325.564651
 20
377.049100
 42
0.006337
  0
SEQEND
  0
POLYLINE
  8
0
 66
1
 70
1
  0
VERTEX
  8
0
 10
337.711178
 20
354.616156
 42
0.014655
  0
VERTEX
  8
0
 10
335.138209
 20
353.132265
 42
0.040567
  0
VERTEX
  8
0
 10
333.454954
 20
351.895867
 42
0.062924
  0
VERTEX
  8
0
 10
332.520339
 20
350.852555
 42
0.230802
  0
VERTEX
  8
0
 10
332.390480
 20
350.000000
 42
0.012952
  0
VERTEX
  8
0
 10
333.256429
 20
347.458680
 42
0.001872
  0
VERTEX
  8
0
 10
335.175221
 20
342.330772
 42
0.000540
  0
VERTEX
  8
0
 10
337.289912
 20
336.761340
 42
0.069890
  0
VERTEX
  8
0
 10
337.644220
 20
336.118165
 42
0.309504
  0
VERTEX
  8
0
 10
338.709376
 20
335.756386
 42
0.005098
  0
VERTEX
  8
0
 10
345.047230
 20
337.600009
 42
0.004978
  0
VERTEX
  8
0
 10
351.354404
 20
339.573397
 42
0.334396
  0
VERTEX
  8
0
 10
351.964869
 20
340.442765
 42
0.091208
  0
VERTEX
  8
0
 10
351.454691
 20
342.777556
 42
0.005008
  0
VERTEX
  8
0
 10
348.474655
 20
349.689575
 42
0.002519
  0
VERTEX
  8
0
 10
345.233457
 20
356.906538
 42
0.246129
  0
VERTEX
  8
0
 10
344.374219
 20
357.574750
 42
0.142695
  0
VERTEX
  8
0
 10
343.798668
 20
357.514002
 42
0.007311
  0
VERTEX
  8
0
 10
342.056335
 20
356.770658
 42
0.011161
  0
VERTEX
  8
0
 10
339.992497
 20
355.798538
 42
0.007825
  0
SEQEND
  0
POLYLINE
  8
0
 66
1
 70
1
  0
VERTEX
  8
0
 10
97.737081
 20
242.237389
 42
0.000000
  0
VERTEX
  8
0
 10
81.003962
 20
225.482525
 42
0.000000
  0
VERTEX
  8
0
 10
90.216547
 20
216.269940
 42
0.000000
  0
VERTEX
  8
0
 10
99.429132
 20
207.057355
 42
0.000000
  0
VERTEX
  8
0
 10
96.502012
 20
204.002100
 42
0.000000
  0
VERTEX
  8
0
 10
93.574893
 20
200.946846
 42
0.000000
  0
VERTEX
  8
0
 10
99.196816
 20
195.324923
 42
0.000000
  0
VERTEX
  8
0
 10
104.818739
 20
189.703000
 42
0.000000
  0
VERTEX
  8
0
 10
99.659369
 20
185.541659
 42
-0.061284
  0
VERTEX
  8
0
 10
79.871481
 20
173.237060
 42
-0.057990
  0
VERTEX
  8
0
 10
57.322086
 20
165.813271
 42
-0.057133
  0
VERTEX
  8
0
 10
33.349653
 20
163.696890
 42
-0.056135
  0
VERTEX
  8
0
 10
9.371629
 20
167.032832
 42
0.000992
  0
VERTEX
  8
0
 10
6.398844
 20
167.786862
 42
0.001555
  0
VERTEX
  8
0
 10
3.839583
 20
168.422144
 42
0.000390
  0
VERTEX
  8
0
 10
1.599973
 20
168.968837
 42
0.059731
  0
VERTEX
  8
0
 10
1.340037
 20
169.000000
 42
0.420721
  0
VERTEX
  8
0
 10
0.807986
 20
168.456021
 42
0.001808
  0
VERTEX
  8
0
 10
1.042056
 20
159.379773
 42
0.007913
  0
VERTEX
  8
0
 10
1.432832
 20
150.744932
 42
0.018593
  0
VERTEX
  8
0
 10
2.065765
 20
144.322359
 42
0.042580
  0
VERTEX
  8
0
 10
6.985941
 20
122.373594
 42
0.044715
  0
VERTEX
  8
0
 10
15.500707
 20
101.950181
 42
0.045256
  0
VERTEX
  8
0
 10
27.397889
 20
83.584459
 42
0.045832
  0
VERTEX
  8
0
 10
42.359936
 20
67.743512
 42
0.039719
  0
VERTEX
  8
0
 10
59.645165
 20
54.795088
 42
0.046681
  0
VERTEX
  8
0
 10
77.882092
 20
45.525941
 42
0.045016
  0
VERTEX
  8
0
 10
98.080249
 20
39.565165
 42
0.033029
  0
VERTEX
  8
0
 10
121.250000
 20
36.513295
 42
0.000000
  0
VERTEX
  8
0
 10
131.000000
 20
35.879327
 42
0.000000
  0
VERTEX
  8
0
 10
131.000000
 20
60.300181
 42
0.000000
  0
VERTEX
  8
0
 10
131.000000
 20
84.721034
 42
0.000000
  0
VERTEX
  8
0
 10
119.750000
 20
85.272191
 42
-0.019757
  0
VERTEX
  8
0
 10
111.816038
 20
85.975884
 42
-0.026917
  0
VERTEX
  8
0
 10
104.753337
 20
87.274173
 42
-0.029002
  0
VERTEX
  8
0
 10
98.314600
 20
89.220861
 42
-0.030564
  0
VERTEX
  8
0
 10
92.259931
 20
91.871854
 42
0.000000
  0
VERTEX
  8
0
 10
89.019862
 20
93.533246
 42
0.000000
  0
VERTEX
  8
0
 10
116.996110
 20
121.496112
 42
0.000000
  0
VERTEX
  8
0
 10
144.972359
 20
149.458978
 42
0.000000
  0
VERTEX
  8
0
 10
150.471403
 20
144.028241
 42
0.000000
  0
VERTEX
  8
0
 10
155.970448
 20
138.597505
 42
0.000000
  0
VERTEX
  8
0
 10
158.927040
 20
141.430100
 42
0.000000
  0
VERTEX
  8
0
 10
161.883632
 20
144.262695
 42
0.000000
  0
VERTEX
  8
0
 10
174.691816
 20
132.246435
 42
0.001685
  0
VERTEX
  8
0
 10
180.145346
 20
127.164540
 42
0.001429
  0
VERTEX
  8
0
 10
185.940721
 20
121.831136
 42
0.001440
  0
VERTEX
  8
0
 10
191.248507
 20
117.002404
 42
0.004046
  0
VERTEX
  8
0
 10
195.000000
 20
113.663994
 42
0.000000
  0
VERTEX
  8
0
 10
202.500000
 20
107.097812
 42
0.000000
  0
VERTEX
  8
0
 10
207.206706
 20
112.298906
 42
0.004924
  0
VERTEX
  8
0
 10
209.013553
 20
114.335499
 42
0.007425
  0
VERTEX
  8
0
 10
210.543535
 20
116.148293
 42
0.003461
  0
VERTEX
  8
0
 10
211.804835
 20
117.710514
 42
0.151190
  0
VERTEX
  8
0
 10
211.956706
 20
118.099538
 42
0.223570
  0
VERTEX
  8
0
 10
211.804551
 20
118.494380
 42
0.001143
  0
VERTEX
  8
0
 10
208.682595
 20
121.466321
 42
0.004757
  0
VERTEX
  8
0
 10
205.059688
 20
124.834553
 42
0.002960
  0
VERTEX
  8
0
 10
200.750000
 20
128.719023
 42
-0.001950
  0
VERTEX
  8
0
 10
195.822142
 20
133.142667
 42
-0.001369
  0
VERTEX
  8
0
 10
190.307813
 20
138.159283
 42
-0.001381
  0
VERTEX
  8
0
 10
185.054772
 20
142.991274
 42
-0.002891
  0
VERTEX
  8
0
 10
181.000000
 20
146.785518
 42
0.000000
  0
VERTEX
  8
0
 10
172.500000
 20
154.832066
 42
0.000000
  0
VERTEX
  8
0
 10
178.403791
 20
160.850443
 42
0.000000
  0
VERTEX
  8
0
 10
184.307581
 20
166.868819
 42
0.000000
  0
VERTEX
  8
0
 10
198.903791
 20
152.999892
 42
0.007368
  0
VERTEX
  8
0
 10
209.469072
 20
143.253208
 42
0.006140
  0
VERTEX
  8
0
 10
220.972709
 20
133.202275
 42
0.001724
  0
VERTEX
  8
0
 10
232.213540
 20
123.688512
 42
0.176532
  0
VERTEX
  8
0
 10
234.102870
 20
123.000000
 42
0.211252
  0
VERTEX
  8
0
 10
234.497354
 20
123.174457
 42
0.005372
  0
VERTEX
  8
0
 10
235.822984
 20
124.663854
 42
0.010562
  0
VERTEX
  8
0
 10
237.349721
 20
126.493399
 42
0.006900
  0
VERTEX
  8
0
 10
239.036209
 20
128.664183
 42
0.000000
  0
VERTEX
  8
0
 10
243.312708
 20
134.328366
 42
0.000000
  0
VERTEX
  8
0
 10
240.906354
 20
136.245954
 42
-0.006155
  0
VERTEX
  8
0
 10
231.691141
 20
143.776753
 42
-0.007344
  0
VERTEX
  8
0
 10
223.198289
 20
151.108392
 42
-0.007625
  0
VERTEX
  8
0
 10
215.211834
 20
158.431357
 42
-0.007816
  0
VERTEX
  8
0
 10
207.519175
 20
165.935108
 42
0.000000
  0
VERTEX
  8
0
 10
195.538350
 20
177.992895
 42
0.000000
  0
VERTEX
  8
0
 10
198.277607
 20
180.732152
 42
0.000000
  0
VERTEX
  8
0
 10
201.016864
 20
183.471409
 42
0.000000
  0
VERTEX
  8
0
 10
169.788241
 20
214.711839
 42
0.000000
  0
VERTEX
  8
0
 10
138.559618
 20
245.952270
 42
0.000000
  0
VERTEX
  8
0
 10
135.757721
 20
243.267882
 42
0.000000
  0
VERTEX
  8
0
 10
132.955823
 20
240.583494
 42
0.000000
  0
VERTEX
  8
0
 10
123.713012
 20
249.787874
 42
0.000000
  0
VERTEX
  8
0
 10
114.470200
 20
258.992254
 42
0.000000
  0
SEQEND
  0
POLYLINE
  8
0
 66
1
 70
1
  0
VERTEX
  8
0
 10
118.291659
 20
233.213360
 42
0.000000
  0
VERTEX
  8
0
 10
121.989215
 20
229.426720
 42
0.000000
  0
VERTEX
  8
0
 10
116.002618
 20
223.502590
 42
0.000000
  0
VERTEX
  8
0
 10
110.016021
 20
217.578461
 42
0.000000
  0
VERTEX
  8
0
 10
105.998924
 20
221.501051
 42
0.000000
  0
VERTEX
  8
0
 10
101.981827
 20
225.423641
 42
0.000000
  0
VERTEX
  8
0
 10
107.709610
 20
231.211820
 42
-0.004717
  0
VERTEX
  8
0
 10
109.946731
 20
233.430277
 42
-0.007295
  0
VERTEX
  8
0
 10
111.924749
 20
235.299722
 42
-0.002934
  0
VERTEX
  8
0
 10
113.641126
 20
236.856664
 42
-0.184776
  0
VERTEX
  8
0
 10
114.015749
 20
237.000000
 42
-0.176815
  0
VERTEX
  8
0
 10
114.373919
 20
236.869252
 42
-0.006191
  0
VERTEX
  8
0
 10
115.510369
 20
235.887675
 42
-0.010837
  0
VERTEX
  8
0
 10
116.832865
 20
234.664354
 42
-0.007292
  0
SEQEND
  0
POLYLINE
  8
0
 66
1
 70
1
  0
VERTEX
  8
0
 10
168.000870
 20
171.511074
 42
0.000000
  0
VERTEX
  8
0
 10
155.997910
 20
159.508114
 42
0.000000
  0
VERTEX
  8
0
 10
135.258285
 20
180.247739
 42
0.000000
  0
VERTEX
  8
0
 10
114.518660
 20
200.987364
 42
0.000000
  0
VERTEX
  8
0
 10
126.497146
 20
212.997139
 42
0.000000
  0
VERTEX
  8
0
 10
138.475632
 20
225.006913
 42
0.000000
  0
VERTEX
  8
0
 10
159.239731
 20
204.260473
 42
0.000000
  0
VERTEX
  8
0
 10
180.003829
 20
183.514034
 42
0.000000
  0
SEQEND
  0
POLYLINE
  8
0
 66
1
 70
1
  0
VERTEX
  8
0
 10
99.994077
 20
125.465107
 42
0.000000
  0
VERTEX
  8
0
 10
65.500000
 20
90.931190
 42
0.000000
  0
VERTEX
  8
0
 10
68.000000
 20
89.014600
 42
0.026304
  0
VERTEX
  8
0
 10
72.862543
 20
85.677472
 42
0.010726
  0
VERTEX
  8
0
 10
79.794558
 20
81.639880
 42
0.010742
  0
VERTEX
  8
0
 10
86.905922
 20
77.896992
 42
0.025757
  0
VERTEX
  8
0
 10
92.364587
 20
75.514748
 42
0.015335
  0
VERTEX
  8
0
 10
95.491868
 20
74.445918
 42
0.007617
  0
VERTEX
  8
0
 10
99.515138
 20
73.274056
 42
0.007553
  0
VERTEX
  8
0
 10
103.725408
 20
72.185122
 42
0.010994
  0
VERTEX
  8
0
 10
107.470874
 20
71.363284
 42
0.000000
  0
VERTEX
  8
0
 10
116.000000
 20
69.687457
 42
0.000000
  0
VERTEX
  8
0
 10
116.000000
 20
60.843729
 42
-0.012060
  0
VERTEX
  8
0
 10
115.838174
 20
54.135507
 42
-0.246310
  0
VERTEX
  8
0
 10
114.843025
 20
52.441888
 42
-0.181696
  0
VERTEX
  8
0
 10
112.713234
 20
52.016632
 42
-0.006269
  0
VERTEX
  8
0
 10
104.223671
 20
53.517055
 42
-0.074939
  0
VERTEX
  8
0
 10
73.533662
 20
64.272077
 42
-0.075205
  0
VERTEX
  8
0
 10
47.418849
 20
83.585805
 42
-0.075676
  0
VERTEX
  8
0
 10
28.311396
 20
109.637957
 42
-0.077382
  0
VERTEX
  8
0
 10
18.003461
 20
140.000000
 42
0.000217
  0
VERTEX
  8
0
 10
17.548282
 20
142.600687
 42
0.000263
  0
VERTEX
  8
0
 10
17.119068
 20
145.039252
 42
0.000222
  0
VERTEX
  8
0
 10
16.755815
 20
147.091417
 42
0.001815
  0
VERTEX
  8
0
 10
16.586232
 20
148.027240
 42
-0.381514
  0
VERTEX
  8
0
 10
17.079942
 20
148.839704
 42
-0.056014
  0
VERTEX
  8
0
 10
19.140688
 20
149.223017
 42
-0.021497
  0
VERTEX
  8
0
 10
23.238947
 20
149.341927
 42
-0.002508
  0
VERTEX
  8
0
 10
32.401873
 20
149.167839
 42
0.005877
  0
VERTEX
  8
0
 10
40.662236
 20
149.066562
 42
0.013025
  0
VERTEX
  8
0
 10
46.958368
 20
149.227411
 42
0.016172
  0
VERTEX
  8
0
 10
52.287229
 20
149.675721
 42
0.017298
  0
VERTEX
  8
0
 10
57.456733
 20
150.461580
 42
0.032092
  0
VERTEX
  8
0
 10
72.132264
 20
154.202869
 42
0.030869
  0
VERTEX
  8
0
 10
86.406149
 20
159.829655
 42
0.031246
  0
VERTEX
  8
0
 10
99.703886
 20
167.088869
 42
0.035053
  0
VERTEX
  8
0
 10
111.464262
 20
175.703895
 42
0.000000
  0
VERTEX
  8
0
 10
115.428524
 20
179.058656
 42
0.000000
  0
VERTEX
  8
0
 10
124.958339
 20
169.528840
 42
0.000000
  0
VERTEX
  8
0
 10
134.488155
 20
159.999025
 42
0.000000
  0
SEQEND
  0
POLYLINE
  8
0
 66
1
 70
1
  0
VERTEX
  8
0
 10
390.269940
 20
249.783453
 42
0.000000
  0
VERTEX
  8
0
 10
381.057355
 20
240.570868
 42
0.000000
  0
VERTEX
  8
0
 10
378.248868
 20
243.261569
 42
0.000000
  0
VERTEX
  8
0
 10
375.440382
 20
245.952270
 42
0.000000
  0
VERTEX
  8
0
 10
344.211759
 20
214.711839
 42
0.000000
  0
VERTEX
  8
0
 10
312.983136
 20
183.471409
 42
0.000000
  0
VERTEX
  8
0
 10
315.722053
 20
180.732492
 42
0.000000
  0
VERTEX
  8
0
 10
318.460970
 20
177.993576
 42
0.000000
  0
VERTEX
  8
0
 10
306.980485
 20
166.412369
 42
-0.032005
  0
VERTEX
  8
0
 10
275.014418
 20
138.047499
 42
-0.037065
  0
VERTEX
  8
0
 10
241.154582
 20
115.489312
 42
-0.037404
  0
VERTEX
  8
0
 10
204.613529
 20
98.338871
 42
-0.033712
  0
VERTEX
  8
0
 10
164.643862
 20
86.121158
 42
0.002143
  0
VERTEX
  8
0
 10
159.686587
 20
84.941908
 42
0.003382
  0
VERTEX
  8
0
 10
155.445184
 20
83.883306
 42
0.000866
  0
VERTEX
  8
0
 10
151.754170
 20
82.928696
 42
0.133429
  0
VERTEX
  8
0
 10
151.382514
 20
82.715847
 42
0.197861
  0
VERTEX
  8
0
 10
151.217763
 20
82.320368
 42
0.000135
  0
VERTEX
  8
0
 10
151.173105
 20
70.491618
 42
0.001544
  0
VERTEX
  8
0
 10
151.167602
 20
57.281641
 42
0.000940
  0
VERTEX
  8
0
 10
151.238652
 20
41.670469
 42
0.000000
  0
VERTEX
  8
0
 10
151.500000
 20
1.030300
 42
0.000000
  0
VERTEX
  8
0
 10
170.500000
 20
11.304909
 42
0.014601
  0
VERTEX
  8
0
 10
217.101805
 20
38.293179
 42
0.016924
  0
VERTEX
  8
0
 10
259.755471
 20
66.727217
 42
0.017110
  0
VERTEX
  8
0
 10
299.983870
 20
97.693894
 42
0.015590
  0
VERTEX
  8
0
 10
339.304037
 20
132.279921
 42
0.000000
  0
VERTEX
  8
0
 10
352.108075
 20
144.270640
 42
0.000000
  0
VERTEX
  8
0
 10
355.068813
 20
141.434073
 42
0.000000
  0
VERTEX
  8
0
 10
358.029552
 20
138.597505
 42
0.000000
  0
VERTEX
  8
0
 10
363.528597
 20
144.028241
 42
0.000000
  0
VERTEX
  8
0
 10
369.027641
 20
149.458978
 42
0.000000
  0
VERTEX
  8
0
 10
397.003890
 20
121.496112
 42
0.000000
  0
VERTEX
  8
0
 10
424.980138
 20
93.533246
 42
0.000000
  0
VERTEX
  8
0
 10
421.740069
 20
91.871854
 42
-0.030564
  0
VERTEX
  8
0
 10
415.685400
 20
89.220861
 42
-0.029002
  0
VERTEX
  8
0
 10
409.246663
 20
87.274173
 42
-0.026917
  0
VERTEX
  8
0
 10
402.183962
 20
85.975884
 42
-0.019757
  0
VERTEX
  8
0
 10
394.250000
 20
85.272191
 42
0.000000
  0
VERTEX
  8
0
 10
383.000000
 20
84.721034
 42
0.000000
  0
VERTEX
  8
0
 10
383.000000
 20
60.300181
 42
0.000000
  0
VERTEX
  8
0
 10
383.000000
 20
35.879327
 42
0.000000
  0
VERTEX
  8
0
 10
392.750000
 20
36.513295
 42
0.025902
  0
VERTEX
  8
0
 10
411.814028
 20
38.748686
 42
0.035257
  0
VERTEX
  8
0
 10
428.630239
 20
42.846096
 42
0.037230
  0
VERTEX
  8
0
 10
443.966817
 20
49.041389
 42
0.034812
  0
VERTEX
  8
0
 10
458.580407
 20
57.563226
 42
0.043480
  0
VERTEX
  8
0
 10
475.558911
 20
71.418056
 42
0.044184
  0
VERTEX
  8
0
 10
489.785413
 20
87.931217
 42
0.044146
  0
VERTEX
  8
0
 10
500.899511
 20
106.701332
 42
0.043249
  0
VERTEX
  8
0
 10
508.635439
 20
127.258320
 42
0.016386
  0
VERTEX
  8
0
 10
509.989753
 20
132.775571
 42
0.021918
  0
VERTEX
  8
0
 10
510.831771
 20
137.860229
 42
0.016841
  0
VERTEX
  8
0
 10
511.358570
 20
143.928025
 42
0.005503
  0
VERTEX
  8
0
 10
511.735015
 20
152.903465
 42
0.001773
  0
VERTEX
  8
0
 10
512.020420
 20
163.330637
 42
0.027651
  0
VERTEX
  8
0
 10
511.908039
 20
166.900538
 42
0.140061
  0
VERTEX
  8
0
 10
511.374377
 20
168.296829
 42
0.335757
  0
VERTEX
  8
0
 10
510.371115
 20
168.584839
 42
-0.022422
  0
VERTEX
  8
0
 10
509.284538
 20
168.220570
 42
-0.004119
  0
VERTEX
  8
0
 10
507.244983
 20
167.655235
 42
-0.004418
  0
VERTEX
  8
0
 10
504.845744
 20
167.034105
 42
-0.004006
  0
VERTEX
  8
0
 10
502.356488
 20
166.434229
 42
-0.055054
  0
VERTEX
  8
0
 10
478.942986
 20
163.647435
 42
-0.055618
  0
VERTEX
  8
0
 10
455.568708
 20
166.055307
 42
-0.056416
  0
VERTEX
  8
0
 10
433.602855
 20
173.493017
 42
-0.059954
  0
VERTEX
  8
0
 10
414.340631
 20
185.541659
 42
0.000000
  0
VERTEX
  8
0
 10
409.181261
 20
189.703000
 42
0.000000
  0
VERTEX
  8
0
 10
414.803184
 20
195.324923
 42
0.000000
  0
VERTEX
  8
0
 10
420.425107
 20
200.946846
 42
0.000000
  0
VERTEX
  8
0
 10
417.504300
 20
203.995511
 42
0.000000
  0
VERTEX
  8
0
 10
414.583494
 20
207.044177
 42
0.000000
  0
VERTEX
  8
0
 10
423.787874
 20
216.286988
 42
0.000000
  0
VERTEX
  8
0
 10
432.992254
 20
225.529800
 42
0.000000
  0
VERTEX
  8
0
 10
416.237389
 20
242.262919
 42
0.000000
  0
VERTEX
  8
0
 10
399.482525
 20
258.996038
 42
0.000000
  0
SEQEND
  0
POLYLINE
  8
0
 66
1
 70
1
  0
VERTEX
  8
0
 10
406.290390
 20
231.211820
 42
0.000000
  0
VERTEX
  8
0
 10
412.018173
 20
225.423641
 42
0.000000
  0
VERTEX
  8
0
 10
408.001076
 20
221.501051
 42
0.000000
  0
VERTEX
  8
0
 10
403.983979
 20
217.578461
 42
0.000000
  0
VERTEX
  8
0
 10
397.997382
 20
223.502590
 42
0.000000
  0
VERTEX
  8
0
 10
392.010785
 20
229.426720
 42
0.000000
  0
VERTEX
  8
0
 10
395.708341
 20
233.213360
 42
-0.007292
  0
VERTEX
  8
0
 10
397.167135
 20
234.664354
 42
-0.010837
  0
VERTEX
  8
0
 10
398.489631
 20
235.887675
 42
-0.006191
  0
VERTEX
  8
0
 10
399.626081
 20
236.869252
 42
-0.176815
  0
VERTEX
  8
0
 10
399.984251
 20
237.000000
 42
-0.184776
  0
VERTEX
  8
0
 10
400.358874
 20
236.856664
 42
-0.002934
  0
VERTEX
  8
0
 10
402.075251
 20
235.299722
 42
-0.007295
  0
VERTEX
  8
0
 10
404.053269
 20
233.430277
 42
-0.004717
  0
SEQEND
  0
POLYLINE
  8
0
 66
1
 70
1
  0
VERTEX
  8
0
 10
378.752261
 20
180.258285
 42
0.000000
  0
VERTEX
  8
0
 10
358.012636
 20
159.518660
 42
0.000000
  0
VERTEX
  8
0
 10
346.002861
 20
171.497146
 42
0.000000
  0
VERTEX
  8
0
 10
333.993087
 20
183.475632
 42
0.000000
  0
VERTEX
  8
0
 10
354.739527
 20
204.239731
 42
0.000000
  0
VERTEX
  8
0
 10
375.485966
 20
225.003829
 42
0.000000
  0
VERTEX
  8
0
 10
387.488926
 20
213.000870
 42
0.000000
  0
VERTEX
  8
0
 10
399.491886
 20
200.997910
 42
0.000000
  0
SEQEND
  0
POLYLINE
  8
0
 66
1
 70
1
  0
VERTEX
  8
0
 10
411.500000
 20
169.125364
 42
0.026565
  0
VERTEX
  8
0
 10
421.885611
 20
162.722868
 42
0.026634
  0
VERTEX
  8
0
 10
432.882779
 20
157.463788
 42
0.026452
  0
VERTEX
  8
0
 10
444.450914
 20
153.372687
 42
0.025400
  0
VERTEX
  8
0
 10
456.543267
 20
150.461580
 42
0.017298
  0
VERTEX
  8
0
 10
461.712771
 20
149.675721
 42
0.016172
  0
VERTEX
  8
0
 10
467.041632
 20
149.227411
 42
0.013025
  0
VERTEX
  8
0
 10
473.337764
 20
149.066562
 42
0.005877
  0
VERTEX
  8
0
 10
481.598127
 20
149.167839
 42
-0.002508
  0
VERTEX
  8
0
 10
490.761053
 20
149.341927
 42
-0.021497
  0
VERTEX
  8
0
 10
494.859312
 20
149.223017
 42
-0.056014
  0
VERTEX
  8
0
 10
496.920058
 20
148.839704
 42
-0.381514
  0
VERTEX
  8
0
 10
497.413768
 20
148.027240
 42
0.001815
  0
VERTEX
  8
0
 10
497.244185
 20
147.091417
 42
0.000222
  0
VERTEX
  8
0
 10
496.880932
 20
145.039252
 42
0.000263
  0
VERTEX
  8
0
 10
496.451718
 20
142.600687
 42
0.000217
  0
VERTEX
  8
0
 10
495.996539
 20
140.000000
 42
-0.077493
  0
VERTEX
  8
0
 10
485.687909
 20
109.657827
 42
-0.075566
  0
VERTEX
  8
0
 10
466.567031
 20
83.599386
 42
-0.075097
  0
VERTEX
  8
0
 10
440.446058
 20
64.272393
 42
-0.075047
  0
VERTEX
  8
0
 10
409.776329
 20
53.517055
 42
-0.006269
  0
VERTEX
  8
0
 10
401.286766
 20
52.016632
 42
-0.181696
  0
VERTEX
  8
0
 10
399.156975
 20
52.441888
 42
-0.246310
  0
VERTEX
  8
0
 10
398.161826
 20
54.135507
 42
-0.012060
  0
VERTEX
  8
0
 10
398.000000
 20
60.843729
 42
0.000000
  0
VERTEX
  8
0
 10
398.000000
 20
69.687457
 42
0.000000
  0
VERTEX
  8
0
 10
406.529126
 20
71.363284
 42
0.010994
  0
VERTEX
  8
0
 10
410.274592
 20
72.185122
 42
0.007553
  0
VERTEX
  8
0
 10
414.484862
 20
73.274056
 42
0.007617
  0
VERTEX
  8
0
 10
418.508132
 20
74.445918
 42
0.015335
  0
VERTEX
  8
0
 10
421.635413
 20
75.514748
 42
0.025757
  0
VERTEX
  8
0
 10
427.094078
 20
77.896992
 42
0.010742
  0
VERTEX
  8
0
 10
434.205442
 20
81.639880
 42
0.010726
  0
VERTEX
  8
0
 10
441.137457
 20
85.677472
 42
0.026304
  0
VERTEX
  8
0
 10
446.000000
 20
89.014600
 42
0.000000
  0
VERTEX
  8
0
 10
448.500000
 20
90.931190
 42
0.000000
  0
VERTEX
  8
0
 10
414.012607
 20
125.458421
 42
0.000000
  0
VERTEX
  8
0
 10
379.525213
 20
159.985653
 42
0.000000
  0
VERTEX
  8
0
 10
388.965029
 20
169.464883
 42
0.000000
  0
VERTEX
  8
0
 10
398.404844
 20
178.944113
 42
0.000000
  0
VERTEX
  8
0
 10
401.452422
 20
176.457923
 42
0.010467
  0
VERTEX
  8
0
 10
403.082566
 20
175.183951
 42
0.002999
  0
VERTEX
  8
0
 10
405.661024
 20
173.278430
 42
0.003017
  0
VERTEX
  8
0
 10
408.596510
 20
171.163184
 42
0.003201
  0
SEQEND
  0
POLYLINE
  8
0
 66
1
 70
1
  0
VERTEX
  8
0
 10
335.325066
 20
160.176778
 42
0.000000
  0
VERTEX
  8
0
 10
341.087526
 20
154.353557
 42
0.000000
  0
VERTEX
  8
0
 10
329.293763
 20
143.408191
 42
-0.013050
  0
VERTEX
  8
0
 10
292.650826
 20
111.139479
 42
-0.015593
  0
VERTEX
  8
0
 10
256.438792
 20
82.759874
 42
-0.015920
  0
VERTEX
  8
0
 10
219.204815
 20
57.193324
 42
-0.014780
  0
VERTEX
  8
0
 10
179.500000
 20
33.376188
 42
0.000000
  0
VERTEX
  8
0
 10
166.500000
 20
26.091621
 42
0.000000
  0
VERTEX
  8
0
 10
166.230476
 20
48.192953
 42
-0.001749
  0
VERTEX
  8
0
 10
166.156530
 20
56.695633
 42
-0.002838
  0
VERTEX
  8
0
 10
166.159973
 20
63.921867
 42
-0.000453
  0
VERTEX
  8
0
 10
166.205064
 20
70.311045
 42
-0.196844
  0
VERTEX
  8
0
 10
166.368946
 20
70.702279
 42
-0.126762
  0
VERTEX
  8
0
 10
166.741631
 20
70.922256
 42
-0.000825
  0
VERTEX
  8
0
 10
170.435166
 20
71.981913
 42
-0.003227
  0
VERTEX
  8
0
 10
174.678950
 20
73.162293
 42
-0.002047
  0
VERTEX
  8
0
 10
179.638470
 20
74.485552
 42
0.011781
  0
VERTEX
  8
0
 10
194.330533
 20
78.713586
 42
0.014978
  0
VERTEX
  8
0
 10
207.661506
 20
83.335249
 42
0.014626
  0
VERTEX
  8
0
 10
220.943452
 20
88.840305
 42
0.010410
  0
VERTEX
  8
0
 10
235.500000
 20
95.746566
 42
0.018665
  0
VERTEX
  8
0
 10
257.002062
 20
107.525031
 42
0.021449
  0
VERTEX
  8
0
 10
276.561525
 20
120.377693
 42
0.020609
  0
VERTEX
  8
0
 10
295.587140
 20
135.310676
 42
0.015027
  0
VERTEX
  8
0
 10
315.500000
 20
153.373620
 42
-0.001721
  0
VERTEX
  8
0
 10
320.522060
 20
158.178816
 42
-0.002772
  0
VERTEX
  8
0
 10
324.837320
 20
162.234084
 42
-0.000497
  0
VERTEX
  8
0
 10
328.666526
 20
165.785726
 42
-0.164293
  0
VERTEX
  8
0
 10
329.031303
 20
165.949125
 42
-0.209634
  0
VERTEX
  8
0
 10
329.378964
 20
165.834755
 42
-0.002777
  0
VERTEX
  8
0
 10
331.099259
 20
164.274484
 42
-0.007390
  0
VERTEX
  8
0
 10
333.077936
 20
162.405148
 42
-0.004718
  0
SEQEND
  0
POLYLINE
  8
0
 66
1
 70
1
  0
VERTEX
  8
0
 10
311.915155
 20
94.201226
 42
-0.000541
  0
VERTEX
  8
0
 10
311.421342
 20
92.869429
 42
-0.000214
  0
VERTEX
  8
0
 10
310.739309
 20
91.038499
 42
-0.000212
  0
VERTEX
  8
0
 10
310.000860
 20
89.061264
 42
-0.000265
  0
VERTEX
  8
0
 10
309.314078
 20
87.227706
 42
0.010033
  0
VERTEX
  8
0
 10
308.728261
 20
85.565554
 42
0.015655
  0
VERTEX
  8
0
 10
308.297931
 20
84.110115
 42
0.009836
  0
VERTEX
  8
0
 10
308.008176
 20
82.907870
 42
0.275176
  0
VERTEX
  8
0
 10
308.105628
 20
82.614024
 42
0.101713
  0
VERTEX
  8
0
 10
309.314906
 20
81.936365
 42
0.000982
  0
VERTEX
  8
0
 10
318.943240
 20
78.893639
 42
0.003580
  0
VERTEX
  8
0
 10
327.987171
 20
76.126103
 42
0.011824
  0
VERTEX
  8
0
 10
334.000000
 20
74.486865
 42
-0.000628
  0
VERTEX
  8
0
 10
336.763460
 20
73.799559
 42
-0.000527
  0
VERTEX
  8
0
 10
339.692187
 20
73.063958
 42
-0.000532
  0
VERTEX
  8
0
 10
342.366729
 20
72.386178
 42
-0.001465
  0
VERTEX
  8
0
 10
344.250000
 20
71.900910
 42
0.000000
  0
VERTEX
  8
0
 10
348.000000
 20
70.922912
 42
0.000000
  0
VERTEX
  8
0
 10
348.000000
 20
48.371069
 42
0.000000
  0
VERTEX
  8
0
 10
348.000000
 20
25.819226
 42
0.000000
  0
VERTEX
  8
0
 10
340.250000
 20
30.034450
 42
-0.007310
  0
VERTEX
  8
0
 10
329.675063
 20
35.988116
 42
-0.003650
  0
VERTEX
  8
0
 10
316.460395
 20
43.814247
 42
-0.003636
  0
VERTEX
  8
0
 10
303.001660
 20
52.052140
 42
-0.005698
  0
VERTEX
  8
0
 10
291.561995
 20
59.351156
 42
0.000000
  0
VERTEX
  8
0
 10
278.623990
 20
67.815159
 42
0.000000
  0
VERTEX
  8
0
 10
274.372036
 20
61.705354
 42
0.000000
  0
VERTEX
  8
0
 10
270.120083
 20
55.595548
 42
0.000000
  0
VERTEX
  8
0
 10
279.391011
 20
49.395898
 42
0.008341
  0
VERTEX
  8
0
 10
294.964865
 20
39.353230
 42
0.005927
  0
VERTEX
  8
0
 10
312.740610
 20
28.596071
 42
0.005659
  0
VERTEX
  8
0
 10
331.795996
 20
17.659529
 42
0.005521
  0
VERTEX
  8
0
 10
351.250000
 20
7.065262
 42
0.000000
  0
VERTEX
  8
0
 10
363.000000
 20
0.833677
 42
0.000000
  0
VERTEX
  8
0
 10
363.000000
 20
41.897786
 42
0.000000
  0
VERTEX
  8
0
 10
363.000000
 20
82.961896
 42
0.000000
  0
VERTEX
  8
0
 10
360.750000
 20
83.472738
 42
-0.005275
  0
VERTEX
  8
0
 10
350.228645
 20
85.978522
 42
-0.004105
  0
VERTEX
  8
0
 10
338.840993
 20
88.917411
 42
-0.004017
  0
VERTEX
  8
0
 10
328.471010
 20
91.774100
 42
-0.013264
  0
VERTEX
  8
0
 10
321.706705
 20
93.891545
 42
0.000000
  0
VERTEX
  8
0
 10
312.913411
 20
96.902452
 42
0.000000
  0
SEQEND
  0
POLYLINE
  8
0
 66
1
 70
1
  0
VERTEX
  8
0
 10
250.000000
 20
409.500000
 42
0.000000
  0
VERTEX
  8
0
 10
250.000000
 20
402.000000
 42
0.000000
  0
VERTEX
  8
0
 10
257.500000
 20
402.000000
 42
0.000000
  0
VERTEX
  8
0
 10
265.000000
 20
402.000000
 42
0.000000
  0
VERTEX
  8
0
 10
265.000000
 20
409.500000
 42
0.000000
  0
VERTEX
  8
0
 10
265.000000
 20
417.000000
 42
0.000000
  0
VERTEX
  8
0
 10
257.500000
 20
417.000000
 42
0.000000
  0
VERTEX
  8
0
 10
250.000000
 20
417.000000
 42
0.000000
  0
SEQEND
  0
POLYLINE
  8
0
 66
1
 70
1
  0
VERTEX
  8
0
 10
250.000000
 20
379.500000
 42
0.000000
  0
VERTEX
  8
0
 10
250.000000
 20
372.000000
 42
0.000000
  0
VERTEX
  8
0
 10
257.500000
 20
372.000000
 42
0.000000
  0
VERTEX
  8
0
 10
265.000000
 20
372.000000
 42
0.000000
  0
VERTEX
  8
0
 10
265.000000
 20
379.500000
 42
0.000000
  0
VERTEX
  8
0
 10
265.000000
 20
387.000000
 42
0.000000
  0
VERTEX
  8
0
 10
257.500000
 20
387.000000
 42
0.000000
  0
VERTEX
  8
0
 10
250.000000
 20
387.000000
 42
0.000000
  0
SEQEND
  0
POLYLINE
  8
0
 66
1
 70
1
  0
VERTEX
  8
0
 10
250.000000
 20
349.500000
 42
0.000000
  0
VERTEX
  8
0
 10
250.000000
 20
342.000000
 42
0.000000
  0
VERTEX
  8
0
 10
257.500000
 20
342.000000
 42
0.000000
  0
VERTEX
  8
0
 10
265.000000
 20
342.000000
 42
0.000000
  0
VERTEX
  8
0
 10
265.000000
 20
349.500000
 42
0.000000
  0
VERTEX
  8
0
 10
265.000000
 20
357.000000
 42
0.000000
  0
VERTEX
  8
0
 10
257.500000
 20
357.000000
 42
0.000000
  0
VERTEX
  8
0
 10
250.000000
 20
357.000000
 42
0.000000
  0
SEQEND
  0
POLYLINE
  8
0
 66
1
 70
1
  0
VERTEX
  8
0
 10
250.000000
 20
319.500000
 42
0.000000
  0
VERTEX
  8
0
 10
250.000000
 20
312.000000
 42
0.000000
  0
VERTEX
  8
0
 10
257.500000
 20
312.000000
 42
0.000000
  0
VERTEX
  8
0
 10
265.000000
 20
312.000000
 42
0.000000
  0
VERTEX
  8
0
 10
265.000000
 20
319.500000
 42
0.000000
  0
VERTEX
  8
0
 10
265.000000
 20
327.000000
 42
0.000000
  0
VERTEX
  8
0
 10
257.500000
 20
327.000000
 42
0.000000
  0
VERTEX
  8
0
 10
250.000000
 20
327.000000
 42
0.000000
  0
SEQEND
  0
POLYLINE
  8
0
 66
1
 70
1
  0
VERTEX
  8
0
 10
160.000000
 20
289.500000
 42
0.000000
  0
VERTEX
  8
0
 10
160.000000
 20
282.000000
 42
0.000000
  0
VERTEX
  8
0
 10
167.500000
 20
282.000000
 42
0.000000
  0
VERTEX
  8
0
 10
175.000000
 20
282.000000
 42
0.000000
  0
VERTEX
  8
0
 10
175.000000
 20
289.500000
 42
0.000000
  0
VERTEX
  8
0
 10
175.000000
 20
297.000000
 42
0.000000
  0
VERTEX
  8
0
 10
167.500000
 20
297.000000
 42
0.000000
  0
VERTEX
  8
0
 10
160.000000
 20
297.000000
 42
0.000000
  0
SEQEND
  0
POLYLINE
  8
0
 66
1
 70
1
  0
VERTEX
  8
0
 10
190.000000
 20
289.500000
 42
0.000000
  0
VERTEX
  8
0
 10
190.000000
 20
282.000000
 42
0.000000
  0
VERTEX
  8
0
 10
197.500000
 20
282.000000
 42
0.000000
  0
VERTEX
  8
0
 10
205.000000
 20
282.000000
 42
0.000000
  0
VERTEX
  8
0
 10
205.000000
 20
289.500000
 42
0.000000
  0
VERTEX
  8
0
 10
205.000000
 20
297.000000
 42
0.000000
  0
VERTEX
  8
0
 10
197.500000
 20
297.000000
 42
0.000000
  0
VERTEX
  8
0
 10
190.000000
 20
297.000000
 42
0.000000
  0
SEQEND
  0
POLYLINE
  8
0
 66
1
 70
1
  0
VERTEX
  8
0
 10
220.000000
 20
289.500000
 42
0.000000
  0
VERTEX
  8
0
 10
220.000000
 20
282.000000
 42
0.000000
  0
VERTEX
  8
0
 10
227.500000
 20
282.000000
 42
0.000000
  0
VERTEX
  8
0
 10
235.000000
 20
282.000000
 42
0.000000
  0
VERTEX
  8
0
 10
235.000000
 20
289.500000
 42
0.000000
  0
VERTEX
  8
0
 10
235.000000
 20
297.000000
 42
0.000000
  0
VERTEX
  8
0
 10
227.500000
 20
297.000000
 42
0.000000
  0
VERTEX
  8
0
 10
220.000000
 20
297.000000
 42
0.000000
  0
SEQEND
  0
POLYLINE
  8
0
 66
1
 70
1
  0
VERTEX
  8
0
 10
250.000000
 20
289.500000
 42
0.000000
  0
VERTEX
  8
0
 10
250.000000
 20
282.000000
 42
0.000000
  0
VERTEX
  8
0
 10
257.500000
 20
282.000000
 42
0.000000
  0
VERTEX
  8
0
 10
265.000000
 20
282.000000
 42
0.000000
  0
VERTEX
  8
0
 10
265.000000
 20
289.500000
 42
0.000000
  0
VERTEX
  8
0
 10
265.000000
 20
297.000000
 42
0.000000
  0
VERTEX
  8
0
 10
257.500000
 20
297.000000
 42
0.000000
  0
VERTEX
  8
0
 10
250.000000
 20
297.000000
 42
0.000000
  0
SEQEND
  0
POLYLINE
  8
0
 66
1
 70
1
  0
VERTEX
  8
0
 10
280.000000
 20
289.500000
 42
0.000000
  0
VERTEX
  8
0
 10
280.000000
 20
282.000000
 42
0.000000
  0
VERTEX
  8
0
 10
287.500000
 20
282.000000
 42
0.000000
  0
VERTEX
  8
0
 10
295.000000
 20
282.000000
 42
0.000000
  0
VERTEX
  8
0
 10
295.000000
 20
289.500000
 42
0.000000
  0
VERTEX
  8
0
 10
295.000000
 20
297.000000
 42
0.000000
  0
VERTEX
  8
0
 10
287.500000
 20
297.000000
 42
0.000000
  0
VERTEX
  8
0
 10
280.000000
 20
297.000000
 42
0.000000
  0
SEQEND
  0
POLYLINE
  8
0
 66
1
 70
1
  0
VERTEX
  8
0
 10
310.000000
 20
289.500000
 42
0.000000
  0
VERTEX
  8
0
 10
310.000000
 20
282.000000
 42
0.000000
  0
VERTEX
  8
0
 10
317.500000
 20
282.000000
 42
0.000000
  0
VERTEX
  8
0
 10
325.000000
 20
282.000000
 42
0.000000
  0
VERTEX
  8
0
 10
325.000000
 20
289.500000
 42
0.000000
  0
VERTEX
  8
0
 10
325.000000
 20
297.000000
 42
0.000000
  0
VERTEX
  8
0
 10
317.500000
 20
297.000000
 42
0.000000
  0
VERTEX
  8
0
 10
310.000000
 20
297.000000
 42
0.000000
  0
SEQEND
  0
POLYLINE
  8
0
 66
1
 70
1
  0
VERTEX
  8
0
 10
340.000000
 20
289.500000
 42
0.000000
  0
VERTEX
  8
0
 10
340.000000
 20
282.000000
 42
0.000000
  0
VERTEX
  8
0
 10
347.500000
 20
282.000000
 42
0.000000
  0
VERTEX
  8
0
 10
355.000000
 20
282.000000
 42
0.000000
  0
VERTEX
  8
0
 10
355.000000
 20
289.500000
 42
0.000000
  0
VERTEX
  8
0
 10
355.000000
 20
297.000000
 42
0.000000
  0
VERTEX
  8
0
 10
347.500000
 20
297.000000
 42
0.000000
  0
VERTEX
  8
0
 10
340.000000
 20
297.000000
 42
0.000000
  0
SEQEND
  0
POLYLINE
  8
0
 66
1
 70
1
  0
VERTEX
  8
0
 10
250.000000
 20
259.500000
 42
0.000000
  0
VERTEX
  8
0
 10
250.000000
 20
252.000000
 42
0.000000
  0
VERTEX
  8
0
 10
257.500000
 20
252.000000
 42
0.000000
  0
VERTEX
  8
0
 10
265.000000
 20
252.000000
 42
0.000000
  0
VERTEX
  8
0
 10
265.000000
 20
259.500000
 42
0.000000
  0
VERTEX
  8
0
 10
265.000000
 20
267.000000
 42
0.000000
  0
VERTEX
  8
0
 10
257.500000
 20
267.000000
 42
0.000000
  0
VERTEX
  8
0
 10
250.000000
 20
267.000000
 42
0.000000
  0
SEQEND
  0
POLYLINE
  8
0
 66
1
 70
1
  0
VERTEX
  8
0
 10
422.007044
 20
142.863677
 42
0.031290
  0
VERTEX
  8
0
 10
420.029530
 20
137.912128
 42
0.269540
  0
VERTEX
  8
0
 10
420.504712
 20
135.673510
 42
0.125289
  0
VERTEX
  8
0
 10
423.024870
 20
134.001450
 42
0.005465
  0
VERTEX
  8
0
 10
433.113012
 20
130.595765
 42
0.016534
  0
VERTEX
  8
0
 10
441.796339
 20
128.083946
 42
0.014773
  0
VERTEX
  8
0
 10
450.957882
 20
126.045109
 42
0.014762
  0
VERTEX
  8
0
 10
460.231217
 20
124.549446
 42
0.016439
  0
VERTEX
  8
0
 10
469.250000
 20
123.667210
 42
0.000000
  0
VERTEX
  8
0
 10
476.000000
 20
123.230306
 42
0.000000
  0
VERTEX
  8
0
 10
476.000000
 20
130.498521
 42
0.020694
  0
VERTEX
  8
0
 10
475.784399
 20
135.705490
 42
0.177624
  0
VERTEX
  8
0
 10
474.819841
 20
137.784765
 42
0.176568
  0
VERTEX
  8
0
 10
472.736530
 20
138.753702
 42
0.020400
  0
VERTEX
  8
0
 10
467.500000
 20
138.989540
 42
-0.035150
  0
VERTEX
  8
0
 10
461.471320
 20
139.439404
 42
-0.013567
  0
VERTEX
  8
0
 10
453.204528
 20
140.874510
 42
-0.013627
  0
VERTEX
  8
0
 10
444.561151
 20
142.864327
 42
-0.020344
  0
VERTEX
  8
0
 10
437.140997
 20
145.112616
 42
0.000486
  0
VERTEX
  8
0
 10
433.704830
 20
146.304640
 42
0.000616
  0
VERTEX
  8
0
 10
430.527549
 20
147.399019
 42
0.000483
  0
VERTEX
  8
0
 10
427.860550
 20
148.311084
 42
0.005041
  0
VERTEX
  8
0
 10
426.761298
 20
148.673494
 42
0.196904
  0
VERTEX
  8
0
 10
425.752134
 20
148.592132
 42
0.104302
  0
VERTEX
  8
0
 10
424.757793
 20
147.792747
 42
0.049941
  0
VERTEX
  8
0
 10
423.609538
 20
146.062904
 42
0.010922
  0
SEQEND
  0
ENDSEC
  0
EOF
