  0
SECTION
  2
HEADER
  9
$ACADVER
  1
AC1006
  9
$EXTMIN
 10
0.000000
 20
0.000000
 30
0.000000
  9
$EXTMAX
 10
512.000000
 20
512.000000
 30
0.000000
  0
ENDSEC
  0
SECTION
  2
ENTITIES
  0
POLYLINE
  8
0
 66
1
 70
1
  0
VERTEX
  8
0
 10
251.000000
 20
510.944378
 42
0.038220
  0
VERTEX
  8
0
 10
206.265725
 20
503.875431
 42
0.030853
  0
VERTEX
  8
0
 10
159.705549
 20
489.736834
 42
0.028987
  0
VERTEX
  8
0
 10
112.305727
 20
468.883614
 42
0.024861
  0
VERTEX
  8
0
 10
65.055759
 20
441.696369
 42
0.006107
  0
VERTEX
  8
0
 10
56.995344
 20
436.368615
 42
0.047085
  0
VERTEX
  8
0
 10
53.510465
 20
433.490260
 42
0.133201
  0
VERTEX
  8
0
 10
52.275881
 20
431.341417
 42
0.204770
  0
VERTEX
  8
0
 10
52.586227
 20
429.250000
 42
0.094285
  0
VERTEX
  8
0
 10
53.652408
 20
428.080661
 42
0.000417
  0
VERTEX
  8
0
 10
67.223204
 20
417.920368
 42
0.001990
  0
VERTEX
  8
0
 10
82.716438
 20
406.436745
 42
0.001252
  0
VERTEX
  8
0
 10
100.903259
 20
393.138486
 42
0.000000
  0
VERTEX
  8
0
 10
148.144293
 20
358.776972
 42
0.000000
  0
VERTEX
  8
0
 10
156.822146
 20
362.786365
 42
-0.033837
  0
VERTEX
  8
0
 10
174.455554
 20
369.527746
 42
-0.033060
  0
VERTEX
  8
0
 10
192.973853
 20
373.891402
 42
-0.033181
  0
VERTEX
  8
0
 10
211.837287
 20
375.764736
 42
-0.034695
  0
VERTEX
  8
0
 10
230.500000
 20
375.079245
 42
-0.019497
  0
VERTEX
  8
0
 10
244.936110
 20
372.970264
 42
-0.026377
  0
VERTEX
  8
0
 10
257.752517
 20
369.877386
 42
-0.026773
  0
VERTEX
  8
0
 10
270.021990
 20
365.494812
 42
-0.021065
  0
VERTEX
  8
0
 10
282.802200
 20
359.498021
 42
-0.053027
  0
VERTEX
  8
0
 10
308.787562
 20
342.219374
 42
-0.054064
  0
VERTEX
  8
0
 10
330.370015
 20
319.962424
 42
-0.054263
  0
VERTEX
  8
0
 10
346.614844
 20
293.677487
 42
-0.054182
  0
VERTEX
  8
0
 10
356.834074
 20
264.500000
 42
-0.041011
  0
VERTEX
  8
0
 10
360.230936
 20
241.504611
 42
-0.040049
  0
VERTEX
  8
0
 10
359.870771
 20
218.076891
 42
-0.040287
  0
VERTEX
  8
0
 10
355.793004
 20
195.141910
 42
-0.042660
  0
VERTEX
  8
0
 10
348.134370
 20
173.611685
 42
0.032051
  0
VERTEX
  8
0
 10
345.987853
 20
167.959558
 42
0.063366
  0
VERTEX
  8
0
 10
345.166392
 20
163.239342
 42
0.048970
  0
VERTEX
  8
0
 10
345.454255
 20
157.721313
 42
0.012764
  0
VERTEX
  8
0
 10
347.006383
 20
148.968677
 42
0.067221
  0
VERTEX
  8
0
 10
360.111060
 20
111.357980
 42
0.054680
  0
VERTEX
  8
0
 10
383.471736
 20
75.605941
 42
0.050156
  0
VERTEX
  8
0
 10
416.236213
 20
43.027649
 42
0.040248
  0
VERTEX
  8
0
 10
457.246548
 20
14.858372
 42
0.006477
  0
VERTEX
  8
0
 10
465.177439
 20
10.438170
 42
0.041786
  0
VERTEX
  8
0
 10
469.374930
 20
8.603899
 42
0.103590
  0
VERTEX
  8
0
 10
471.954645
 20
8.287557
 42
0.212547
  0
VERTEX
  8
0
 10
473.702703
 20
9.250000
 42
0.059941
  0
VERTEX
  8
0
 10
474.948343
 20
11.381293
 42
0.008682
  0
VERTEX
  8
0
 10
476.872611
 20
16.038642
 42
0.007283
  0
VERTEX
  8
0
 10
478.662909
 20
20.796732
 42
0.086543
  0
VERTEX
  8
0
 10
479.000000
 20
22.729670
 42
0.143352
  0
VERTEX
  8
0
 10
478.746992
 20
23.594008
 42
0.011685
  0
VERTEX
  8
0
 10
477.415296
 20
25.570533
 42
0.014947
  0
VERTEX
  8
0
 10
475.671628
 20
27.882614
 42
0.010932
  0
VERTEX
  8
0
 10
473.605263
 20
30.346317
 42
-0.028596
  0
VERTEX
  8
0
 10
462.761927
 20
44.243112
 42
-0.020209
  0
VERTEX
  8
0
 10
452.158589
 20
60.968921
 42
-0.020392
  0
VERTEX
  8
0
 10
443.113256
 20
78.182555
 42
-0.033214
  0
VERTEX
  8
0
 10
437.045441
 20
93.523942
 42
-0.013276
  0
VERTEX
  8
0
 10
433.620371
 20
105.271799
 42
-0.027895
  0
VERTEX
  8
0
 10
431.719398
 20
114.584535
 42
-0.026654
  0
VERTEX
  8
0
 10
430.818966
 20
124.313443
 42
-0.011104
  0
VERTEX
  8
0
 10
430.597592
 20
137.500000
 42
-0.016771
  0
VERTEX
  8
0
 10
431.177340
 20
152.372482
 42
-0.038527
  0
VERTEX
  8
0
 10
432.845298
 20
163.444812
 42
-0.032981
  0
VERTEX
  8
0
 10
436.360611
 20
175.119418
 42
-0.009525
  0
VERTEX
  8
0
 10
443.306592
 20
192.638958
 42
0.028810
  0
VERTEX
  8
0
 10
460.421649
 20
241.191767
 42
0.039030
  0
VERTEX
  8
0
 10
469.807550
 20
286.726743
 42
0.042410
  0
VERTEX
  8
0
 10
471.557777
 20
329.931688
 42
0.046379
  0
VERTEX
  8
0
 10
465.828137
 20
371.500000
 42
0.016688
  0
VERTEX
  8
0
 10
463.228773
 20
381.153122
 42
0.014621
  0
VERTEX
  8
0
 10
459.886148
 20
391.052168
 42
0.013929
  0
VERTEX
  8
0
 10
455.793467
 20
401.217813
 42
0.011977
  0
VERTEX
  8
0
 10
450.941366
 20
411.671672
 42
0.083826
  0
VERTEX
  8
0
 10
418.274891
 20
456.875307
 42
0.079396
  0
VERTEX
  8
0
 10
372.012869
 20
489.854014
 42
0.074379
  0
VERTEX
  8
0
 10
314.988761
 20
508.269350
 42
0.061127
  0
SEQEND
  0
POLYLINE
  8
0
 66
1
 70
1
  0
VERTEX
  8
0
 10
295.210781
 20
502.935081
 42
-0.052287
  0
VERTEX
  8
0
 10
344.466109
 20
492.559716
 42
-0.066152
  0
VERTEX
  8
0
 10
386.444742
 20
472.581281
 42
-0.069599
  0
VERTEX
  8
0
 10
420.123993
 20
443.322208
 42
-0.067173
  0
VERTEX
  8
0
 10
444.959357
 20
405.612713
 42
-0.050731
  0
VERTEX
  8
0
 10
457.565509
 20
370.740295
 42
-0.046275
  0
VERTEX
  8
0
 10
463.394830
 20
332.942672
 42
-0.043287
  0
VERTEX
  8
0
 10
462.340394
 20
292.371343
 42
-0.034371
  0
VERTEX
  8
0
 10
454.437124
 20
249.237760
 42
-0.010295
  0
VERTEX
  8
0
 10
450.980394
 20
236.772960
 42
-0.010391
  0
VERTEX
  8
0
 10
447.023384
 20
224.499869
 42
-0.009401
  0
VERTEX
  8
0
 10
442.202296
 20
211.352620
 42
-0.005946
  0
VERTEX
  8
0
 10
436.111170
 20
196.197869
 42
0.013628
  0
VERTEX
  8
0
 10
428.551771
 20
176.521828
 42
0.032702
  0
VERTEX
  8
0
 10
424.324158
 20
161.490513
 42
0.037762
  0
VERTEX
  8
0
 10
422.434150
 20
147.396179
 42
0.024735
  0
VERTEX
  8
0
 10
422.297186
 20
131.000000
 42
0.013444
  0
VERTEX
  8
0
 10
423.047506
 20
119.981966
 42
0.021305
  0
VERTEX
  8
0
 10
424.343997
 20
110.611469
 42
0.021511
  0
VERTEX
  8
0
 10
426.422559
 20
101.450057
 42
0.014061
  0
VERTEX
  8
0
 10
429.565240
 20
91.079404
 42
0.022984
  0
VERTEX
  8
0
 10
435.433405
 20
75.874131
 42
0.022135
  0
VERTEX
  8
0
 10
442.738921
 20
61.074599
 42
0.021478
  0
VERTEX
  8
0
 10
451.553110
 20
46.560270
 42
0.018918
  0
VERTEX
  8
0
 10
461.940849
 20
32.208947
 42
-0.006315
  0
VERTEX
  8
0
 10
466.992596
 20
25.587580
 42
-0.041489
  0
VERTEX
  8
0
 10
469.194052
 20
22.046191
 42
-0.113604
  0
VERTEX
  8
0
 10
469.737295
 20
19.891820
 42
-0.265485
  0
VERTEX
  8
0
 10
468.970089
 20
18.481514
 42
-0.283751
  0
VERTEX
  8
0
 10
466.146426
 20
18.479797
 42
-0.003921
  0
VERTEX
  8
0
 10
450.982382
 20
27.991137
 42
-0.011224
  0
VERTEX
  8
0
 10
435.879155
 20
38.114326
 42
-0.017920
  0
VERTEX
  8
0
 10
423.500000
 20
47.501077
 42
-0.036094
  0
VERTEX
  8
0
 10
397.872883
 20
71.701129
 42
-0.041778
  0
VERTEX
  8
0
 10
377.339377
 20
98.247646
 42
-0.044608
  0
VERTEX
  8
0
 10
362.635507
 20
126.102203
 42
-0.055351
  0
VERTEX
  8
0
 10
354.373477
 20
154.203061
 42
0.000000
  0
VERTEX
  8
0
 10
352.661078
 20
163.867432
 42
0.000000
  0
VERTEX
  8
0
 10
356.311785
 20
171.853890
 42
0.051480
  0
VERTEX
  8
0
 10
364.871550
 20
197.183737
 42
0.046184
  0
VERTEX
  8
0
 10
368.485986
 20
224.677939
 42
0.045185
  0
VERTEX
  8
0
 10
367.016507
 20
252.966398
 42
0.044636
  0
VERTEX
  8
0
 10
360.492740
 20
280.651315
 42
0.059647
  0
VERTEX
  8
0
 10
345.884562
 20
311.698248
 42
0.056479
  0
VERTEX
  8
0
 10
324.133037
 20
339.053556
 42
0.056302
  0
VERTEX
  8
0
 10
296.739320
 20
360.921714
 42
0.058519
  0
VERTEX
  8
0
 10
265.500000
 20
375.793334
 42
0.042311
  0
VERTEX
  8
0
 10
240.960328
 20
381.872328
 42
0.041693
  0
VERTEX
  8
0
 10
215.625269
 20
383.774058
 42
0.041524
  0
VERTEX
  8
0
 10
190.227068
 20
381.445761
 42
0.041230
  0
VERTEX
  8
0
 10
165.500000
 20
374.951718
 42
0.004840
  0
VERTEX
  8
0
 10
161.795090
 20
373.603844
 42
0.004795
  0
VERTEX
  8
0
 10
158.105356
 20
372.180393
 42
0.004711
  0
VERTEX
  8
0
 10
154.901156
 20
370.873742
 42
0.018506
  0
VERTEX
  8
0
 10
152.965042
 20
369.977266
 42
0.000000
  0
VERTEX
  8
0
 10
149.430083
 20
368.178764
 42
0.000000
  0
VERTEX
  8
0
 10
107.003513
 20
398.973969
 42
-0.000958
  0
VERTEX
  8
0
 10
90.716255
 20
410.843723
 42
-0.001563
  0
VERTEX
  8
0
 10
76.954169
 20
420.979817
 42
-0.000169
  0
VERTEX
  8
0
 10
64.700342
 20
430.070705
 42
-0.153801
  0
VERTEX
  8
0
 10
64.285612
 20
430.643164
 42
-0.355354
  0
VERTEX
  8
0
 10
65.208730
 20
433.087309
 42
-0.001807
  0
VERTEX
  8
0
 10
89.314456
 20
446.991492
 42
-0.007893
  0
VERTEX
  8
0
 10
113.087832
 20
460.096092
 42
-0.014288
  0
VERTEX
  8
0
 10
133.000000
 20
469.947357
 42
-0.027155
  0
VERTEX
  8
0
 10
175.292440
 20
486.670847
 42
-0.030417
  0
VERTEX
  8
0
 10
217.590126
 20
497.988350
 42
-0.032420
  0
VERTEX
  8
0
 10
258.147997
 20
503.530672
 42
-0.043559
  0
SEQEND
  0
POLYLINE
  8
0
 66
1
 70
1
  0
VERTEX
  8
0
 10
199.500000
 20
358.527735
 42
0.036908
  0
VERTEX
  8
0
 10
179.746505
 20
354.257950
 42
0.040620
  0
VERTEX
  8
0
 10
161.484848
 20
347.219952
 42
0.040855
  0
VERTEX
  8
0
 10
144.692450
 20
337.364881
 42
0.038177
  0
VERTEX
  8
0
 10
129.314212
 20
324.706339
 42
0.010528
  0
VERTEX
  8
0
 10
124.107259
 20
319.492390
 42
0.061696
  0
VERTEX
  8
0
 10
121.797898
 20
316.393493
 42
0.150056
  0
VERTEX
  8
0
 10
121.298864
 20
314.154610
 42
0.178567
  0
VERTEX
  8
0
 10
122.200000
 20
312.200000
 42
0.165394
  0
VERTEX
  8
0
 10
123.992273
 20
311.317419
 42
0.154169
  0
VERTEX
  8
0
 10
126.010096
 20
311.676625
 42
0.061068
  0
VERTEX
  8
0
 10
128.860862
 20
313.644084
 42
0.009130
  0
VERTEX
  8
0
 10
133.992959
 20
318.371061
 42
-0.045525
  0
VERTEX
  8
0
 10
152.159881
 20
332.811345
 42
-0.050438
  0
VERTEX
  8
0
 10
172.049210
 20
343.161502
 42
-0.050247
  0
VERTEX
  8
0
 10
193.676150
 20
349.348209
 42
-0.044583
  0
VERTEX
  8
0
 10
217.000000
 20
351.432055
 42
-0.015253
  0
VERTEX
  8
0
 10
228.115183
 20
351.092885
 42
-0.024733
  0
VERTEX
  8
0
 10
237.508243
 20
350.051031
 42
-0.025571
  0
VERTEX
  8
0
 10
246.526816
 20
348.118853
 42
-0.017843
  0
VERTEX
  8
0
 10
256.475159
 20
345.064711
 42
-0.085574
  0
VERTEX
  8
0
 10
290.994562
 20
326.014372
 42
-0.081944
  0
VERTEX
  8
0
 10
317.746602
 20
296.256723
 42
-0.082247
  0
VERTEX
  8
0
 10
333.449890
 20
259.587603
 42
-0.087156
  0
VERTEX
  8
0
 10
336.053285
 20
220.566244
 42
-0.030420
  0
VERTEX
  8
0
 10
333.114297
 20
203.244985
 42
-0.037846
  0
VERTEX
  8
0
 10
328.217973
 20
187.667967
 42
-0.037411
  0
VERTEX
  8
0
 10
320.975417
 20
172.863968
 42
-0.028653
  0
VERTEX
  8
0
 10
310.992051
 20
157.858705
 42
0.024767
  0
VERTEX
  8
0
 10
303.540954
 20
146.845938
 42
0.043068
  0
VERTEX
  8
0
 10
298.653044
 20
136.961242
 42
0.048750
  0
VERTEX
  8
0
 10
295.921455
 20
127.306683
 42
0.045000
  0
VERTEX
  8
0
 10
295.011869
 20
117.039901
 42
0.027311
  0
VERTEX
  8
0
 10
295.377376
 20
110.540937
 42
0.032331
  0
VERTEX
  8
0
 10
296.451052
 20
104.483587
 42
0.031926
  0
VERTEX
  8
0
 10
298.311383
 20
98.551677
 42
0.025495
  0
VERTEX
  8
0
 10
301.036732
 20
92.427632
 42
0.042085
  0
VERTEX
  8
0
 10
305.275896
 20
85.572098
 42
0.023985
  0
VERTEX
  8
0
 10
311.450584
 20
78.027699
 42
0.023346
  0
VERTEX
  8
0
 10
318.647830
 20
70.760059
 42
0.028649
  0
VERTEX
  8
0
 10
326.036641
 20
64.707630
 42
-0.104661
  0
VERTEX
  8
0
 10
326.898023
 20
63.751311
 42
-0.530948
  0
VERTEX
  8
0
 10
326.640055
 20
63.219373
 42
-0.044712
  0
VERTEX
  8
0
 10
324.583823
 20
63.108861
 42
-0.001744
  0
VERTEX
  8
0
 10
317.000000
 20
63.405983
 42
-0.042966
  0
VERTEX
  8
0
 10
300.447052
 20
65.545226
 42
-0.058811
  0
VERTEX
  8
0
 10
286.253197
 20
70.436943
 42
-0.065080
  0
VERTEX
  8
0
 10
274.710927
 20
77.988389
 42
-0.072866
  0
VERTEX
  8
0
 10
265.997716
 20
88.003560
 42
-0.042658
  0
VERTEX
  8
0
 10
262.943983
 20
93.794759
 42
-0.025913
  0
VERTEX
  8
0
 10
260.300874
 20
101.076843
 42
-0.025231
  0
VERTEX
  8
0
 10
258.332980
 20
108.917457
 42
-0.030564
  0
VERTEX
  8
0
 10
257.317511
 20
116.430496
 42
0.012030
  0
VERTEX
  8
0
 10
256.740995
 20
122.337184
 42
0.057359
  0
VERTEX
  8
0
 10
255.949614
 20
125.628790
 42
0.123653
  0
VERTEX
  8
0
 10
254.776334
 20
127.356363
 42
0.184074
  0
VERTEX
  8
0
 10
253.087261
 20
128.000000
 42
0.148099
  0
VERTEX
  8
0
 10
250.925571
 20
127.345352
 42
0.167054
  0
VERTEX
  8
0
 10
249.614361
 20
125.626339
 42
0.080731
  0
VERTEX
  8
0
 10
249.088627
 20
122.357387
 42
0.017203
  0
VERTEX
  8
0
 10
249.296862
 20
116.583996
 42
0.066710
  0
VERTEX
  8
0
 10
253.676383
 20
95.379849
 42
0.089322
  0
VERTEX
  8
0
 10
263.330903
 20
78.323441
 42
0.089009
  0
VERTEX
  8
0
 10
278.359336
 20
65.665075
 42
0.065771
  0
VERTEX
  8
0
 10
298.500000
 20
57.360253
 42
0.050681
  0
VERTEX
  8
0
 10
307.628903
 20
55.901351
 42
0.011580
  0
VERTEX
  8
0
 10
323.278263
 20
55.368501
 42
0.006474
  0
VERTEX
  8
0
 10
339.367118
 20
55.401825
 42
0.171112
  0
VERTEX
  8
0
 10
343.346900
 20
56.872445
 42
0.156602
  0
VERTEX
  8
0
 10
344.703215
 20
59.001513
 42
0.221295
  0
VERTEX
  8
0
 10
344.308781
 20
61.181028
 42
0.081311
  0
VERTEX
  8
0
 10
341.623988
 20
63.911998
 42
0.012017
  0
VERTEX
  8
0
 10
335.250000
 20
68.344421
 42
-0.030401
  0
VERTEX
  8
0
 10
324.265020
 20
76.598233
 42
-0.041089
  0
VERTEX
  8
0
 10
315.500768
 20
85.395792
 42
-0.045496
  0
VERTEX
  8
0
 10
309.010351
 20
94.673433
 42
-0.056029
  0
VERTEX
  8
0
 10
304.826261
 20
104.364493
 42
-0.018121
  0
VERTEX
  8
0
 10
303.794839
 20
108.251221
 42
-0.030561
  0
VERTEX
  8
0
 10
303.250894
 20
111.578445
 42
-0.027890
  0
VERTEX
  8
0
 10
303.089346
 20
115.151474
 42
-0.012408
  0
VERTEX
  8
0
 10
303.256247
 20
119.864493
 42
-0.030845
  0
VERTEX
  8
0
 10
304.199320
 20
127.563644
 42
-0.044297
  0
VERTEX
  8
0
 10
306.044861
 20
134.178279
 42
-0.042150
  0
VERTEX
  8
0
 10
309.106857
 20
140.600922
 42
-0.024682
  0
VERTEX
  8
0
 10
313.768436
 20
147.739655
 42
0.005234
  0
VERTEX
  8
0
 10
320.141628
 20
156.716741
 42
0.011061
  0
VERTEX
  8
0
 10
324.853868
 20
163.834743
 42
0.013542
  0
VERTEX
  8
0
 10
328.580774
 20
170.115036
 42
0.014713
  0
VERTEX
  8
0
 10
331.855212
 20
176.418980
 42
0.043488
  0
VERTEX
  8
0
 10
339.684695
 20
197.049110
 42
0.042686
  0
VERTEX
  8
0
 10
343.888686
 20
218.851519
 42
0.042868
  0
VERTEX
  8
0
 10
344.319438
 20
240.960134
 42
0.044708
  0
VERTEX
  8
0
 10
340.941405
 20
262.500000
 42
0.034914
  0
VERTEX
  8
0
 10
335.405551
 20
279.505320
 42
0.034235
  0
VERTEX
  8
0
 10
327.527529
 20
295.691519
 42
0.034458
  0
VERTEX
  8
0
 10
317.572327
 20
310.550415
 42
0.036498
  0
VERTEX
  8
0
 10
305.844341
 20
323.599023
 42
0.054877
  0
VERTEX
  8
0
 10
282.657908
 20
341.447490
 42
0.057325
  0
VERTEX
  8
0
 10
256.471671
 20
353.516436
 42
0.057638
  0
VERTEX
  8
0
 10
228.361691
 20
359.278990
 42
0.056597
  0
SEQEND
  0
POLYLINE
  8
0
 66
1
 70
1
  0
VERTEX
  8
0
 10
78.654988
 20
353.171259
 42
0.035766
  0
VERTEX
  8
0
 10
78.021624
 20
352.361989
 42
0.032330
  0
VERTEX
  8
0
 10
77.486153
 20
351.443721
 42
0.033836
  0
VERTEX
  8
0
 10
77.115507
 20
350.556296
 42
0.082183
  0
VERTEX
  8
0
 10
77.000000
 20
349.858297
 42
-0.048052
  0
VERTEX
  8
0
 10
76.885279
 20
348.667338
 42
-0.000031
  0
VERTEX
  8
0
 10
70.523528
 20
315.962708
 42
-0.000386
  0
VERTEX
  8
0
 10
63.405565
 20
279.532677
 42
-0.000236
  0
VERTEX
  8
0
 10
54.952434
 20
236.553284
 42
0.000480
  0
VERTEX
  8
0
 10
46.520699
 20
193.571999
 42
0.000785
  0
VERTEX
  8
0
 10
39.468751
 20
157.136563
 42
0.000066
  0
VERTEX
  8
0
 10
33.199173
 20
124.445343
 42
0.096306
  0
VERTEX
  8
0
 10
33.202434
 20
123.223430
 42
0.077040
  0
VERTEX
  8
0
 10
33.441151
 20
122.566331
 42
0.040202
  0
VERTEX
  8
0
 10
33.921651
 20
121.837077
 42
0.038775
  0
VERTEX
  8
0
 10
34.547832
 20
121.151941
 42
0.047739
  0
VERTEX
  8
0
 10
35.232972
 20
120.623039
 42
0.163137
  0
VERTEX
  8
0
 10
36.561290
 20
120.299978
 42
0.056851
  0
VERTEX
  8
0
 10
38.516639
 20
120.693140
 42
0.030697
  0
VERTEX
  8
0
 10
41.471465
 20
121.850709
 42
0.006572
  0
VERTEX
  8
0
 10
46.438811
 20
124.237351
 42
0.000000
  0
VERTEX
  8
0
 10
55.911680
 20
128.942989
 42
0.000000
  0
VERTEX
  8
0
 10
58.803465
 20
138.221494
 42
0.001936
  0
VERTEX
  8
0
 10
60.444030
 20
143.558034
 42
0.000348
  0
VERTEX
  8
0
 10
63.454836
 20
153.513501
 42
0.000376
  0
VERTEX
  8
0
 10
66.964617
 20
165.179767
 42
0.000340
  0
VERTEX
  8
0
 10
70.577115
 20
177.250000
 42
0.000000
  0
VERTEX
  8
0
 10
79.458981
 20
207.000000
 42
0.000000
  0
VERTEX
  8
0
 10
82.479490
 20
206.932436
 42
-0.025947
  0
VERTEX
  8
0
 10
84.523551
 20
206.780392
 42
-0.001411
  0
VERTEX
  8
0
 10
90.928350
 20
205.949878
 42
-0.002195
  0
VERTEX
  8
0
 10
98.544275
 20
204.906412
 42
-0.001600
  0
VERTEX
  8
0
 10
107.000000
 20
203.682436
 42
0.000000
  0
VERTEX
  8
0
 10
128.500000
 20
200.500000
 42
0.000000
  0
VERTEX
  8
0
 10
128.789098
 20
192.333202
 42
0.000000
  0
VERTEX
  8
0
 10
129.078196
 20
184.166404
 42
0.000000
  0
VERTEX
  8
0
 10
111.622166
 20
183.833202
 42
0.000000
  0
VERTEX
  8
0
 10
94.166136
 20
183.500000
 42
0.000000
  0
VERTEX
  8
0
 10
89.909841
 20
180.500000
 42
0.035294
  0
VERTEX
  8
0
 10
88.110233
 20
179.031207
 42
0.022293
  0
VERTEX
  8
0
 10
86.220343
 20
177.086610
 42
0.022362
  0
VERTEX
  8
0
 10
84.525400
 20
174.998479
 42
0.037861
  0
VERTEX
  8
0
 10
83.326773
 20
173.092716
 42
0.000000
  0
VERTEX
  8
0
 10
81.000000
 20
168.685433
 42
0.000000
  0
VERTEX
  8
0
 10
81.000000
 20
85.542716
 42
0.000648
  0
VERTEX
  8
0
 10
81.053613
 20
44.175193
 42
0.002909
  0
VERTEX
  8
0
 10
81.257217
 20
19.964183
 42
0.000990
  0
VERTEX
  8
0
 10
81.536033
 20
2.762613
 42
0.194190
  0
VERTEX
  8
0
 10
82.200000
 20
1.200000
 42
0.162099
  0
VERTEX
  8
0
 10
83.313558
 20
0.642735
 42
0.015176
  0
VERTEX
  8
0
 10
86.401088
 20
0.294710
 42
0.014869
  0
VERTEX
  8
0
 10
90.740447
 20
0.068163
 42
0.005606
  0
VERTEX
  8
0
 10
96.819831
 20
-0.000000
 42
0.000000
  0
VERTEX
  8
0
 10
110.239661
 20
-0.000000
 42
0.000000
  0
VERTEX
  8
0
 10
122.369831
 20
7.147511
 42
0.014274
  0
VERTEX
  8
0
 10
142.857121
 20
20.020931
 42
0.014978
  0
VERTEX
  8
0
 10
162.243070
 20
33.846492
 42
0.015163
  0
VERTEX
  8
0
 10
180.538862
 20
48.635270
 42
0.015520
  0
VERTEX
  8
0
 10
197.759076
 20
64.395333
 42
0.018870
  0
VERTEX
  8
0
 10
216.766193
 20
84.358546
 42
0.024905
  0
VERTEX
  8
0
 10
232.430234
 20
103.995148
 42
0.026534
  0
VERTEX
  8
0
 10
245.256735
 20
123.985188
 42
0.027455
  0
VERTEX
  8
0
 10
255.734735
 20
145.000000
 42
0.013703
  0
VERTEX
  8
0
 10
259.154567
 20
153.556499
 42
0.012066
  0
VERTEX
  8
0
 10
262.258100
 20
162.656061
 42
0.006555
  0
VERTEX
  8
0
 10
264.773520
 20
171.040967
 42
0.162598
  0
VERTEX
  8
0
 10
264.668647
 20
173.421109
 42
0.142561
  0
VERTEX
  8
0
 10
264.131357
 20
174.128437
 42
0.008036
  0
VERTEX
  8
0
 10
261.870925
 20
175.748641
 42
0.011813
  0
VERTEX
  8
0
 10
259.067536
 20
177.594139
 42
0.008348
  0
VERTEX
  8
0
 10
255.837551
 20
179.538526
 42
-0.032498
  0
VERTEX
  8
0
 10
219.682727
 20
203.754079
 42
-0.022807
  0
VERTEX
  8
0
 10
182.222322
 20
235.353260
 42
-0.021496
  0
VERTEX
  8
0
 10
145.286454
 20
272.580012
 42
-0.019908
  0
VERTEX
  8
0
 10
110.680542
 20
313.775921
 42
-0.007521
  0
VERTEX
  8
0
 10
102.736784
 20
324.360413
 42
-0.007087
  0
VERTEX
  8
0
 10
94.952934
 20
335.388707
 42
-0.004540
  0
VERTEX
  8
0
 10
88.242409
 20
345.381640
 42
-0.071544
  0
VERTEX
  8
0
 10
86.501444
 20
349.085101
 42
0.052203
  0
VERTEX
  8
0
 10
85.599430
 20
351.213204
 42
0.049215
  0
VERTEX
  8
0
 10
84.261269
 20
353.154302
 42
0.053391
  0
VERTEX
  8
0
 10
82.785903
 20
354.562761
 42
0.165363
  0
VERTEX
  8
0
 10
81.500000
 20
355.000000
 42
0.107581
  0
VERTEX
  8
0
 10
80.929379
 20
354.875787
 42
0.035669
  0
VERTEX
  8
0
 10
80.173392
 20
354.462807
 42
0.033597
  0
VERTEX
  8
0
 10
79.376093
 20
353.871093
 42
0.032413
  0
SEQEND
  0
POLYLINE
  8
0
 66
1
 70
1
  0
VERTEX
  8
0
 10
104.343513
 20
309.252436
 42
0.015896
  0
VERTEX
  8
0
 10
126.844347
 20
281.496417
 42
0.013737
  0
VERTEX
  8
0
 10
152.153548
 20
253.804501
 42
0.013880
  0
VERTEX
  8
0
 10
178.608977
 20
227.888737
 42
0.017496
  0
VERTEX
  8
0
 10
204.549967
 20
205.485587
 42
0.008356
  0
VERTEX
  8
0
 10
214.707864
 20
197.591435
 42
0.006863
  0
VERTEX
  8
0
 10
225.807091
 20
189.495246
 42
0.007036
  0
VERTEX
  8
0
 10
236.603058
 20
182.071040
 42
0.012299
  0
VERTEX
  8
0
 10
245.777138
 20
176.271414
 42
-0.003440
  0
VERTEX
  8
0
 10
249.365285
 20
174.091082
 42
-0.005165
  0
VERTEX
  8
0
 10
252.462953
 20
172.135022
 42
-0.002253
  0
VERTEX
  8
0
 10
255.077110
 20
170.429517
 42
-0.109092
  0
VERTEX
  8
0
 10
255.509886
 20
169.984004
 42
-0.231741
  0
VERTEX
  8
0
 10
255.787334
 20
167.165786
 42
-0.005533
  0
VERTEX
  8
0
 10
250.904392
 20
154.515608
 42
-0.012741
  0
VERTEX
  8
0
 10
245.383051
 20
141.633632
 42
-0.020113
  0
VERTEX
  8
0
 10
239.932072
 20
130.919195
 42
-0.042064
  0
VERTEX
  8
0
 10
217.878715
 20
98.330043
 42
-0.033928
  0
VERTEX
  8
0
 10
189.148808
 20
67.294057
 42
-0.031048
  0
VERTEX
  8
0
 10
153.800762
 20
37.878145
 42
-0.023818
  0
VERTEX
  8
0
 10
111.881966
 20
10.152692
 42
-0.044868
  0
VERTEX
  8
0
 10
109.560756
 20
9.039850
 42
-0.049118
  0
VERTEX
  8
0
 10
107.147073
 20
8.399781
 42
-0.032146
  0
VERTEX
  8
0
 10
103.914249
 20
8.085896
 42
-0.008130
  0
VERTEX
  8
0
 10
98.631966
 20
8.000000
 42
0.000000
  0
VERTEX
  8
0
 10
89.000000
 20
8.000000
 42
0.000000
  0
VERTEX
  8
0
 10
89.000000
 20
87.098871
 42
-0.000543
  0
VERTEX
  8
0
 10
89.048331
 20
131.580933
 42
-0.004014
  0
VERTEX
  8
0
 10
89.264729
 20
152.793068
 42
-0.004511
  0
VERTEX
  8
0
 10
89.617898
 20
165.749586
 42
-0.102050
  0
VERTEX
  8
0
 10
90.499708
 20
169.358142
 42
-0.089652
  0
VERTEX
  8
0
 10
92.961759
 20
172.793071
 42
-0.129893
  0
VERTEX
  8
0
 10
96.199692
 20
174.611635
 42
-0.053625
  0
VERTEX
  8
0
 10
101.861659
 20
175.445659
 42
-0.005418
  0
VERTEX
  8
0
 10
115.495316
 20
175.831150
 42
0.004471
  0
VERTEX
  8
0
 10
123.220644
 20
176.034938
 42
0.008089
  0
VERTEX
  8
0
 10
129.538259
 20
176.360539
 42
0.004420
  0
VERTEX
  8
0
 10
134.643470
 20
176.751913
 42
0.153021
  0
VERTEX
  8
0
 10
135.745316
 20
177.203594
 42
0.216629
  0
VERTEX
  8
0
 10
136.917062
 20
179.620603
 42
0.006145
  0
VERTEX
  8
0
 10
137.063929
 20
191.415012
 42
0.007336
  0
VERTEX
  8
0
 10
136.895104
 20
203.049357
 42
0.160788
  0
VERTEX
  8
0
 10
135.750000
 20
206.205680
 42
0.190737
  0
VERTEX
  8
0
 10
132.717071
 20
207.970413
 42
0.001601
  0
VERTEX
  8
0
 10
105.255103
 20
212.031687
 42
0.001492
  0
VERTEX
  8
0
 10
77.666224
 20
215.937483
 42
0.210629
  0
VERTEX
  8
0
 10
74.565067
 20
215.054001
 42
0.141521
  0
VERTEX
  8
0
 10
73.871133
 20
214.032896
 42
0.000779
  0
VERTEX
  8
0
 10
70.182565
 20
202.680824
 42
0.003282
  0
VERTEX
  8
0
 10
66.069654
 20
189.663963
 42
0.002069
  0
VERTEX
  8
0
 10
61.429763
 20
174.413014
 42
-0.001024
  0
VERTEX
  8
0
 10
53.988573
 20
149.769619
 42
-0.012316
  0
VERTEX
  8
0
 10
50.868935
 20
140.353547
 42
-0.030577
  0
VERTEX
  8
0
 10
48.750921
 20
135.422465
 42
-0.157974
  0
VERTEX
  8
0
 10
46.689459
 20
133.339413
 42
-0.021599
  0
VERTEX
  8
0
 10
45.547694
 20
132.810156
 42
-0.031311
  0
VERTEX
  8
0
 10
44.496076
 20
132.451989
 42
-0.032034
  0
VERTEX
  8
0
 10
43.643461
 20
132.277720
 42
-0.234926
  0
VERTEX
  8
0
 10
43.260306
 20
132.406361
 42
-0.248278
  0
VERTEX
  8
0
 10
43.094026
 20
132.946417
 42
-0.000046
  0
VERTEX
  8
0
 10
48.787273
 20
162.852058
 42
-0.000968
  0
VERTEX
  8
0
 10
55.168076
 20
196.003192
 42
-0.000584
  0
VERTEX
  8
0
 10
62.853236
 20
235.273563
 42
0.000161
  0
VERTEX
  8
0
 10
70.578241
 20
274.571141
 42
0.000266
  0
VERTEX
  8
0
 10
77.083428
 20
307.813361
 42
0.000015
  0
VERTEX
  8
0
 10
82.928535
 20
337.771720
 42
0.046829
  0
VERTEX
  8
0
 10
83.005241
 20
338.543466
 42
-0.708999
  0
VERTEX
  8
0
 10
83.210933
 20
338.614343
 42
-0.006828
  0
VERTEX
  8
0
 10
84.584030
 20
336.828589
 42
-0.009692
  0
VERTEX
  8
0
 10
86.314204
 20
334.417625
 42
-0.005115
  0
VERTEX
  8
0
 10
88.372481
 20
331.362370
 42
0.007964
  0
VERTEX
  8
0
 10
91.150253
 20
327.289392
 42
0.002774
  0
VERTEX
  8
0
 10
95.275797
 20
321.510805
 42
0.002754
  0
VERTEX
  8
0
 10
99.888621
 20
315.198468
 42
0.003209
  0
SEQEND
  0
POLYLINE
  8
0
 66
1
 70
1
  0
VERTEX
  8
0
 10
214.200000
 20
342.800000
 42
0.102633
  0
VERTEX
  8
0
 10
213.339054
 20
341.488347
 42
0.096628
  0
VERTEX
  8
0
 10
213.046523
 20
339.913365
 42
0.100784
  0
VERTEX
  8
0
 10
213.369199
 20
338.398752
 42
0.122930
  0
VERTEX
  8
0
 10
214.250000
 20
337.253074
 42
0.117355
  0
VERTEX
  8
0
 10
215.154622
 20
336.830403
 42
0.009619
  0
VERTEX
  8
0
 10
217.736563
 20
336.349320
 42
0.012482
  0
VERTEX
  8
0
 10
220.877684
 20
335.906626
 42
0.009284
  0
VERTEX
  8
0
 10
224.363831
 20
335.569227
 42
-0.072905
  0
VERTEX
  8
0
 10
253.825542
 20
328.873630
 42
-0.072125
  0
VERTEX
  8
0
 10
280.245264
 20
313.990495
 42
-0.072393
  0
VERTEX
  8
0
 10
301.270195
 20
292.274821
 42
-0.074350
  0
VERTEX
  8
0
 10
315.003209
 20
265.654735
 42
-0.014246
  0
VERTEX
  8
0
 10
317.061027
 20
258.987295
 42
-0.018265
  0
VERTEX
  8
0
 10
318.552117
 20
252.741429
 42
-0.016984
  0
VERTEX
  8
0
 10
319.658060
 20
246.052488
 42
-0.010011
  0
VERTEX
  8
0
 10
320.546380
 20
238.000000
 42
0.014193
  0
VERTEX
  8
0
 10
321.162835
 20
232.810548
 42
0.070021
  0
VERTEX
  8
0
 10
321.992960
 20
229.992108
 42
0.144153
  0
VERTEX
  8
0
 10
323.246641
 20
228.541136
 42
0.143952
  0
VERTEX
  8
0
 10
325.087261
 20
228.000000
 42
0.202179
  0
VERTEX
  8
0
 10
327.148006
 20
228.868793
 42
0.145170
  0
VERTEX
  8
0
 10
328.325791
 20
231.106410
 42
0.062484
  0
VERTEX
  8
0
 10
328.629070
 20
235.348058
 42
0.012883
  0
VERTEX
  8
0
 10
328.035109
 20
242.832666
 42
0.040263
  0
VERTEX
  8
0
 10
324.336023
 20
262.551109
 42
0.046245
  0
VERTEX
  8
0
 10
317.619257
 20
280.485616
 42
0.046000
  0
VERTEX
  8
0
 10
307.684403
 20
296.958215
 42
0.039124
  0
VERTEX
  8
0
 10
294.401176
 20
312.323470
 42
0.023952
  0
VERTEX
  8
0
 10
288.416275
 20
317.699343
 42
0.016093
  0
VERTEX
  8
0
 10
281.107138
 20
323.276139
 42
0.016041
  0
VERTEX
  8
0
 10
273.409211
 20
328.402504
 42
0.022827
  0
VERTEX
  8
0
 10
266.237093
 20
332.412164
 42
0.042174
  0
VERTEX
  8
0
 10
252.709706
 20
337.812498
 42
0.024629
  0
VERTEX
  8
0
 10
235.767179
 20
342.071612
 42
0.017615
  0
VERTEX
  8
0
 10
219.727851
 20
344.689777
 42
0.232029
  0
SEQEND
  0
POLYLINE
  8
0
 66
1
 70
1
  0
VERTEX
  8
0
 10
254.473757
 20
493.750000
 42
0.049980
  0
VERTEX
  8
0
 10
253.542651
 20
490.180852
 42
0.000160
  0
VERTEX
  8
0
 10
246.400721
 20
444.471284
 42
0.000206
  0
VERTEX
  8
0
 10
239.362238
 20
399.206773
 42
0.038481
  0
VERTEX
  8
0
 10
239.000000
 20
394.507094
 42
0.032040
  0
VERTEX
  8
0
 10
239.102392
 20
392.910848
 42
0.077802
  0
VERTEX
  8
0
 10
239.431565
 20
391.780631
 42
0.105757
  0
VERTEX
  8
0
 10
240.010387
 20
391.018328
 42
0.101169
  0
VERTEX
  8
0
 10
240.859123
 20
390.544713
 42
0.084105
  0
VERTEX
  8
0
 10
242.828311
 20
390.268184
 42
0.126983
  0
VERTEX
  8
0
 10
244.483732
 20
390.745845
 42
0.126424
  0
VERTEX
  8
0
 10
245.706047
 20
391.967285
 42
0.082956
  0
VERTEX
  8
0
 10
246.427132
 20
393.833540
 42
0.012551
  0
VERTEX
  8
0
 10
249.010126
 20
408.184809
 42
0.000927
  0
VERTEX
  8
0
 10
255.018300
 20
447.638944
 42
0.000120
  0
VERTEX
  8
0
 10
261.606008
 20
491.516273
 42
0.129515
  0
VERTEX
  8
0
 10
261.400315
 20
493.399180
 42
0.218535
  0
VERTEX
  8
0
 10
260.258834
 20
494.515116
 42
0.073424
  0
VERTEX
  8
0
 10
257.917758
 20
494.982834
 42
0.074997
  0
VERTEX
  8
0
 10
255.587305
 20
494.751108
 42
0.246548
  0
SEQEND
  0
POLYLINE
  8
0
 66
1
 70
1
  0
VERTEX
  8
0
 10
297.674188
 20
493.250000
 42
0.056298
  0
VERTEX
  8
0
 10
296.022537
 20
489.570161
 42
0.000173
  0
VERTEX
  8
0
 10
280.298350
 20
440.323665
 42
0.000128
  0
VERTEX
  8
0
 10
264.458524
 20
390.611976
 42
0.077205
  0
VERTEX
  8
0
 10
264.000000
 20
387.660147
 42
0.137625
  0
VERTEX
  8
0
 10
264.571484
 20
385.623233
 42
0.176350
  0
VERTEX
  8
0
 10
266.081318
 20
384.415657
 42
0.166211
  0
VERTEX
  8
0
 10
268.088657
 20
384.423483
 42
0.121991
  0
VERTEX
  8
0
 10
269.969555
 20
385.645309
 42
0.104607
  0
VERTEX
  8
0
 10
270.959928
 20
387.284589
 42
0.000791
  0
VERTEX
  8
0
 10
276.113942
 20
402.165072
 42
0.002904
  0
VERTEX
  8
0
 10
281.906524
 20
419.297540
 42
0.001854
  0
VERTEX
  8
0
 10
288.450947
 20
439.278342
 42
0.001131
  0
VERTEX
  8
0
 10
300.220368
 20
475.950312
 42
0.023171
  0
VERTEX
  8
0
 10
303.230102
 20
487.175687
 42
0.125937
  0
VERTEX
  8
0
 10
303.060263
 20
492.035702
 42
0.332863
  0
VERTEX
  8
0
 10
300.436572
 20
494.000000
 42
0.029941
  0
VERTEX
  8
0
 10
299.516458
 20
493.944852
 42
0.036362
  0
VERTEX
  8
0
 10
298.668725
 20
493.779688
 42
0.039415
  0
VERTEX
  8
0
 10
297.997902
 20
493.539443
 42
0.154650
  0
SEQEND
  0
POLYLINE
  8
0
 66
1
 70
1
  0
VERTEX
  8
0
 10
214.200000
 20
488.800000
 42
0.198345
  0
VERTEX
  8
0
 10
212.952964
 20
485.798657
 42
0.000546
  0
VERTEX
  8
0
 10
212.904077
 20
441.000000
 42
0.000546
  0
VERTEX
  8
0
 10
212.952964
 20
396.201343
 42
0.198345
  0
VERTEX
  8
0
 10
214.200000
 20
393.200000
 42
0.108190
  0
VERTEX
  8
0
 10
215.661365
 20
392.263608
 42
0.120833
  0
VERTEX
  8
0
 10
217.320601
 20
392.073945
 42
0.123406
  0
VERTEX
  8
0
 10
218.853155
 20
392.672350
 42
0.115908
  0
VERTEX
  8
0
 10
219.964816
 20
393.934259
 42
0.116184
  0
VERTEX
  8
0
 10
220.448545
 20
395.752165
 42
0.001686
  0
VERTEX
  8
0
 10
220.733551
 20
406.987171
 42
0.003909
  0
VERTEX
  8
0
 10
220.937689
 20
421.389627
 42
0.001589
  0
VERTEX
  8
0
 10
221.000000
 20
441.000000
 42
0.001589
  0
VERTEX
  8
0
 10
220.937689
 20
460.610373
 42
0.003909
  0
VERTEX
  8
0
 10
220.733551
 20
475.012829
 42
0.001686
  0
VERTEX
  8
0
 10
220.448545
 20
486.247835
 42
0.116184
  0
VERTEX
  8
0
 10
219.964816
 20
488.065741
 42
0.115908
  0
VERTEX
  8
0
 10
218.853155
 20
489.327650
 42
0.123406
  0
VERTEX
  8
0
 10
217.320601
 20
489.926055
 42
0.120833
  0
VERTEX
  8
0
 10
215.661365
 20
489.736392
 42
0.108190
  0
SEQEND
  0
POLYLINE
  8
0
 66
1
 70
1
  0
VERTEX
  8
0
 10
340.318565
 20
482.800558
 42
0.046972
  0
VERTEX
  8
0
 10
339.252967
 20
481.125363
 42
0.000121
  0
VERTEX
  8
0
 10
326.642698
 20
456.448831
 42
0.000712
  0
VERTEX
  8
0
 10
311.812388
 20
427.308288
 42
0.000355
  0
VERTEX
  8
0
 10
293.109243
 20
390.363194
 42
0.007897
  0
VERTEX
  8
0
 10
290.715802
 20
385.435173
 42
0.013264
  0
VERTEX
  8
0
 10
288.882747
 20
381.215436
 42
0.009300
  0
VERTEX
  8
0
 10
287.568918
 20
377.773875
 42
0.180030
  0
VERTEX
  8
0
 10
287.580329
 20
376.651261
 42
0.135233
  0
VERTEX
  8
0
 10
288.710917
 20
375.117587
 42
0.131295
  0
VERTEX
  8
0
 10
290.480085
 20
374.357843
 42
0.129687
  0
VERTEX
  8
0
 10
292.409640
 20
374.577616
 42
0.130431
  0
VERTEX
  8
0
 10
293.974843
 20
375.720605
 42
0.053555
  0
VERTEX
  8
0
 10
298.250394
 20
382.337758
 42
0.000612
  0
VERTEX
  8
0
 10
321.865918
 20
429.360392
 42
0.000237
  0
VERTEX
  8
0
 10
346.334924
 20
478.289447
 42
0.152257
  0
VERTEX
  8
0
 10
346.817920
 20
481.262442
 42
0.184134
  0
VERTEX
  8
0
 10
345.943489
 20
482.843004
 42
0.117765
  0
VERTEX
  8
0
 10
344.046980
 20
483.798817
 42
0.115284
  0
VERTEX
  8
0
 10
341.890507
 20
483.804914
 42
0.172597
  0
SEQEND
  0
POLYLINE
  8
0
 66
1
 70
1
  0
VERTEX
  8
0
 10
175.131042
 20
477.244854
 42
0.153425
  0
VERTEX
  8
0
 10
174.805552
 20
475.523858
 42
0.002836
  0
VERTEX
  8
0
 10
175.954190
 20
466.249762
 42
0.005368
  0
VERTEX
  8
0
 10
177.706878
 20
453.779560
 42
0.001788
  0
VERTEX
  8
0
 10
180.534489
 20
435.557435
 42
0.000472
  0
VERTEX
  8
0
 10
183.006192
 20
420.090545
 42
0.000724
  0
VERTEX
  8
0
 10
185.179657
 20
406.695525
 42
0.000235
  0
VERTEX
  8
0
 10
187.084061
 20
395.099395
 42
0.020668
  0
VERTEX
  8
0
 10
187.440955
 20
393.379231
 42
0.125574
  0
VERTEX
  8
0
 10
188.416628
 20
391.575069
 42
0.130766
  0
VERTEX
  8
0
 10
190.124218
 20
390.492196
 42
0.135451
  0
VERTEX
  8
0
 10
192.096320
 20
390.421499
 42
0.138875
  0
VERTEX
  8
0
 10
193.803917
 20
391.375345
 42
0.212367
  0
VERTEX
  8
0
 10
194.580408
 20
393.395987
 42
0.016150
  0
VERTEX
  8
0
 10
194.078355
 20
399.363579
 42
0.009356
  0
VERTEX
  8
0
 10
192.647716
 20
409.901252
 42
0.000932
  0
VERTEX
  8
0
 10
188.704155
 20
435.054612
 42
0.000920
  0
VERTEX
  8
0
 10
186.101878
 20
451.260273
 42
0.001481
  0
VERTEX
  8
0
 10
183.818274
 20
465.057863
 42
0.000229
  0
VERTEX
  8
0
 10
181.751850
 20
477.283574
 42
0.096719
  0
VERTEX
  8
0
 10
181.452728
 20
478.076488
 42
0.208669
  0
VERTEX
  8
0
 10
180.289805
 20
478.882008
 42
0.081469
  0
VERTEX
  8
0
 10
178.294552
 20
478.945432
 42
0.078156
  0
VERTEX
  8
0
 10
176.298258
 20
478.356672
 42
0.160510
  0
SEQEND
  0
POLYLINE
  8
0
 66
1
 70
1
  0
VERTEX
  8
0
 10
139.122459
 20
463.228817
 42
0.186505
  0
VERTEX
  8
0
 10
138.881443
 20
461.273185
 42
0.007268
  0
VERTEX
  8
0
 10
140.786055
 20
454.133277
 42
0.007978
  0
VERTEX
  8
0
 10
144.009711
 20
443.376828
 42
0.001682
  0
VERTEX
  8
0
 10
150.001582
 20
424.703330
 42
0.001017
  0
VERTEX
  8
0
 10
154.639997
 20
410.511625
 42
0.001551
  0
VERTEX
  8
0
 10
158.729104
 20
398.214813
 42
0.000538
  0
VERTEX
  8
0
 10
162.303775
 20
387.613143
 42
0.041302
  0
VERTEX
  8
0
 10
163.014043
 20
385.973761
 42
0.063768
  0
VERTEX
  8
0
 10
163.622879
 20
385.118702
 42
0.079210
  0
VERTEX
  8
0
 10
164.389279
 20
384.515771
 42
0.083486
  0
VERTEX
  8
0
 10
165.270667
 20
384.202101
 42
0.081071
  0
VERTEX
  8
0
 10
166.215534
 20
384.189316
 42
0.283861
  0
VERTEX
  8
0
 10
168.597834
 20
386.201718
 42
0.128476
  0
VERTEX
  8
0
 10
168.855463
 20
390.444539
 42
0.028387
  0
VERTEX
  8
0
 10
166.511810
 20
399.559739
 42
0.001751
  0
VERTEX
  8
0
 10
157.922865
 20
426.196333
 42
0.000952
  0
VERTEX
  8
0
 10
149.894295
 20
450.641931
 42
0.013632
  0
VERTEX
  8
0
 10
146.783094
 20
459.258824
 42
0.037362
  0
VERTEX
  8
0
 10
144.730205
 20
463.525581
 42
0.237046
  0
VERTEX
  8
0
 10
142.779090
 20
464.809932
 42
0.049905
  0
VERTEX
  8
0
 10
141.547513
 20
464.830791
 42
0.081511
  0
VERTEX
  8
0
 10
140.536738
 20
464.577585
 42
0.090815
  0
VERTEX
  8
0
 10
139.735279
 20
464.041832
 42
0.077408
  0
SEQEND
  0
POLYLINE
  8
0
 66
1
 70
1
  0
VERTEX
  8
0
 10
380.801052
 20
463.750000
 42
0.068667
  0
VERTEX
  8
0
 10
377.986946
 20
460.817119
 42
0.000175
  0
VERTEX
  8
0
 10
344.418030
 20
414.510934
 42
0.000131
  0
VERTEX
  8
0
 10
310.604383
 20
367.807000
 42
0.092919
  0
VERTEX
  8
0
 10
309.302868
 20
365.050167
 42
0.162820
  0
VERTEX
  8
0
 10
309.405217
 20
363.525538
 42
0.119996
  0
VERTEX
  8
0
 10
310.407512
 20
362.147066
 42
0.107344
  0
VERTEX
  8
0
 10
312.042306
 20
361.276369
 42
0.110100
  0
VERTEX
  8
0
 10
313.875395
 20
361.173236
 42
0.189958
  0
VERTEX
  8
0
 10
315.353181
 20
362.056169
 42
0.001367
  0
VERTEX
  8
0
 10
324.294794
 20
373.719602
 42
0.004183
  0
VERTEX
  8
0
 10
335.564706
 20
388.762978
 42
0.001578
  0
VERTEX
  8
0
 10
351.085840
 20
409.986257
 42
0.000948
  0
VERTEX
  8
0
 10
364.620061
 20
428.690264
 42
0.001521
  0
VERTEX
  8
0
 10
376.087506
 20
444.703985
 42
0.000256
  0
VERTEX
  8
0
 10
386.182831
 20
458.908000
 42
0.090649
  0
VERTEX
  8
0
 10
386.733049
 20
460.087181
 42
0.167084
  0
VERTEX
  8
0
 10
386.632574
 20
461.418444
 42
0.056990
  0
VERTEX
  8
0
 10
385.655822
 20
463.123204
 42
0.057074
  0
VERTEX
  8
0
 10
384.328987
 20
464.552678
 42
0.179025
  0
VERTEX
  8
0
 10
383.119701
 20
465.000000
 42
0.100831
  0
VERTEX
  8
0
 10
382.735069
 20
464.921638
 42
0.023123
  0
VERTEX
  8
0
 10
382.134403
 20
464.632812
 42
0.022994
  0
VERTEX
  8
0
 10
381.460521
 20
464.228481
 42
0.020638
  0
SEQEND
  0
POLYLINE
  8
0
 66
1
 70
1
  0
VERTEX
  8
0
 10
105.712576
 20
447.379243
 42
0.264709
  0
VERTEX
  8
0
 10
105.112369
 20
445.192269
 42
0.034400
  0
VERTEX
  8
0
 10
106.686154
 20
440.418739
 42
0.018383
  0
VERTEX
  8
0
 10
110.295941
 20
432.421528
 42
0.002683
  0
VERTEX
  8
0
 10
118.306144
 20
416.500000
 42
0.001428
  0
VERTEX
  8
0
 10
126.842553
 20
399.874486
 42
0.020177
  0
VERTEX
  8
0
 10
130.155380
 20
394.055595
 42
0.064121
  0
VERTEX
  8
0
 10
132.359162
 20
391.363417
 42
0.191480
  0
VERTEX
  8
0
 10
134.531091
 20
390.500000
 42
0.309073
  0
VERTEX
  8
0
 10
136.823863
 20
392.066953
 42
0.171052
  0
VERTEX
  8
0
 10
136.940455
 20
395.606020
 42
0.037804
  0
VERTEX
  8
0
 10
133.871594
 20
403.256923
 42
0.003501
  0
VERTEX
  8
0
 10
124.741157
 20
421.500000
 42
0.001909
  0
VERTEX
  8
0
 10
117.068985
 20
436.423708
 42
0.015444
  0
VERTEX
  8
0
 10
113.314340
 20
443.143020
 42
0.030884
  0
VERTEX
  8
0
 10
110.840720
 20
446.741718
 42
0.200306
  0
VERTEX
  8
0
 10
108.962576
 20
447.795910
 42
0.028384
  0
VERTEX
  8
0
 10
107.938939
 20
447.856725
 42
0.032536
  0
VERTEX
  8
0
 10
106.961202
 20
447.795577
 42
0.034438
  0
VERTEX
  8
0
 10
106.153747
 20
447.634956
 42
0.130786
  0
SEQEND
  0
POLYLINE
  8
0
 66
1
 70
1
  0
VERTEX
  8
0
 10
371.745639
 20
392.245689
 42
0.001692
  0
VERTEX
  8
0
 10
355.357624
 20
375.743025
 42
0.002746
  0
VERTEX
  8
0
 10
341.556532
 20
361.596411
 42
0.000429
  0
VERTEX
  8
0
 10
329.425896
 20
349.003042
 42
0.193831
  0
VERTEX
  8
0
 10
329.000000
 20
347.945689
 42
0.110551
  0
VERTEX
  8
0
 10
329.318331
 20
346.523532
 42
0.086739
  0
VERTEX
  8
0
 10
330.230581
 20
345.227867
 42
0.086665
  0
VERTEX
  8
0
 10
331.529105
 20
344.317603
 42
0.110066
  0
VERTEX
  8
0
 10
332.954412
 20
344.000000
 42
0.199338
  0
VERTEX
  8
0
 10
335.961503
 20
345.248462
 42
0.000328
  0
VERTEX
  8
0
 10
376.887003
 20
386.362004
 42
0.000330
  0
VERTEX
  8
0
 10
417.751810
 20
427.522688
 42
0.197804
  0
VERTEX
  8
0
 10
419.000000
 20
430.554361
 42
0.087220
  0
VERTEX
  8
0
 10
418.721265
 20
432.140096
 42
0.078303
  0
VERTEX
  8
0
 10
417.914160
 20
433.602562
 42
0.085487
  0
VERTEX
  8
0
 10
416.777565
 20
434.639675
 42
0.143244
  0
VERTEX
  8
0
 10
415.545639
 20
435.000000
 42
0.195563
  0
VERTEX
  8
0
 10
414.817682
 20
434.703955
 42
0.000204
  0
VERTEX
  8
0
 10
402.244466
 20
422.440921
 42
0.001891
  0
VERTEX
  8
0
 10
388.210429
 20
408.637920
 42
0.001155
  0
SEQEND
  0
POLYLINE
  8
0
 66
1
 70
1
  0
VERTEX
  8
0
 10
418.847849
 20
383.736425
 42
0.000614
  0
VERTEX
  8
0
 10
384.034656
 20
358.504968
 42
0.002369
  0
VERTEX
  8
0
 10
362.506420
 20
342.705277
 42
0.000751
  0
VERTEX
  8
0
 10
346.821000
 20
331.042383
 42
0.141821
  0
VERTEX
  8
0
 10
345.623432
 20
329.461064
 42
0.130639
  0
VERTEX
  8
0
 10
345.546195
 20
328.739260
 42
0.058086
  0
VERTEX
  8
0
 10
345.802740
 20
327.809581
 42
0.051899
  0
VERTEX
  8
0
 10
346.323315
 20
326.831237
 42
0.048212
  0
VERTEX
  8
0
 10
347.045599
 20
325.954401
 42
0.032680
  0
VERTEX
  8
0
 10
348.193909
 20
324.947132
 42
0.115531
  0
VERTEX
  8
0
 10
349.081746
 20
324.545652
 42
0.127986
  0
VERTEX
  8
0
 10
350.002903
 20
324.600941
 42
0.044244
  0
VERTEX
  8
0
 10
351.238758
 20
325.127779
 42
0.033916
  0
VERTEX
  8
0
 10
355.014912
 20
327.491042
 42
0.000136
  0
VERTEX
  8
0
 10
395.379577
 20
356.753682
 42
0.000178
  0
VERTEX
  8
0
 10
435.258489
 20
385.702454
 42
0.025663
  0
VERTEX
  8
0
 10
439.750000
 20
389.331441
 42
0.069309
  0
VERTEX
  8
0
 10
441.321860
 20
391.191927
 42
0.129605
  0
VERTEX
  8
0
 10
441.910411
 20
393.059201
 42
0.160323
  0
VERTEX
  8
0
 10
441.454343
 20
394.704676
 42
0.123391
  0
VERTEX
  8
0
 10
440.065741
 20
395.964816
 42
0.009272
  0
VERTEX
  8
0
 10
439.290817
 20
396.361238
 42
0.011856
  0
VERTEX
  8
0
 10
438.562228
 20
396.695915
 42
0.009839
  0
VERTEX
  8
0
 10
437.944666
 20
396.947758
 42
0.092144
  0
VERTEX
  8
0
 10
437.663590
 20
397.000000
 42
0.154483
  0
VERTEX
  8
0
 10
437.322990
 20
396.892194
 42
0.000234
  0
VERTEX
  8
0
 10
431.943460
 20
393.103825
 42
0.001843
  0
VERTEX
  8
0
 10
425.915919
 20
388.821544
 42
0.001133
  0
SEQEND
  0
POLYLINE
  8
0
 66
1
 70
1
  0
VERTEX
  8
0
 10
420.923317
 20
340.384728
 42
-0.000061
  0
VERTEX
  8
0
 10
408.849335
 20
334.261309
 42
-0.000052
  0
VERTEX
  8
0
 10
396.073295
 20
327.785458
 42
-0.000052
  0
VERTEX
  8
0
 10
384.419664
 20
321.881563
 42
-0.000145
  0
VERTEX
  8
0
 10
376.241093
 20
317.742236
 42
0.006212
  0
VERTEX
  8
0
 10
369.973095
 20
314.473759
 42
0.009388
  0
VERTEX
  8
0
 10
364.607320
 20
311.459235
 42
0.004737
  0
VERTEX
  8
0
 10
360.173182
 20
308.800609
 42
0.180389
  0
VERTEX
  8
0
 10
359.468418
 20
307.900493
 42
0.093364
  0
VERTEX
  8
0
 10
359.241756
 20
306.038633
 42
0.128486
  0
VERTEX
  8
0
 10
359.770592
 20
304.446103
 42
0.136984
  0
VERTEX
  8
0
 10
360.976215
 20
303.383698
 42
0.112993
  0
VERTEX
  8
0
 10
362.652428
 20
303.000000
 42
0.117476
  0
VERTEX
  8
0
 10
366.505974
 20
303.918070
 42
0.000433
  0
VERTEX
  8
0
 10
408.074403
 20
324.961657
 42
0.000451
  0
VERTEX
  8
0
 10
449.541475
 20
346.046070
 42
0.112359
  0
VERTEX
  8
0
 10
452.711253
 20
348.689360
 42
0.139898
  0
VERTEX
  8
0
 10
453.280147
 20
350.139089
 42
0.110665
  0
VERTEX
  8
0
 10
453.070158
 20
351.817355
 42
0.104297
  0
VERTEX
  8
0
 10
452.140615
 20
353.324153
 42
0.111406
  0
VERTEX
  8
0
 10
450.701097
 20
354.284458
 42
0.202107
  0
VERTEX
  8
0
 10
449.670118
 20
354.251007
 42
0.001361
  0
VERTEX
  8
0
 10
441.395158
 20
350.415812
 42
0.005030
  0
VERTEX
  8
0
 10
431.916802
 20
345.874796
 42
0.003159
  0
SEQEND
  0
POLYLINE
  8
0
 66
1
 70
1
  0
VERTEX
  8
0
 10
410.471429
 20
299.163927
 42
0.000769
  0
VERTEX
  8
0
 10
395.422410
 20
294.213474
 42
0.001219
  0
VERTEX
  8
0
 10
382.548705
 20
289.921819
 42
0.000254
  0
VERTEX
  8
0
 10
371.234120
 20
286.112867
 42
0.057148
  0
VERTEX
  8
0
 10
370.221429
 20
285.636850
 42
0.211814
  0
VERTEX
  8
0
 10
369.105277
 20
284.004551
 42
0.140526
  0
VERTEX
  8
0
 10
369.328212
 20
281.711484
 42
0.128358
  0
VERTEX
  8
0
 10
370.772218
 20
279.737057
 42
0.172690
  0
VERTEX
  8
0
 10
372.842617
 20
279.000000
 42
0.079616
  0
VERTEX
  8
0
 10
377.234514
 20
279.703791
 42
0.000530
  0
VERTEX
  8
0
 10
414.151133
 20
291.890574
 42
0.000395
  0
VERTEX
  8
0
 10
451.509340
 20
304.299810
 42
0.109693
  0
VERTEX
  8
0
 10
454.350388
 20
306.002839
 42
0.038760
  0
VERTEX
  8
0
 10
455.252979
 20
307.001728
 42
0.119290
  0
VERTEX
  8
0
 10
455.621724
 20
307.827762
 42
0.124789
  0
VERTEX
  8
0
 10
455.563611
 20
308.708438
 42
0.044332
  0
VERTEX
  8
0
 10
455.065204
 20
309.878165
 42
0.070384
  0
VERTEX
  8
0
 10
454.460349
 20
310.704380
 42
0.060225
  0
VERTEX
  8
0
 10
453.619681
 20
311.381452
 42
0.061530
  0
VERTEX
  8
0
 10
452.662430
 20
311.826058
 42
0.081764
  0
VERTEX
  8
0
 10
451.714816
 20
311.968060
 42
0.071054
  0
VERTEX
  8
0
 10
450.062400
 20
311.707682
 42
0.000715
  0
VERTEX
  8
0
 10
438.685959
 20
308.193671
 42
0.002315
  0
VERTEX
  8
0
 10
425.590251
 20
304.061510
 42
0.001498
  0
SEQEND
  0
POLYLINE
  8
0
 66
1
 70
1
  0
VERTEX
  8
0
 10
409.257417
 20
266.640403
 42
0.002607
  0
VERTEX
  8
0
 10
396.818873
 20
264.557866
 42
0.004103
  0
VERTEX
  8
0
 10
386.162616
 20
262.626368
 42
0.001147
  0
VERTEX
  8
0
 10
376.925454
 20
260.851706
 42
0.149421
  0
VERTEX
  8
0
 10
375.913637
 20
260.313637
 42
0.142967
  0
VERTEX
  8
0
 10
375.214918
 20
259.038851
 42
0.108457
  0
VERTEX
  8
0
 10
375.212818
 20
257.436459
 42
0.099204
  0
VERTEX
  8
0
 10
375.901709
 20
255.862322
 42
0.099969
  0
VERTEX
  8
0
 10
377.142424
 20
254.680155
 42
0.167429
  0
VERTEX
  8
0
 10
378.827844
 20
254.285203
 42
0.004893
  0
VERTEX
  8
0
 10
386.201576
 20
255.109936
 42
0.006915
  0
VERTEX
  8
0
 10
396.668259
 20
256.531585
 42
0.001912
  0
VERTEX
  8
0
 10
413.067757
 20
259.054656
 42
0.002576
  0
VERTEX
  8
0
 10
436.677361
 20
262.904244
 42
0.027681
  0
VERTEX
  8
0
 10
446.129410
 20
265.039058
 42
0.107256
  0
VERTEX
  8
0
 10
449.980813
 20
267.099162
 42
0.368463
  0
VERTEX
  8
0
 10
450.398155
 20
269.687350
 42
0.236373
  0
VERTEX
  8
0
 10
447.854314
 20
271.283591
 42
0.042548
  0
VERTEX
  8
0
 10
442.093068
 20
271.347652
 42
0.019335
  0
VERTEX
  8
0
 10
431.772343
 20
270.180692
 42
0.002354
  0
SEQEND
  0
POLYLINE
  8
0
 66
1
 70
1
  0
VERTEX
  8
0
 10
378.214343
 20
234.814343
 42
0.102395
  0
VERTEX
  8
0
 10
377.331789
 20
233.471150
 42
0.101502
  0
VERTEX
  8
0
 10
377.051224
 20
231.883692
 42
0.103349
  0
VERTEX
  8
0
 10
377.418812
 20
230.337092
 42
0.110132
  0
VERTEX
  8
0
 10
378.370633
 20
229.107365
 42
0.162716
  0
VERTEX
  8
0
 10
379.817983
 20
228.545792
 42
0.004877
  0
VERTEX
  8
0
 10
386.381970
 20
228.297806
 42
0.007083
  0
VERTEX
  8
0
 10
395.570074
 20
228.170606
 42
0.002145
  0
VERTEX
  8
0
 10
409.512118
 20
228.234920
 42
0.001301
  0
VERTEX
  8
0
 10
427.254934
 20
228.439075
 42
0.012767
  0
VERTEX
  8
0
 10
434.733091
 20
228.735675
 42
0.026176
  0
VERTEX
  8
0
 10
438.846885
 20
229.221348
 42
0.212720
  0
VERTEX
  8
0
 10
440.386370
 20
230.250000
 42
0.051612
  0
VERTEX
  8
0
 10
440.839640
 20
231.166195
 42
0.089310
  0
VERTEX
  8
0
 10
440.989768
 20
232.000000
 42
0.089310
  0
VERTEX
  8
0
 10
440.839633
 20
232.833805
 42
0.051611
  0
VERTEX
  8
0
 10
440.386357
 20
233.750000
 42
0.212986
  0
VERTEX
  8
0
 10
438.844303
 20
234.779222
 42
0.026008
  0
VERTEX
  8
0
 10
434.710834
 20
235.264340
 42
0.012706
  0
VERTEX
  8
0
 10
427.197156
 20
235.560631
 42
0.001292
  0
VERTEX
  8
0
 10
409.355815
 20
235.764343
 42
0.001946
  0
VERTEX
  8
0
 10
394.663238
 20
235.836924
 42
0.007886
  0
VERTEX
  8
0
 10
385.711861
 20
235.705108
 42
0.006359
  0
VERTEX
  8
0
 10
379.616261
 20
235.441521
 42
0.184415
  0
SEQEND
  0
POLYLINE
  8
0
 66
1
 70
1
  0
VERTEX
  8
0
 10
375.392268
 20
207.426784
 42
0.045287
  0
VERTEX
  8
0
 10
375.223464
 20
206.349237
 42
0.047664
  0
VERTEX
  8
0
 10
375.256024
 20
205.277619
 42
0.052504
  0
VERTEX
  8
0
 10
375.472227
 20
204.356490
 42
0.112963
  0
VERTEX
  8
0
 10
375.857587
 20
203.742413
 42
0.158144
  0
VERTEX
  8
0
 10
378.779416
 20
202.251940
 42
0.001777
  0
VERTEX
  8
0
 10
400.858931
 20
198.814063
 42
0.001759
  0
VERTEX
  8
0
 10
422.975187
 20
195.530508
 42
0.160166
  0
VERTEX
  8
0
 10
426.170889
 20
196.091457
 42
0.154443
  0
VERTEX
  8
0
 10
427.454874
 20
197.407852
 42
0.112653
  0
VERTEX
  8
0
 10
427.948034
 20
199.404805
 42
0.120017
  0
VERTEX
  8
0
 10
427.517109
 20
201.321600
 42
0.188268
  0
VERTEX
  8
0
 10
426.283685
 20
202.444634
 42
0.051502
  0
VERTEX
  8
0
 10
422.973383
 20
203.337643
 42
0.000751
  0
VERTEX
  8
0
 10
402.909952
 20
206.556507
 42
0.000978
  0
VERTEX
  8
0
 10
383.200108
 20
209.648753
 42
0.037923
  0
VERTEX
  8
0
 10
378.769052
 20
209.994422
 42
0.047815
  0
VERTEX
  8
0
 10
377.400496
 20
209.866068
 42
0.115773
  0
VERTEX
  8
0
 10
376.478828
 20
209.454928
 42
0.118234
  0
VERTEX
  8
0
 10
375.847922
 20
208.683160
 42
0.051052
  0
SEQEND
  0
POLYLINE
  8
0
 66
1
 70
1
  0
VERTEX
  8
0
 10
369.424909
 20
182.556835
 42
0.031245
  0
VERTEX
  8
0
 10
369.237319
 20
181.545677
 42
0.032073
  0
VERTEX
  8
0
 10
369.179403
 20
180.527867
 42
0.033861
  0
VERTEX
  8
0
 10
369.245814
 20
179.643800
 42
0.103087
  0
VERTEX
  8
0
 10
369.450226
 20
179.080536
 42
0.167165
  0
VERTEX
  8
0
 10
370.127884
 20
178.525834
 42
0.001585
  0
VERTEX
  8
0
 10
376.226146
 20
176.289314
 42
0.005078
  0
VERTEX
  8
0
 10
383.321175
 20
173.793982
 42
0.003238
  0
VERTEX
  8
0
 10
391.620554
 20
171.029290
 42
0.002912
  0
VERTEX
  8
0
 10
402.647043
 20
167.506200
 42
0.013367
  0
VERTEX
  8
0
 10
409.106033
 20
165.671915
 42
0.017770
  0
VERTEX
  8
0
 10
413.293504
 20
164.759944
 42
0.169161
  0
VERTEX
  8
0
 10
415.076185
 20
165.040773
 42
0.130439
  0
VERTEX
  8
0
 10
416.468525
 20
166.339982
 42
0.154206
  0
VERTEX
  8
0
 10
416.920246
 20
168.075930
 42
0.139538
  0
VERTEX
  8
0
 10
416.301709
 20
169.889326
 42
0.100521
  0
VERTEX
  8
0
 10
414.750000
 20
171.377267
 42
0.061917
  0
VERTEX
  8
0
 10
410.804567
 20
173.236523
 42
0.001848
  0
VERTEX
  8
0
 10
393.413977
 20
178.864936
 42
0.001564
  0
VERTEX
  8
0
 10
375.768589
 20
184.443112
 42
0.075910
  0
VERTEX
  8
0
 10
372.121639
 20
185.000000
 42
0.083930
  0
VERTEX
  8
0
 10
371.180520
 20
184.840903
 42
0.100630
  0
VERTEX
  8
0
 10
370.409262
 20
184.383272
 42
0.090860
  0
VERTEX
  8
0
 10
369.823133
 20
183.617784
 42
0.056646
  0
SEQEND
  0
POLYLINE
  8
0
 66
1
 70
1
  0
VERTEX
  8
0
 10
363.039869
 20
158.548039
 42
0.263113
  0
VERTEX
  8
0
 10
362.576965
 20
155.977338
 42
0.146846
  0
VERTEX
  8
0
 10
364.501646
 20
153.326535
 42
0.039226
  0
VERTEX
  8
0
 10
370.250072
 20
149.619506
 42
0.003748
  0
VERTEX
  8
0
 10
385.006700
 20
141.807937
 42
0.003567
  0
VERTEX
  8
0
 10
393.786572
 20
137.323399
 42
0.005300
  0
VERTEX
  8
0
 10
401.543196
 20
133.533399
 42
0.002475
  0
VERTEX
  8
0
 10
408.180086
 20
130.417406
 42
0.102316
  0
VERTEX
  8
0
 10
409.714816
 20
130.057937
 42
0.131079
  0
VERTEX
  8
0
 10
411.491665
 20
130.482455
 42
0.131935
  0
VERTEX
  8
0
 10
412.815870
 20
131.734879
 42
0.132921
  0
VERTEX
  8
0
 10
413.328470
 20
133.474188
 42
0.133920
  0
VERTEX
  8
0
 10
412.891658
 20
135.229113
 42
0.144116
  0
VERTEX
  8
0
 10
410.874313
 20
137.202287
 42
0.001049
  0
VERTEX
  8
0
 10
389.862611
 20
148.301135
 42
0.001221
  0
VERTEX
  8
0
 10
368.971575
 20
159.215220
 42
0.120323
  0
VERTEX
  8
0
 10
365.757638
 20
160.000000
 42
0.078505
  0
VERTEX
  8
0
 10
365.090552
 20
159.894611
 42
0.044352
  0
VERTEX
  8
0
 10
364.335285
 20
159.573487
 42
0.042937
  0
VERTEX
  8
0
 10
363.612640
 20
159.103650
 42
0.053993
  0
SEQEND
  0
POLYLINE
  8
0
 66
1
 70
1
  0
VERTEX
  8
0
 10
380.200000
 20
114.800000
 42
0.222807
  0
VERTEX
  8
0
 10
379.236318
 20
112.134742
 42
0.162135
  0
VERTEX
  8
0
 10
380.519760
 20
109.205684
 42
0.046537
  0
VERTEX
  8
0
 10
385.191849
 20
104.910939
 42
0.004756
  0
VERTEX
  8
0
 10
397.250000
 20
95.917692
 42
0.003779
  0
VERTEX
  8
0
 10
406.255236
 20
89.437616
 42
0.013563
  0
VERTEX
  8
0
 10
412.144568
 20
85.502303
 42
0.017671
  0
VERTEX
  8
0
 10
416.247612
 20
83.116924
 42
0.120281
  0
VERTEX
  8
0
 10
418.500000
 20
82.537339
 42
0.033816
  0
VERTEX
  8
0
 10
420.105719
 20
82.626003
 42
0.137491
  0
VERTEX
  8
0
 10
420.999810
 20
82.999850
 42
0.152799
  0
VERTEX
  8
0
 10
421.516896
 20
83.758541
 42
0.044970
  0
VERTEX
  8
0
 10
421.807130
 20
85.153703
 42
0.186535
  0
VERTEX
  8
0
 10
421.297098
 20
87.121514
 42
0.055465
  0
VERTEX
  8
0
 10
419.180951
 20
89.470718
 42
0.022335
  0
VERTEX
  8
0
 10
414.753228
 20
93.066392
 42
0.002478
  0
VERTEX
  8
0
 10
404.242699
 20
100.769206
 42
0.001500
  0
VERTEX
  8
0
 10
393.725254
 20
108.349206
 42
0.006486
  0
VERTEX
  8
0
 10
387.407107
 20
112.751151
 42
0.005492
  0
VERTEX
  8
0
 10
383.085557
 20
115.610760
 42
0.144386
  0
VERTEX
  8
0
 10
381.765741
 20
116.000000
 42
0.148277
  0
VERTEX
  8
0
 10
381.560238
 20
115.937687
 42
0.016277
  0
VERTEX
  8
0
 10
381.154937
 20
115.647500
 42
0.018757
  0
VERTEX
  8
0
 10
380.686283
 20
115.259575
 42
0.014116
  0
SEQEND
  0
POLYLINE
  8
0
 66
1
 70
1
  0
VERTEX
  8
0
 10
86.666667
 20
311.333333
 42
0.232873
  0
VERTEX
  8
0
 10
86.021423
 20
309.435988
 42
0.078351
  0
VERTEX
  8
0
 10
86.869966
 20
306.552151
 42
0.042831
  0
VERTEX
  8
0
 10
89.278271
 20
302.424409
 42
0.011841
  0
VERTEX
  8
0
 10
93.750000
 20
296.386308
 42
0.015891
  0
VERTEX
  8
0
 10
119.758548
 20
265.059783
 42
0.014948
  0
VERTEX
  8
0
 10
148.223884
 20
234.783780
 42
0.015350
  0
VERTEX
  8
0
 10
177.517500
 20
207.184755
 42
0.020109
  0
VERTEX
  8
0
 10
206.000000
 20
183.929281
 42
0.009660
  0
VERTEX
  8
0
 10
216.672554
 20
176.226288
 42
0.008494
  0
VERTEX
  8
0
 10
228.097646
 20
168.595204
 42
0.003842
  0
VERTEX
  8
0
 10
238.844856
 20
161.794185
 42
0.140034
  0
VERTEX
  8
0
 10
241.624934
 20
161.000000
 42
0.106253
  0
VERTEX
  8
0
 10
243.406227
 20
161.382857
 42
0.102242
  0
VERTEX
  8
0
 10
244.901193
 20
162.466456
 42
0.114729
  0
VERTEX
  8
0
 10
245.728318
 20
163.940435
 42
0.163769
  0
VERTEX
  8
0
 10
245.666196
 20
165.427497
 42
0.139577
  0
VERTEX
  8
0
 10
245.017227
 20
166.292304
 42
0.003554
  0
VERTEX
  8
0
 10
241.070528
 20
169.246509
 42
0.007315
  0
VERTEX
  8
0
 10
236.326198
 20
172.639412
 42
0.004894
  0
VERTEX
  8
0
 10
230.804320
 20
176.388054
 42
-0.013934
  0
VERTEX
  8
0
 10
210.427167
 20
190.766436
 42
-0.014379
  0
VERTEX
  8
0
 10
191.099753
 20
206.113473
 42
-0.013590
  0
VERTEX
  8
0
 10
171.740618
 20
223.335340
 42
-0.010053
  0
VERTEX
  8
0
 10
151.251126
 20
243.375882
 42
-0.006223
  0
VERTEX
  8
0
 10
137.114676
 20
258.132864
 42
-0.006898
  0
VERTEX
  8
0
 10
123.834884
 20
272.744497
 42
-0.007174
  0
VERTEX
  8
0
 10
111.472531
 20
287.140593
 42
-0.008228
  0
VERTEX
  8
0
 10
100.092224
 20
301.250000
 42
0.006639
  0
VERTEX
  8
0
 10
95.995427
 20
306.362400
 42
0.022041
  0
VERTEX
  8
0
 10
93.113309
 20
309.564118
 42
0.030593
  0
VERTEX
  8
0
 10
90.966123
 20
311.495910
 42
0.169464
  0
VERTEX
  8
0
 10
89.521525
 20
312.000000
 42
0.027669
  0
VERTEX
  8
0
 10
88.634945
 20
311.950901
 42
0.029699
  0
VERTEX
  8
0
 10
87.780281
 20
311.804167
 42
0.031069
  0
VERTEX
  8
0
 10
87.068364
 20
311.590537
 42
0.108360
  0
SEQEND
  0
POLYLINE
  8
0
 66
1
 70
1
  0
VERTEX
  8
0
 10
98.200000
 20
158.800000
 42
0.198623
  0
VERTEX
  8
0
 10
96.934324
 20
155.749189
 42
0.000278
  0
VERTEX
  8
0
 10
96.898862
 20
92.000000
 42
0.000278
  0
VERTEX
  8
0
 10
96.934324
 20
28.250811
 42
0.198623
  0
VERTEX
  8
0
 10
98.200000
 20
25.200000
 42
0.108190
  0
VERTEX
  8
0
 10
99.661365
 20
24.263608
 42
0.120833
  0
VERTEX
  8
0
 10
101.320601
 20
24.073945
 42
0.123406
  0
VERTEX
  8
0
 10
102.853155
 20
24.672350
 42
0.115908
  0
VERTEX
  8
0
 10
103.964816
 20
25.934259
 42
0.118534
  0
VERTEX
  8
0
 10
104.461787
 20
27.837385
 42
0.000949
  0
VERTEX
  8
0
 10
104.738424
 20
43.584834
 42
0.002847
  0
VERTEX
  8
0
 10
104.939558
 20
63.751049
 42
0.001070
  0
VERTEX
  8
0
 10
105.000000
 20
92.000000
 42
0.001070
  0
VERTEX
  8
0
 10
104.939558
 20
120.248951
 42
0.002847
  0
VERTEX
  8
0
 10
104.738424
 20
140.415166
 42
0.000949
  0
VERTEX
  8
0
 10
104.461787
 20
156.162615
 42
0.118534
  0
VERTEX
  8
0
 10
103.964816
 20
158.065741
 42
0.115908
  0
VERTEX
  8
0
 10
102.853155
 20
159.327650
 42
0.123406
  0
VERTEX
  8
0
 10
101.320601
 20
159.926055
 42
0.120833
  0
VERTEX
  8
0
 10
99.661365
 20
159.736392
 42
0.108190
  0
SEQEND
  0
ENDSEC
  0
EOF
