  0
SECTION
  2
HEADER
  9
$ACADVER
  1
AC1006
  9
$EXTMIN
 10
0.000000
 20
0.000000
 30
0.000000
  9
$EXTMAX
 10
512.000000
 20
512.000000
 30
0.000000
  0
ENDSEC
  0
SECTION
  2
ENTITIES
  0
POLYLINE
  8
0
 66
1
 70
1
  0
VERTEX
  8
0
 10
128.494341
 20
506.750000
 42
0.061353
  0
VERTEX
  8
0
 10
118.081630
 20
491.151036
 42
0.031735
  0
VERTEX
  8
0
 10
108.882032
 20
469.548416
 42
0.029042
  0
VERTEX
  8
0
 10
101.559320
 20
444.185957
 42
0.025439
  0
VERTEX
  8
0
 10
96.832651
 20
417.000000
 42
0.023594
  0
VERTEX
  8
0
 10
95.843654
 20
403.676946
 42
0.006881
  0
VERTEX
  8
0
 10
95.573108
 20
383.110598
 42
0.007107
  0
VERTEX
  8
0
 10
95.882659
 20
362.228182
 42
0.018574
  0
VERTEX
  8
0
 10
96.875069
 20
347.254645
 42
0.000000
  0
VERTEX
  8
0
 10
98.248536
 20
334.009290
 42
0.000000
  0
VERTEX
  8
0
 10
94.374268
 20
329.507306
 42
0.012848
  0
VERTEX
  8
0
 10
82.100629
 20
314.480912
 42
0.026620
  0
VERTEX
  8
0
 10
73.474504
 20
302.032638
 42
0.034183
  0
VERTEX
  8
0
 10
67.840660
 20
291.326769
 42
0.060071
  0
VERTEX
  8
0
 10
64.925849
 20
281.771523
 42
0.062525
  0
VERTEX
  8
0
 10
64.609670
 20
275.601318
 42
0.245760
  0
VERTEX
  8
0
 10
66.555231
 20
272.467943
 42
0.207360
  0
VERTEX
  8
0
 10
70.563462
 20
271.967357
 42
0.046119
  0
VERTEX
  8
0
 10
77.132678
 20
274.567233
 42
-0.006914
  0
VERTEX
  8
0
 10
79.096565
 20
275.528518
 42
-0.011113
  0
VERTEX
  8
0
 10
80.799272
 20
276.287154
 42
-0.005043
  0
VERTEX
  8
0
 10
82.240957
 20
276.874435
 42
-0.305884
  0
VERTEX
  8
0
 10
82.500478
 20
276.817233
 42
-0.324730
  0
VERTEX
  8
0
 10
82.536378
 20
276.547221
 42
-0.001973
  0
VERTEX
  8
0
 10
81.278464
 20
274.243187
 42
-0.006908
  0
VERTEX
  8
0
 10
79.768164
 20
271.590033
 42
-0.004224
  0
VERTEX
  8
0
 10
77.916894
 20
268.500000
 42
0.021717
  0
VERTEX
  8
0
 10
73.473298
 20
260.457772
 42
0.013067
  0
VERTEX
  8
0
 10
68.876551
 20
250.571488
 42
0.013044
  0
VERTEX
  8
0
 10
64.781309
 20
240.407195
 42
0.020784
  0
VERTEX
  8
0
 10
61.875366
 20
231.500000
 42
0.040319
  0
VERTEX
  8
0
 10
60.163951
 20
222.752327
 42
0.022206
  0
VERTEX
  8
0
 10
59.420536
 20
211.869077
 42
0.014438
  0
VERTEX
  8
0
 10
59.472862
 20
201.565049
 42
0.247188
  0
VERTEX
  8
0
 10
61.095223
 20
198.722408
 42
0.132584
  0
VERTEX
  8
0
 10
63.309173
 20
198.028106
 42
0.119967
  0
VERTEX
  8
0
 10
65.665350
 20
198.502129
 42
0.107477
  0
VERTEX
  8
0
 10
67.736608
 20
200.081477
 42
0.089798
  0
VERTEX
  8
0
 10
69.128188
 20
202.477953
 42
-0.015881
  0
VERTEX
  8
0
 10
70.287863
 20
205.392099
 42
-0.769624
  0
VERTEX
  8
0
 10
70.675642
 20
205.332864
 42
-0.078533
  0
VERTEX
  8
0
 10
70.589513
 20
203.591332
 42
-0.005432
  0
VERTEX
  8
0
 10
69.527276
 20
198.773846
 42
0.014753
  0
VERTEX
  8
0
 10
67.174705
 20
187.071110
 42
0.045878
  0
VERTEX
  8
0
 10
66.554906
 20
179.057306
 42
0.079457
  0
VERTEX
  8
0
 10
67.449995
 20
173.937679
 42
0.237257
  0
VERTEX
  8
0
 10
69.922537
 20
171.524586
 42
0.120235
  0
VERTEX
  8
0
 10
72.009555
 20
171.382428
 42
0.123280
  0
VERTEX
  8
0
 10
73.905767
 20
172.221579
 42
0.056556
  0
VERTEX
  8
0
 10
76.199814
 20
174.468173
 42
0.008753
  0
VERTEX
  8
0
 10
80.134255
 20
179.482013
 42
-0.003718
  0
VERTEX
  8
0
 10
83.483569
 20
183.839840
 42
-0.065741
  0
VERTEX
  8
0
 10
84.747899
 20
185.082568
 42
-0.376590
  0
VERTEX
  8
0
 10
85.506920
 20
185.025657
 42
-0.126682
  0
VERTEX
  8
0
 10
86.109481
 20
183.982013
 42
-0.028967
  0
VERTEX
  8
0
 10
86.382911
 20
182.721858
 42
-0.010494
  0
VERTEX
  8
0
 10
86.628951
 20
180.907216
 42
-0.010366
  0
VERTEX
  8
0
 10
86.815804
 20
178.904851
 42
-0.012154
  0
VERTEX
  8
0
 10
86.907326
 20
177.000000
 42
0.049257
  0
VERTEX
  8
0
 10
88.007737
 20
168.035266
 42
0.027012
  0
VERTEX
  8
0
 10
91.010316
 20
157.376408
 42
0.026785
  0
VERTEX
  8
0
 10
95.233907
 20
146.867586
 42
0.040658
  0
VERTEX
  8
0
 10
100.097949
 20
138.312552
 42
0.032810
  0
VERTEX
  8
0
 10
102.348141
 20
135.436130
 42
0.003349
  0
VERTEX
  8
0
 10
108.160559
 20
129.020921
 42
0.004172
  0
VERTEX
  8
0
 10
115.208491
 20
121.473390
 42
0.003317
  0
VERTEX
  8
0
 10
122.939027
 20
113.439520
 42
-0.002455
  0
VERTEX
  8
0
 10
130.721871
 20
105.379144
 42
-0.002986
  0
VERTEX
  8
0
 10
137.928964
 20
97.750640
 42
-0.002515
  0
VERTEX
  8
0
 10
143.919536
 20
91.268371
 42
-0.020819
  0
VERTEX
  8
0
 10
146.500000
 20
88.200601
 42
0.050564
  0
VERTEX
  8
0
 10
150.986988
 20
83.467834
 42
0.174408
  0
VERTEX
  8
0
 10
154.874246
 20
81.979466
 42
0.293373
  0
VERTEX
  8
0
 10
157.501807
 20
83.591926
 42
0.112889
  0
VERTEX
  8
0
 10
158.500000
 20
87.956714
 42
0.000000
  0
VERTEX
  8
0
 10
158.500000
 20
92.173846
 42
0.000000
  0
VERTEX
  8
0
 10
161.000000
 20
88.998364
 42
-0.021809
  0
VERTEX
  8
0
 10
165.050733
 20
83.364085
 42
-0.009354
  0
VERTEX
  8
0
 10
169.982146
 20
75.515996
 42
-0.008359
  0
VERTEX
  8
0
 10
174.474340
 20
67.770882
 42
-0.041802
  0
VERTEX
  8
0
 10
176.543407
 20
63.203002
 42
0.000536
  0
VERTEX
  8
0
 10
177.257154
 20
61.203279
 42
0.000449
  0
VERTEX
  8
0
 10
178.018478
 20
59.083463
 42
0.000453
  0
VERTEX
  8
0
 10
178.717795
 20
57.147290
 42
0.001246
  0
VERTEX
  8
0
 10
179.215712
 20
55.783254
 42
0.083536
  0
VERTEX
  8
0
 10
180.290141
 20
53.903155
 42
0.106348
  0
VERTEX
  8
0
 10
181.848339
 20
52.660963
 42
0.107075
  0
VERTEX
  8
0
 10
183.770823
 20
52.174588
 42
0.085656
  0
VERTEX
  8
0
 10
185.892454
 20
52.465866
 42
0.160437
  0
VERTEX
  8
0
 10
187.587600
 20
53.690161
 42
0.072794
  0
VERTEX
  8
0
 10
188.870727
 20
56.143969
 42
0.045821
  0
VERTEX
  8
0
 10
189.836821
 20
60.009646
 42
0.015589
  0
VERTEX
  8
0
 10
190.542847
 20
65.761094
 42
0.000000
  0
VERTEX
  8
0
 10
191.205211
 20
73.022189
 42
0.000000
  0
VERTEX
  8
0
 10
197.260103
 20
64.261094
 42
0.012033
  0
VERTEX
  8
0
 10
213.239746
 20
42.289240
 42
0.017977
  0
VERTEX
  8
0
 10
228.332001
 20
23.958818
 42
0.019903
  0
VERTEX
  8
0
 10
241.671214
 20
10.051943
 42
0.069783
  0
VERTEX
  8
0
 10
251.699291
 20
2.784955
 42
0.000000
  0
VERTEX
  8
0
 10
256.000000
 20
0.503434
 42
0.000000
  0
VERTEX
  8
0
 10
260.750000
 20
2.971484
 42
0.073642
  0
VERTEX
  8
0
 10
269.834396
 20
9.542530
 42
0.017338
  0
VERTEX
  8
0
 10
282.822092
 20
23.128441
 42
0.016706
  0
VERTEX
  8
0
 10
297.395414
 20
40.613885
 42
0.012628
  0
VERTEX
  8
0
 10
312.245579
 20
60.720490
 42
0.000000
  0
VERTEX
  8
0
 10
320.802944
 20
72.940981
 42
0.000000
  0
VERTEX
  8
0
 10
321.461231
 20
65.720490
 42
0.009817
  0
VERTEX
  8
0
 10
321.790199
 20
62.756891
 42
0.009961
  0
VERTEX
  8
0
 10
322.233933
 20
59.822975
 42
0.009792
  0
VERTEX
  8
0
 10
322.720350
 20
57.288457
 42
0.039747
  0
VERTEX
  8
0
 10
323.167305
 20
55.783254
 42
0.134568
  0
VERTEX
  8
0
 10
325.129324
 20
53.123857
 42
0.168478
  0
VERTEX
  8
0
 10
328.008384
 20
52.125402
 42
0.169997
  0
VERTEX
  8
0
 10
330.868082
 20
53.126615
 42
0.137036
  0
VERTEX
  8
0
 10
332.784288
 20
55.783254
 42
0.001246
  0
VERTEX
  8
0
 10
333.282205
 20
57.147290
 42
0.000453
  0
VERTEX
  8
0
 10
333.981522
 20
59.083463
 42
0.000449
  0
VERTEX
  8
0
 10
334.742846
 20
61.203279
 42
0.000536
  0
VERTEX
  8
0
 10
335.456593
 20
63.203002
 42
-0.041802
  0
VERTEX
  8
0
 10
337.525660
 20
67.770882
 42
-0.008359
  0
VERTEX
  8
0
 10
342.017854
 20
75.515996
 42
-0.009354
  0
VERTEX
  8
0
 10
346.949267
 20
83.364085
 42
-0.021809
  0
VERTEX
  8
0
 10
351.000000
 20
88.998364
 42
0.000000
  0
VERTEX
  8
0
 10
353.500000
 20
92.173846
 42
0.000000
  0
VERTEX
  8
0
 10
353.500000
 20
87.956714
 42
0.112889
  0
VERTEX
  8
0
 10
354.498193
 20
83.591926
 42
0.293373
  0
VERTEX
  8
0
 10
357.125754
 20
81.979466
 42
0.174408
  0
VERTEX
  8
0
 10
361.013012
 20
83.467834
 42
0.050564
  0
VERTEX
  8
0
 10
365.500000
 20
88.200601
 42
-0.020819
  0
VERTEX
  8
0
 10
368.080464
 20
91.268371
 42
-0.002515
  0
VERTEX
  8
0
 10
374.071036
 20
97.750640
 42
-0.002986
  0
VERTEX
  8
0
 10
381.278129
 20
105.379144
 42
-0.002455
  0
VERTEX
  8
0
 10
389.060973
 20
113.439520
 42
0.003317
  0
VERTEX
  8
0
 10
396.791509
 20
121.473390
 42
0.004172
  0
VERTEX
  8
0
 10
403.839441
 20
129.020921
 42
0.003349
  0
VERTEX
  8
0
 10
409.651859
 20
135.436130
 42
0.032810
  0
VERTEX
  8
0
 10
411.902051
 20
138.312552
 42
0.040795
  0
VERTEX
  8
0
 10
416.848243
 20
147.017639
 42
0.027793
  0
VERTEX
  8
0
 10
421.069428
 20
157.598763
 42
0.028070
  0
VERTEX
  8
0
 10
424.018329
 20
168.342005
 42
0.049117
  0
VERTEX
  8
0
 10
425.063279
 20
177.500000
 42
-0.012825
  0
VERTEX
  8
0
 10
425.317097
 20
183.671277
 42
-0.317162
  0
VERTEX
  8
0
 10
426.334678
 20
184.927038
 42
-0.296072
  0
VERTEX
  8
0
 10
427.930087
 20
184.433235
 42
-0.011773
  0
VERTEX
  8
0
 10
431.902395
 20
179.433599
 42
0.008839
  0
VERTEX
  8
0
 10
435.812800
 20
174.452135
 42
0.056775
  0
VERTEX
  8
0
 10
438.099633
 20
172.216090
 42
0.123313
  0
VERTEX
  8
0
 10
439.992802
 20
171.381181
 42
0.119894
  0
VERTEX
  8
0
 10
442.077463
 20
171.524586
 42
0.237257
  0
VERTEX
  8
0
 10
444.550005
 20
173.937679
 42
0.079457
  0
VERTEX
  8
0
 10
445.445094
 20
179.057306
 42
0.045878
  0
VERTEX
  8
0
 10
444.825295
 20
187.071110
 42
0.014753
  0
VERTEX
  8
0
 10
442.472724
 20
198.773846
 42
-0.008706
  0
VERTEX
  8
0
 10
441.930862
 20
201.310178
 42
-0.013254
  0
VERTEX
  8
0
 10
441.557455
 20
203.531326
 42
-0.007813
  0
VERTEX
  8
0
 10
441.326634
 20
205.376856
 42
-0.227349
  0
VERTEX
  8
0
 10
441.480306
 20
205.813639
 42
-0.263954
  0
VERTEX
  8
0
 10
441.675315
 20
205.867455
 42
-0.215641
  0
VERTEX
  8
0
 10
441.847340
 20
205.730705
 42
-0.086553
  0
VERTEX
  8
0
 10
441.964245
 20
205.355036
 42
-0.032265
  0
VERTEX
  8
0
 10
442.000000
 20
204.801525
 42
0.134130
  0
VERTEX
  8
0
 10
442.562618
 20
202.741978
 42
0.056447
  0
VERTEX
  8
0
 10
444.305348
 20
200.430938
 42
0.056610
  0
VERTEX
  8
0
 10
446.497875
 20
198.588655
 42
0.147483
  0
VERTEX
  8
0
 10
448.450135
 20
198.000000
 42
0.140413
  0
VERTEX
  8
0
 10
450.977831
 20
198.724120
 42
0.184916
  0
VERTEX
  8
0
 10
452.411168
 20
200.621010
 42
0.072466
  0
VERTEX
  8
0
 10
452.946530
 20
204.512610
 42
0.009813
  0
VERTEX
  8
0
 10
452.718696
 20
212.767017
 42
0.010638
  0
VERTEX
  8
0
 10
452.343783
 20
218.232032
 42
0.012444
  0
VERTEX
  8
0
 10
451.749041
 20
223.396370
 42
0.013478
  0
VERTEX
  8
0
 10
450.965240
 20
228.060274
 42
0.021342
  0
VERTEX
  8
0
 10
450.017256
 20
232.000000
 42
0.020692
  0
VERTEX
  8
0
 10
447.125313
 20
240.721234
 42
0.012513
  0
VERTEX
  8
0
 10
443.021801
 20
250.801732
 42
0.012530
  0
VERTEX
  8
0
 10
438.441661
 20
260.615150
 42
0.021624
  0
VERTEX
  8
0
 10
434.083106
 20
268.500000
 42
-0.004224
  0
VERTEX
  8
0
 10
432.231836
 20
271.590033
 42
-0.006908
  0
VERTEX
  8
0
 10
430.721536
 20
274.243187
 42
-0.001973
  0
VERTEX
  8
0
 10
429.463622
 20
276.547221
 42
-0.324730
  0
VERTEX
  8
0
 10
429.499522
 20
276.817233
 42
-0.305884
  0
VERTEX
  8
0
 10
429.759043
 20
276.874435
 42
-0.005043
  0
VERTEX
  8
0
 10
431.200728
 20
276.287154
 42
-0.011113
  0
VERTEX
  8
0
 10
432.903435
 20
275.528518
 42
-0.006914
  0
VERTEX
  8
0
 10
434.867322
 20
274.567233
 42
0.046119
  0
VERTEX
  8
0
 10
441.436538
 20
271.967357
 42
0.207360
  0
VERTEX
  8
0
 10
445.444769
 20
272.467943
 42
0.245760
  0
VERTEX
  8
0
 10
447.390330
 20
275.601318
 42
0.062525
  0
VERTEX
  8
0
 10
447.074151
 20
281.771523
 42
0.060071
  0
VERTEX
  8
0
 10
444.159340
 20
291.326769
 42
0.034183
  0
VERTEX
  8
0
 10
438.525496
 20
302.032638
 42
0.026620
  0
VERTEX
  8
0
 10
429.899371
 20
314.480912
 42
0.012848
  0
VERTEX
  8
0
 10
417.625732
 20
329.507306
 42
0.000000
  0
VERTEX
  8
0
 10
413.751464
 20
334.009290
 42
0.000000
  0
VERTEX
  8
0
 10
415.124931
 20
347.254645
 42
0.018574
  0
VERTEX
  8
0
 10
416.117341
 20
362.228182
 42
0.007107
  0
VERTEX
  8
0
 10
416.426892
 20
383.110598
 42
0.006881
  0
VERTEX
  8
0
 10
416.156346
 20
403.676946
 42
0.023594
  0
VERTEX
  8
0
 10
415.167349
 20
417.000000
 42
0.025651
  0
VERTEX
  8
0
 10
410.395140
 20
444.379145
 42
0.029217
  0
VERTEX
  8
0
 10
402.983590
 20
469.934553
 42
0.031927
  0
VERTEX
  8
0
 10
393.708852
 20
491.597649
 42
0.064456
  0
VERTEX
  8
0
 10
383.286943
 20
506.926875
 42
0.013936
  0
VERTEX
  8
0
 10
381.075751
 20
509.282918
 42
0.067497
  0
VERTEX
  8
0
 10
379.623485
 20
510.397152
 42
0.113257
  0
VERTEX
  8
0
 10
378.313347
 20
510.793970
 42
0.078775
  0
VERTEX
  8
0
 10
376.767691
 20
510.656542
 42
0.087177
  0
VERTEX
  8
0
 10
375.364275
 20
510.030120
 42
0.084372
  0
VERTEX
  8
0
 10
374.240001
 20
508.957096
 42
0.054751
  0
VERTEX
  8
0
 10
373.198474
 20
507.183487
 42
0.015941
  0
VERTEX
  8
0
 10
371.993181
 20
504.248875
 42
-0.021062
  0
VERTEX
  8
0
 10
368.982199
 20
497.126249
 42
-0.020489
  0
VERTEX
  8
0
 10
365.357211
 20
490.214680
 42
-0.020035
  0
VERTEX
  8
0
 10
361.094446
 20
483.476655
 42
-0.018186
  0
VERTEX
  8
0
 10
356.173077
 20
476.873773
 42
-0.021412
  0
VERTEX
  8
0
 10
350.276749
 20
470.146860
 42
-0.022362
  0
VERTEX
  8
0
 10
343.907934
 20
464.050205
 42
-0.015735
  0
VERTEX
  8
0
 10
335.328053
 20
457.006551
 42
-0.004690
  0
VERTEX
  8
0
 10
321.801556
 20
446.797346
 42
0.000000
  0
VERTEX
  8
0
 10
307.341139
 20
436.094691
 42
0.000000
  0
VERTEX
  8
0
 10
300.978163
 20
438.664811
 42
0.059984
  0
VERTEX
  8
0
 10
281.194440
 20
444.013690
 42
0.041111
  0
VERTEX
  8
0
 10
257.954697
 20
445.457653
 42
0.041110
  0
VERTEX
  8
0
 10
234.790482
 20
443.079762
 42
0.059957
  0
VERTEX
  8
0
 10
215.233674
 20
436.939183
 42
0.000000
  0
VERTEX
  8
0
 10
208.967347
 20
434.110625
 42
0.000000
  0
VERTEX
  8
0
 10
200.733674
 20
439.217241
 42
-0.000514
  0
VERTEX
  8
0
 10
197.178722
 20
441.427125
 42
-0.000396
  0
VERTEX
  8
0
 10
193.303017
 20
443.846189
 42
-0.000400
  0
VERTEX
  8
0
 10
189.683444
 20
446.113396
 42
-0.000954
  0
VERTEX
  8
0
 10
187.000000
 20
447.804372
 42
-0.051775
  0
VERTEX
  8
0
 10
177.352044
 20
455.411345
 42
-0.024203
  0
VERTEX
  8
0
 10
166.477706
 20
467.054185
 42
-0.022124
  0
VERTEX
  8
0
 10
155.362508
 20
481.416065
 42
-0.018760
  0
VERTEX
  8
0
 10
144.896170
 20
497.500000
 42
0.003811
  0
VERTEX
  8
0
 10
142.063567
 20
502.151398
 42
0.005605
  0
VERTEX
  8
0
 10
139.498145
 20
506.190814
 42
0.002793
  0
VERTEX
  8
0
 10
137.269212
 20
509.573489
 42
0.099450
  0
VERTEX
  8
0
 10
136.606610
 20
510.234687
 42
0.119462
  0
VERTEX
  8
0
 10
134.817216
 20
510.884409
 42
0.129777
  0
VERTEX
  8
0
 10
132.988235
 20
510.612447
 42
0.084929
  0
VERTEX
  8
0
 10
130.954671
 20
509.294100
 42
0.028763
  0
SEQEND
  0
POLYLINE
  8
0
 66
1
 70
1
  0
VERTEX
  8
0
 10
141.453114
 20
484.000000
 42
0.019322
  0
VERTEX
  8
0
 10
151.919276
 20
469.073801
 42
0.023924
  0
VERTEX
  8
0
 10
162.827773
 20
456.070217
 42
0.026362
  0
VERTEX
  8
0
 10
173.730678
 20
445.450495
 42
0.042422
  0
VERTEX
  8
0
 10
184.169014
 20
437.763774
 42
-0.004648
  0
VERTEX
  8
0
 10
191.816162
 20
432.977516
 42
-0.005368
  0
VERTEX
  8
0
 10
199.011751
 20
428.270704
 42
-0.005341
  0
VERTEX
  8
0
 10
205.042102
 20
424.139030
 42
-0.022753
  0
VERTEX
  8
0
 10
208.500000
 20
421.472648
 42
-0.008603
  0
VERTEX
  8
0
 10
210.375859
 20
419.828811
 42
-0.141920
  0
VERTEX
  8
0
 10
210.807936
 20
419.127325
 42
-0.297701
  0
VERTEX
  8
0
 10
210.623915
 20
418.550045
 42
-0.039805
  0
VERTEX
  8
0
 10
209.520045
 20
417.788433
 42
0.031043
  0
VERTEX
  8
0
 10
208.509150
 20
417.116772
 42
0.008390
  0
VERTEX
  8
0
 10
206.995463
 20
415.929097
 42
0.008461
  0
VERTEX
  8
0
 10
205.319202
 20
414.520076
 42
0.008681
  0
VERTEX
  8
0
 10
203.706086
 20
413.066921
 42
0.000000
  0
VERTEX
  8
0
 10
199.872082
 20
409.490600
 42
0.000000
  0
VERTEX
  8
0
 10
189.186041
 20
419.995300
 42
0.012748
  0
VERTEX
  8
0
 10
184.002719
 20
424.837108
 42
0.008111
  0
VERTEX
  8
0
 10
177.739198
 20
430.216748
 42
0.008035
  0
VERTEX
  8
0
 10
171.188301
 20
435.485425
 42
0.011004
  0
VERTEX
  8
0
 10
165.115384
 20
440.000000
 42
-0.009755
  0
VERTEX
  8
0
 10
159.335375
 20
444.274456
 42
-0.009211
  0
VERTEX
  8
0
 10
153.613230
 20
448.851740
 42
-0.009586
  0
VERTEX
  8
0
 10
148.575018
 20
453.202318
 42
-0.022030
  0
VERTEX
  8
0
 10
144.997981
 20
456.709322
 42
-0.030530
  0
VERTEX
  8
0
 10
140.039034
 20
462.715381
 42
-0.023270
  0
VERTEX
  8
0
 10
135.345454
 20
469.838561
 42
-0.023657
  0
VERTEX
  8
0
 10
131.454589
 20
477.154655
 42
-0.038507
  0
VERTEX
  8
0
 10
128.948235
 20
483.723578
 42
-0.022411
  0
VERTEX
  8
0
 10
128.303443
 20
486.327883
 42
-0.093819
  0
VERTEX
  8
0
 10
128.286090
 20
487.934597
 42
-0.085481
  0
VERTEX
  8
0
 10
128.855830
 20
489.510863
 42
-0.016806
  0
VERTEX
  8
0
 10
130.437813
 20
492.085394
 42
-0.021014
  0
VERTEX
  8
0
 10
131.541984
 20
493.610576
 42
-0.037108
  0
VERTEX
  8
0
 10
132.592778
 20
494.754865
 42
-0.046938
  0
VERTEX
  8
0
 10
133.461789
 20
495.429276
 42
-0.370591
  0
VERTEX
  8
0
 10
133.928233
 20
495.361816
 42
-0.032251
  0
VERTEX
  8
0
 10
134.429612
 20
494.706220
 42
-0.000859
  0
VERTEX
  8
0
 10
136.448811
 20
491.668783
 42
-0.001794
  0
VERTEX
  8
0
 10
138.803363
 20
488.085786
 42
-0.001227
  0
SEQEND
  0
POLYLINE
  8
0
 66
1
 70
1
  0
VERTEX
  8
0
 10
382.051677
 20
491.416385
 42
-0.023068
  0
VERTEX
  8
0
 10
383.237236
 20
489.284125
 42
-0.080388
  0
VERTEX
  8
0
 10
383.702622
 20
487.784370
 42
-0.082737
  0
VERTEX
  8
0
 10
383.664498
 20
486.237563
 42
-0.025345
  0
VERTEX
  8
0
 10
383.105990
 20
483.959425
 42
-0.077443
  0
VERTEX
  8
0
 10
378.979822
 20
475.322426
 42
-0.031651
  0
VERTEX
  8
0
 10
370.947433
 20
465.047965
 42
-0.029783
  0
VERTEX
  8
0
 10
360.562578
 20
454.683099
 42
-0.029606
  0
VERTEX
  8
0
 10
349.000000
 20
445.603405
 42
0.028497
  0
VERTEX
  8
0
 10
340.383048
 20
438.867637
 42
0.017743
  0
VERTEX
  8
0
 10
331.048702
 20
430.067723
 42
0.017578
  0
VERTEX
  8
0
 10
322.773872
 20
421.081809
 42
0.046891
  0
VERTEX
  8
0
 10
317.749243
 20
413.974080
 42
0.000000
  0
VERTEX
  8
0
 10
313.998485
 20
407.448160
 42
0.000000
  0
VERTEX
  8
0
 10
307.834732
 20
413.313390
 42
-0.012723
  0
VERTEX
  8
0
 10
305.540945
 20
415.610084
 42
-0.021908
  0
VERTEX
  8
0
 10
303.768130
 20
417.649786
 42
-0.018385
  0
VERTEX
  8
0
 10
302.545334
 20
419.309614
 42
-0.415047
  0
VERTEX
  8
0
 10
302.646465
 20
419.839310
 42
0.014130
  0
VERTEX
  8
0
 10
311.725777
 20
426.370331
 42
0.002049
  0
VERTEX
  8
0
 10
329.779545
 20
440.264786
 42
0.001612
  0
VERTEX
  8
0
 10
347.985273
 20
454.489622
 42
0.022319
  0
VERTEX
  8
0
 10
354.313594
 20
459.941249
 42
0.023336
  0
VERTEX
  8
0
 10
360.369751
 20
466.207006
 42
0.017291
  0
VERTEX
  8
0
 10
366.481298
 20
473.655091
 42
0.017446
  0
VERTEX
  8
0
 10
371.975538
 20
481.388954
 42
0.026400
  0
VERTEX
  8
0
 10
376.148440
 20
488.510885
 42
-0.001898
  0
VERTEX
  8
0
 10
377.445580
 20
490.996300
 42
-0.003113
  0
VERTEX
  8
0
 10
378.564959
 20
493.089685
 42
-0.000445
  0
VERTEX
  8
0
 10
379.569084
 20
494.935815
 42
-0.268646
  0
VERTEX
  8
0
 10
379.668441
 20
494.996301
 42
-0.255434
  0
VERTEX
  8
0
 10
379.770519
 20
494.943389
 42
-0.001264
  0
VERTEX
  8
0
 10
380.437998
 20
493.946227
 42
-0.005217
  0
VERTEX
  8
0
 10
381.190446
 20
492.789984
 42
-0.003227
  0
SEQEND
  0
POLYLINE
  8
0
 66
1
 70
1
  0
VERTEX
  8
0
 10
398.008600
 20
453.047549
 42
-0.025263
  0
VERTEX
  8
0
 10
402.589862
 20
433.033111
 42
-0.020589
  0
VERTEX
  8
0
 10
405.512637
 20
411.242289
 42
-0.019638
  0
VERTEX
  8
0
 10
406.733598
 20
388.178179
 42
-0.017851
  0
VERTEX
  8
0
 10
406.207122
 20
364.339995
 42
-0.001852
  0
VERTEX
  8
0
 10
405.717557
 20
356.387671
 42
-0.002988
  0
VERTEX
  8
0
 10
405.235122
 20
349.619987
 42
-0.000540
  0
VERTEX
  8
0
 10
404.767811
 20
343.657762
 42
-0.178382
  0
VERTEX
  8
0
 10
404.576480
 20
343.243147
 42
-0.374695
  0
VERTEX
  8
0
 10
404.223146
 20
343.218944
 42
-0.002500
  0
VERTEX
  8
0
 10
401.583923
 20
345.240393
 42
-0.007907
  0
VERTEX
  8
0
 10
398.536590
 20
347.676709
 42
-0.004777
  0
VERTEX
  8
0
 10
395.000596
 20
350.653826
 42
0.000000
  0
VERTEX
  8
0
 10
385.860206
 20
358.500000
 42
0.000000
  0
VERTEX
  8
0
 10
391.276518
 20
359.000000
 42
0.032132
  0
VERTEX
  8
0
 10
395.302861
 20
359.634472
 42
0.087751
  0
VERTEX
  8
0
 10
397.953118
 20
360.741231
 42
0.130261
  0
VERTEX
  8
0
 10
399.455136
 20
362.382617
 42
0.121094
  0
VERTEX
  8
0
 10
400.000000
 20
364.599392
 42
0.169871
  0
VERTEX
  8
0
 10
399.248665
 20
366.747071
 42
0.095338
  0
VERTEX
  8
0
 10
397.123515
 20
368.564984
 42
0.038423
  0
VERTEX
  8
0
 10
392.765398
 20
370.620570
 42
0.005180
  0
VERTEX
  8
0
 10
383.263452
 20
374.127408
 42
-0.003954
  0
VERTEX
  8
0
 10
378.571161
 20
375.846108
 42
-0.006428
  0
VERTEX
  8
0
 10
374.617439
 20
377.388124
 42
-0.001768
  0
VERTEX
  8
0
 10
371.228024
 20
378.774479
 42
-0.297352
  0
VERTEX
  8
0
 10
371.013452
 20
379.087482
 42
-0.208625
  0
VERTEX
  8
0
 10
371.169740
 20
379.469369
 42
-0.001683
  0
VERTEX
  8
0
 10
373.574264
 20
381.789896
 42
-0.005677
  0
VERTEX
  8
0
 10
376.396815
 20
384.434724
 42
-0.003576
  0
VERTEX
  8
0
 10
379.750000
 20
387.462215
 42
0.010968
  0
VERTEX
  8
0
 10
386.211497
 20
393.471847
 42
0.067958
  0
VERTEX
  8
0
 10
388.997326
 20
397.032055
 42
0.167577
  0
VERTEX
  8
0
 10
389.525098
 20
399.687466
 42
0.163824
  0
VERTEX
  8
0
 10
388.311607
 20
402.132837
 42
0.000000
  0
VERTEX
  8
0
 10
386.221947
 20
404.222498
 42
0.000000
  0
VERTEX
  8
0
 10
360.860973
 20
399.011708
 42
0.002032
  0
VERTEX
  8
0
 10
351.015568
 20
396.947085
 42
0.003043
  0
VERTEX
  8
0
 10
342.435723
 20
395.056742
 42
0.001270
  0
VERTEX
  8
0
 10
335.109441
 20
393.376203
 42
0.065835
  0
VERTEX
  8
0
 10
333.750000
 20
392.865275
 42
0.222401
  0
VERTEX
  8
0
 10
332.241152
 20
390.847738
 42
0.127939
  0
VERTEX
  8
0
 10
332.396035
 20
387.755161
 42
0.121675
  0
VERTEX
  8
0
 10
334.060130
 20
385.020724
 42
0.198014
  0
VERTEX
  8
0
 10
336.536481
 20
384.000000
 42
0.046620
  0
VERTEX
  8
0
 10
337.529061
 20
384.092750
 42
0.001352
  0
VERTEX
  8
0
 10
341.685651
 20
384.888050
 42
0.002715
  0
VERTEX
  8
0
 10
346.574830
 20
385.864807
 42
0.001866
  0
VERTEX
  8
0
 10
352.108569
 20
387.023149
 42
-0.002800
  0
VERTEX
  8
0
 10
357.570610
 20
388.155829
 42
-0.004534
  0
VERTEX
  8
0
 10
362.229472
 20
389.050887
 42
-0.000983
  0
VERTEX
  8
0
 10
366.310262
 20
389.788299
 42
-0.245302
  0
VERTEX
  8
0
 10
366.652520
 20
389.680814
 42
-0.401413
  0
VERTEX
  8
0
 10
366.658580
 20
389.404757
 42
-0.004634
  0
VERTEX
  8
0
 10
365.292374
 20
387.940480
 42
-0.010824
  0
VERTEX
  8
0
 10
363.595133
 20
386.230571
 42
-0.006481
  0
VERTEX
  8
0
 10
361.509002
 20
384.269508
 42
0.038738
  0
VERTEX
  8
0
 10
356.900462
 20
379.340551
 42
0.221607
  0
VERTEX
  8
0
 10
356.077304
 20
375.950607
 42
0.225096
  0
VERTEX
  8
0
 10
358.146612
 20
373.175737
 42
0.039912
  0
VERTEX
  8
0
 10
364.263719
 20
370.535651
 42
0.000000
  0
VERTEX
  8
0
 10
369.803138
 20
368.652744
 42
0.000000
  0
VERTEX
  8
0
 10
367.748328
 20
365.873466
 42
0.130623
  0
VERTEX
  8
0
 10
366.724529
 20
363.286684
 42
0.192706
  0
VERTEX
  8
0
 10
367.353387
 20
360.957063
 42
0.060078
  0
VERTEX
  8
0
 10
370.287658
 20
357.896980
 42
0.004844
  0
VERTEX
  8
0
 10
379.000000
 20
350.899325
 42
-0.016349
  0
VERTEX
  8
0
 10
389.410487
 20
342.136243
 42
-0.009374
  0
VERTEX
  8
0
 10
401.408798
 20
330.933313
 42
-0.009342
  0
VERTEX
  8
0
 10
412.684365
 20
319.586230
 42
-0.021168
  0
VERTEX
  8
0
 10
420.673308
 20
310.500000
 42
-0.014980
  0
VERTEX
  8
0
 10
425.170806
 20
304.570748
 42
-0.014791
  0
VERTEX
  8
0
 10
429.325123
 20
298.358074
 42
-0.015563
  0
VERTEX
  8
0
 10
432.734848
 20
292.521166
 42
-0.034206
  0
VERTEX
  8
0
 10
434.884907
 20
287.823002
 42
-0.123352
  0
VERTEX
  8
0
 10
435.035046
 20
286.527034
 42
-0.444252
  0
VERTEX
  8
0
 10
434.430356
 20
286.109300
 42
-0.049463
  0
VERTEX
  8
0
 10
432.440380
 20
286.791879
 42
-0.001896
  0
VERTEX
  8
0
 10
425.343665
 20
290.073002
 42
0.009110
  0
VERTEX
  8
0
 10
418.218649
 20
293.243271
 42
0.043412
  0
VERTEX
  8
0
 10
413.983187
 20
294.617109
 42
0.086856
  0
VERTEX
  8
0
 10
411.189071
 20
294.767050
 42
0.167987
  0
VERTEX
  8
0
 10
409.200000
 20
293.800000
 42
0.138105
  0
VERTEX
  8
0
 10
408.213724
 20
292.040595
 42
0.110349
  0
VERTEX
  8
0
 10
408.177398
 20
289.858271
 42
0.079920
  0
VERTEX
  8
0
 10
409.153995
 20
287.284544
 42
0.039298
  0
VERTEX
  8
0
 10
411.139039
 20
284.387505
 42
-0.028655
  0
VERTEX
  8
0
 10
420.248996
 20
271.680212
 42
-0.020307
  0
VERTEX
  8
0
 10
429.031311
 20
256.485686
 42
-0.020576
  0
VERTEX
  8
0
 10
436.236135
 20
241.273542
 42
-0.041230
  0
VERTEX
  8
0
 10
440.400791
 20
228.654118
 42
0.000000
  0
VERTEX
  8
0
 10
441.086234
 20
225.808235
 42
0.000000
  0
VERTEX
  8
0
 10
436.293117
 20
229.750523
 42
0.018552
  0
VERTEX
  8
0
 10
433.959827
 20
231.528736
 42
0.008965
  0
VERTEX
  8
0
 10
430.851728
 20
233.637689
 42
0.008877
  0
VERTEX
  8
0
 10
427.530281
 20
235.722345
 42
0.012604
  0
VERTEX
  8
0
 10
424.500000
 20
237.447450
 42
-0.026955
  0
VERTEX
  8
0
 10
411.869415
 20
245.125820
 42
-0.029192
  0
VERTEX
  8
0
 10
400.485889
 20
253.933055
 42
-0.030012
  0
VERTEX
  8
0
 10
390.494360
 20
263.755389
 42
-0.032400
  0
VERTEX
  8
0
 10
382.022780
 20
274.467013
 42
0.024312
  0
VERTEX
  8
0
 10
374.246569
 20
284.632874
 42
0.037342
  0
VERTEX
  8
0
 10
366.485539
 20
292.537159
 42
0.039146
  0
VERTEX
  8
0
 10
357.923577
 20
298.933788
 42
0.030553
  0
VERTEX
  8
0
 10
347.744136
 20
304.525303
 42
0.035728
  0
VERTEX
  8
0
 10
336.769513
 20
308.779282
 42
0.055622
  0
VERTEX
  8
0
 10
326.811918
 20
310.665766
 42
0.063515
  0
VERTEX
  8
0
 10
317.716307
 20
310.203720
 42
0.069461
  0
VERTEX
  8
0
 10
309.319019
 20
307.455256
 42
0.072987
  0
VERTEX
  8
0
 10
303.208057
 20
303.267962
 42
0.071768
  0
VERTEX
  8
0
 10
298.517175
 20
297.479708
 42
0.062310
  0
VERTEX
  8
0
 10
295.181386
 20
289.873683
 42
0.037841
  0
VERTEX
  8
0
 10
293.100246
 20
280.260816
 42
-0.016922
  0
VERTEX
  8
0
 10
292.573769
 20
277.219305
 42
-0.010197
  0
VERTEX
  8
0
 10
291.754802
 20
273.651449
 42
-0.010208
  0
VERTEX
  8
0
 10
290.794993
 20
270.134738
 42
-0.017562
  0
VERTEX
  8
0
 10
289.834280
 20
267.254754
 42
0.011301
  0
VERTEX
  8
0
 10
288.726153
 20
264.066412
 42
0.039816
  0
VERTEX
  8
0
 10
288.226850
 20
261.955882
 42
0.065195
  0
VERTEX
  8
0
 10
288.192695
 20
260.438771
 42
0.113414
  0
VERTEX
  8
0
 10
288.602965
 20
259.254754
 42
0.152667
  0
VERTEX
  8
0
 10
290.206461
 20
257.881017
 42
0.074237
  0
VERTEX
  8
0
 10
292.841350
 20
257.188021
 42
0.080563
  0
VERTEX
  8
0
 10
295.352775
 20
257.318223
 42
0.253163
  0
VERTEX
  8
0
 10
296.592546
 20
258.380574
 42
-0.181147
  0
VERTEX
  8
0
 10
297.232786
 20
259.103500
 42
-0.073258
  0
VERTEX
  8
0
 10
298.493485
 20
259.551325
 42
-0.040666
  0
VERTEX
  8
0
 10
300.554636
 20
259.786849
 42
-0.010474
  0
VERTEX
  8
0
 10
303.905970
 20
259.825521
 42
0.016693
  0
VERTEX
  8
0
 10
309.329132
 20
259.955562
 42
0.032367
  0
VERTEX
  8
0
 10
313.630383
 20
260.483235
 42
0.037401
  0
VERTEX
  8
0
 10
317.393006
 20
261.490408
 42
0.033058
  0
VERTEX
  8
0
 10
321.128213
 20
263.080230
 42
0.063826
  0
VERTEX
  8
0
 10
324.891831
 20
265.632886
 42
0.035281
  0
VERTEX
  8
0
 10
328.792085
 20
269.600715
 42
0.035288
  0
VERTEX
  8
0
 10
332.093522
 20
274.074632
 42
0.064189
  0
VERTEX
  8
0
 10
334.013163
 20
278.184331
 42
-0.024540
  0
VERTEX
  8
0
 10
334.708341
 20
280.043335
 42
-0.017259
  0
VERTEX
  8
0
 10
335.662530
 20
282.062623
 42
-0.017466
  0
VERTEX
  8
0
 10
336.712527
 20
283.935898
 42
-0.034587
  0
VERTEX
  8
0
 10
337.694895
 20
285.326725
 42
0.019243
  0
VERTEX
  8
0
 10
339.390241
 20
287.577235
 42
0.132571
  0
VERTEX
  8
0
 10
339.852183
 20
288.868597
 42
0.159863
  0
VERTEX
  8
0
 10
339.555288
 20
290.097151
 42
0.031636
  0
VERTEX
  8
0
 10
338.226863
 20
291.968163
 42
0.207677
  0
VERTEX
  8
0
 10
333.943885
 20
294.201227
 42
0.039682
  0
VERTEX
  8
0
 10
324.964310
 20
294.127163
 42
0.041816
  0
VERTEX
  8
0
 10
315.368220
 20
292.468544
 42
0.078275
  0
VERTEX
  8
0
 10
308.163236
 20
289.328759
 42
-0.042510
  0
VERTEX
  8
0
 10
306.086030
 20
288.241456
 42
-0.457506
  0
VERTEX
  8
0
 10
305.336150
 20
288.613822
 42
-0.193149
  0
VERTEX
  8
0
 10
305.510679
 20
289.950269
 42
-0.018289
  0
VERTEX
  8
0
 10
307.264424
 20
292.823385
 42
-0.104080
  0
VERTEX
  8
0
 10
311.769225
 20
297.268944
 42
-0.080600
  0
VERTEX
  8
0
 10
318.105508
 20
300.026771
 42
-0.072516
  0
VERTEX
  8
0
 10
325.629645
 20
300.818853
 42
-0.060403
  0
VERTEX
  8
0
 10
333.574977
 20
299.532147
 42
-0.029557
  0
VERTEX
  8
0
 10
338.803671
 20
297.680757
 42
-0.015255
  0
VERTEX
  8
0
 10
345.113426
 20
294.787649
 42
-0.014902
  0
VERTEX
  8
0
 10
351.035593
 20
291.627168
 42
-0.043654
  0
VERTEX
  8
0
 10
354.831270
 20
288.989679
 42
0.000000
  0
VERTEX
  8
0
 10
357.162540
 20
287.047798
 42
0.000000
  0
VERTEX
  8
0
 10
353.656147
 20
279.773899
 42
-0.023418
  0
VERTEX
  8
0
 10
349.570864
 20
272.224461
 42
-0.021369
  0
VERTEX
  8
0
 10
344.679388
 20
264.848456
 42
-0.022305
  0
VERTEX
  8
0
 10
339.602710
 20
258.478672
 42
-0.046131
  0
VERTEX
  8
0
 10
334.998643
 20
254.093161
 42
-0.062714
  0
VERTEX
  8
0
 10
327.113482
 20
249.327577
 42
-0.085002
  0
VERTEX
  8
0
 10
319.062200
 20
247.282296
 42
-0.083109
  0
VERTEX
  8
0
 10
310.651295
 20
248.013044
 42
-0.057199
  0
VERTEX
  8
0
 10
301.701076
 20
251.451337
 42
0.007960
  0
VERTEX
  8
0
 10
298.992911
 20
252.810442
 42
0.010495
  0
VERTEX
  8
0
 10
296.479855
 20
253.957580
 42
0.008148
  0
VERTEX
  8
0
 10
294.356369
 20
254.832778
 42
0.093935
  0
VERTEX
  8
0
 10
293.474129
 20
255.000000
 42
0.195885
  0
VERTEX
  8
0
 10
291.993850
 20
254.396930
 42
0.058163
  0
VERTEX
  8
0
 10
290.425124
 20
252.460422
 42
0.057982
  0
VERTEX
  8
0
 10
289.331588
 20
250.189838
 42
0.176655
  0
VERTEX
  8
0
 10
289.359739
 20
248.504918
 42
0.149183
  0
VERTEX
  8
0
 10
290.998333
 20
246.404863
 42
0.023615
  0
VERTEX
  8
0
 10
295.467012
 20
243.573235
 42
0.026129
  0
VERTEX
  8
0
 10
300.885081
 20
240.852757
 42
0.029373
  0
VERTEX
  8
0
 10
306.352885
 20
238.829787
 42
0.106213
  0
VERTEX
  8
0
 10
321.334879
 20
237.568330
 42
0.103190
  0
VERTEX
  8
0
 10
335.685132
 20
242.536367
 42
0.085377
  0
VERTEX
  8
0
 10
348.907866
 20
253.885113
 42
0.050160
  0
VERTEX
  8
0
 10
360.551347
 20
271.239685
 42
0.000000
  0
VERTEX
  8
0
 10
363.760058
 20
277.245228
 42
0.000000
  0
VERTEX
  8
0
 10
366.791798
 20
269.372614
 42
-0.052212
  0
VERTEX
  8
0
 10
372.263615
 20
249.070612
 42
-0.075253
  0
VERTEX
  8
0
 10
372.425417
 20
230.498579
 42
-0.082885
  0
VERTEX
  8
0
 10
367.215112
 20
214.057941
 42
-0.080335
  0
VERTEX
  8
0
 10
356.908733
 20
200.000000
 42
-0.023024
  0
VERTEX
  8
0
 10
351.331218
 20
194.990361
 42
-0.028322
  0
VERTEX
  8
0
 10
345.675468
 20
190.874092
 42
-0.025974
  0
VERTEX
  8
0
 10
339.200108
 20
187.161581
 42
-0.015143
  0
VERTEX
  8
0
 10
331.092750
 20
183.361057
 42
-0.012906
  0
VERTEX
  8
0
 10
322.338739
 20
179.841618
 42
-0.218590
  0
VERTEX
  8
0
 10
319.313138
 20
180.065800
 42
-0.195739
  0
VERTEX
  8
0
 10
317.331149
 20
182.517571
 42
-0.010135
  0
VERTEX
  8
0
 10
314.536409
 20
192.500000
 42
0.016587
  0
VERTEX
  8
0
 10
310.021974
 20
207.858838
 42
0.015321
  0
VERTEX
  8
0
 10
304.390052
 20
223.302348
 42
0.010796
  0
VERTEX
  8
0
 10
298.704182
 20
236.678918
 42
0.141558
  0
VERTEX
  8
0
 10
295.250000
 20
240.740452
 42
0.032644
  0
VERTEX
  8
0
 10
293.904397
 20
241.510039
 42
0.121977
  0
VERTEX
  8
0
 10
292.958681
 20
241.713097
 42
0.112160
  0
VERTEX
  8
0
 10
291.983601
 20
241.459295
 42
0.025510
  0
VERTEX
  8
0
 10
290.500000
 20
240.591957
 42
0.046612
  0
VERTEX
  8
0
 10
289.543592
 20
239.829250
 42
0.045236
  0
VERTEX
  8
0
 10
288.734375
 20
238.895427
 42
0.048818
  0
VERTEX
  8
0
 10
288.178829
 20
237.938648
 42
0.107538
  0
VERTEX
  8
0
 10
288.000000
 20
237.116794
 42
0.083807
  0
VERTEX
  8
0
 10
288.192156
 20
235.978429
 42
0.007551
  0
VERTEX
  8
0
 10
289.185525
 20
233.253279
 42
0.009645
  0
VERTEX
  8
0
 10
290.490192
 20
230.023841
 42
0.007389
  0
VERTEX
  8
0
 10
292.035829
 20
226.544160
 42
-0.018361
  0
VERTEX
  8
0
 10
296.056471
 20
216.929300
 42
-0.009528
  0
VERTEX
  8
0
 10
300.400312
 20
204.661065
 42
-0.009528
  0
VERTEX
  8
0
 10
304.282531
 20
192.207477
 42
-0.017955
  0
VERTEX
  8
0
 10
306.858780
 20
182.000000
 42
-0.024752
  0
VERTEX
  8
0
 10
309.585285
 20
165.298915
 42
-0.027646
  0
VERTEX
  8
0
 10
310.515231
 20
149.017398
 42
-0.029485
  0
VERTEX
  8
0
 10
309.714183
 20
135.022309
 42
-0.089139
  0
VERTEX
  8
0
 10
306.958423
 20
125.918503
 42
-0.049252
  0
VERTEX
  8
0
 10
304.313609
 20
121.793750
 42
-0.034037
  0
VERTEX
  8
0
 10
300.585508
 20
117.683145
 42
-0.034087
  0
VERTEX
  8
0
 10
296.343777
 20
114.125151
 42
-0.050161
  0
VERTEX
  8
0
 10
292.149166
 20
111.669853
 42
-0.067089
  0
VERTEX
  8
0
 10
287.183680
 20
110.159056
 42
-0.031593
  0
VERTEX
  8
0
 10
280.498137
 20
109.500299
 42
-0.030588
  0
VERTEX
  8
0
 10
274.032675
 20
109.669112
 42
-0.106793
  0
VERTEX
  8
0
 10
270.068491
 20
110.895550
 42
-0.049998
  0
VERTEX
  8
0
 10
268.779502
 20
111.801699
 42
-0.417180
  0
VERTEX
  8
0
 10
268.735967
 20
112.443799
 42
-0.101956
  0
VERTEX
  8
0
 10
269.681765
 20
113.155111
 42
-0.003874
  0
VERTEX
  8
0
 10
273.705553
 20
115.019386
 42
0.055840
  0
VERTEX
  8
0
 10
281.353180
 20
119.579583
 42
0.076239
  0
VERTEX
  8
0
 10
286.926310
 20
125.334401
 42
0.081140
  0
VERTEX
  8
0
 10
290.284405
 20
132.193993
 42
0.073739
  0
VERTEX
  8
0
 10
291.433157
 20
140.000000
 42
0.044392
  0
VERTEX
  8
0
 10
290.937421
 20
145.504133
 42
0.065543
  0
VERTEX
  8
0
 10
289.462407
 20
150.117577
 42
0.061800
  0
VERTEX
  8
0
 10
286.766535
 20
154.381555
 42
0.034727
  0
VERTEX
  8
0
 10
282.553984
 20
158.843474
 42
0.036146
  0
VERTEX
  8
0
 10
277.007427
 20
163.259933
 42
0.068733
  0
VERTEX
  8
0
 10
271.912748
 20
165.802777
 42
0.059572
  0
VERTEX
  8
0
 10
265.843726
 20
167.075348
 42
0.021349
  0
VERTEX
  8
0
 10
257.000000
 20
167.473528
 42
0.006489
  0
VERTEX
  8
0
 10
250.269853
 20
167.401681
 42
0.031575
  0
VERTEX
  8
0
 10
246.471622
 20
167.071236
 42
0.046315
  0
VERTEX
  8
0
 10
243.456940
 20
166.325578
 42
0.025889
  0
VERTEX
  8
0
 10
239.954369
 20
164.898887
 42
0.052720
  0
VERTEX
  8
0
 10
232.196018
 20
160.206918
 42
0.074331
  0
VERTEX
  8
0
 10
226.560431
 20
154.431573
 42
0.080607
  0
VERTEX
  8
0
 10
223.168034
 20
147.651016
 42
0.075903
  0
VERTEX
  8
0
 10
222.000000
 20
140.001125
 42
0.020293
  0
VERTEX
  8
0
 10
222.104430
 20
137.429075
 42
0.017007
  0
VERTEX
  8
0
 10
222.418224
 20
134.716511
 42
0.017343
  0
VERTEX
  8
0
 10
222.875916
 20
132.255324
 42
0.044337
  0
VERTEX
  8
0
 10
223.423742
 20
130.528268
 42
0.064591
  0
VERTEX
  8
0
 10
225.835784
 20
126.361877
 42
0.036000
  0
VERTEX
  8
0
 10
229.733895
 20
121.968642
 42
0.035163
  0
VERTEX
  8
0
 10
234.407199
 20
118.010140
 42
0.046282
  0
VERTEX
  8
0
 10
239.196923
 20
115.139163
 42
0.000000
  0
VERTEX
  8
0
 10
245.124489
 20
112.294206
 42
0.000000
  0
VERTEX
  8
0
 10
241.812244
 20
110.897103
 42
-0.075385
  0
VERTEX
  8
0
 10
237.240283
 20
109.736157
 42
-0.033529
  0
VERTEX
  8
0
 10
231.009477
 20
109.541984
 42
-0.033532
  0
VERTEX
  8
0
 10
224.704777
 20
110.193155
 42
-0.064241
  0
VERTEX
  8
0
 10
219.850834
 20
111.685416
 42
-0.050544
  0
VERTEX
  8
0
 10
215.667497
 20
114.122860
 42
-0.034101
  0
VERTEX
  8
0
 10
211.427388
 20
117.670732
 42
-0.034047
  0
VERTEX
  8
0
 10
207.698886
 20
121.772151
 42
-0.049539
  0
VERTEX
  8
0
 10
205.059807
 20
125.882769
 42
-0.088470
  0
VERTEX
  8
0
 10
202.278179
 20
135.028202
 42
-0.030008
  0
VERTEX
  8
0
 10
201.458234
 20
148.959978
 42
-0.027959
  0
VERTEX
  8
0
 10
202.386566
 20
165.196003
 42
-0.024614
  0
VERTEX
  8
0
 10
205.127713
 20
181.943425
 42
-0.017885
  0
VERTEX
  8
0
 10
207.717267
 20
192.203797
 42
-0.009594
  0
VERTEX
  8
0
 10
211.604788
 20
204.674998
 42
-0.009594
  0
VERTEX
  8
0
 10
215.958330
 20
216.960848
 42
-0.018265
  0
VERTEX
  8
0
 10
220.004077
 20
226.630536
 42
0.010463
  0
VERTEX
  8
0
 10
221.543757
 20
230.155046
 42
0.013596
  0
VERTEX
  8
0
 10
222.797405
 20
233.448142
 42
0.011257
  0
VERTEX
  8
0
 10
223.699313
 20
236.224997
 42
0.109326
  0
VERTEX
  8
0
 10
223.789906
 20
237.451192
 42
0.148468
  0
VERTEX
  8
0
 10
222.892789
 20
239.362628
 42
0.105048
  0
VERTEX
  8
0
 10
220.961880
 20
240.764178
 42
0.104910
  0
VERTEX
  8
0
 10
218.625662
 20
241.260860
 42
0.147701
  0
VERTEX
  8
0
 10
216.599090
 20
240.649800
 42
0.142710
  0
VERTEX
  8
0
 10
213.268194
 20
236.704465
 42
0.009883
  0
VERTEX
  8
0
 10
207.569193
 20
223.145052
 42
0.014646
  0
VERTEX
  8
0
 10
201.940108
 20
207.667698
 42
0.016547
  0
VERTEX
  8
0
 10
197.472548
 20
192.500000
 42
-0.003017
  0
VERTEX
  8
0
 10
195.271854
 20
184.206968
 42
-0.042284
  0
VERTEX
  8
0
 10
194.214847
 20
181.310744
 42
-0.148232
  0
VERTEX
  8
0
 10
193.109879
 20
180.072986
 42
-0.156737
  0
VERTEX
  8
0
 10
191.529105
 20
179.691578
 42
-0.073944
  0
VERTEX
  8
0
 10
188.011092
 20
180.484963
 42
-0.009596
  0
VERTEX
  8
0
 10
180.866220
 20
183.410387
 42
-0.012069
  0
VERTEX
  8
0
 10
173.363568
 20
186.868980
 42
-0.020383
  0
VERTEX
  8
0
 10
167.276524
 20
190.169479
 42
-0.051798
  0
VERTEX
  8
0
 10
157.852539
 20
197.202359
 42
-0.046123
  0
VERTEX
  8
0
 10
149.662551
 20
206.280701
 42
-0.047206
  0
VERTEX
  8
0
 10
143.460200
 20
216.454514
 42
-0.062019
  0
VERTEX
  8
0
 10
139.946604
 20
226.737420
 42
-0.055172
  0
VERTEX
  8
0
 10
139.005375
 20
236.600324
 42
-0.030390
  0
VERTEX
  8
0
 10
139.924670
 20
248.697055
 42
-0.029629
  0
VERTEX
  8
0
 10
142.398970
 20
261.168702
 42
-0.037809
  0
VERTEX
  8
0
 10
146.203129
 20
272.250549
 42
0.000000
  0
VERTEX
  8
0
 10
148.285894
 20
277.092068
 42
0.000000
  0
VERTEX
  8
0
 10
152.168146
 20
269.937330
 42
0.060419
  0
VERTEX
  8
0
 10
165.531722
 20
251.132874
 42
0.107141
  0
VERTEX
  8
0
 10
180.953935
 20
240.150900
 42
0.125054
  0
VERTEX
  8
0
 10
197.805068
 20
237.491825
 42
0.101294
  0
VERTEX
  8
0
 10
215.376024
 20
242.815852
 42
0.020628
  0
VERTEX
  8
0
 10
217.351923
 20
243.993177
 42
0.019657
  0
VERTEX
  8
0
 10
219.257105
 20
245.347319
 42
0.020044
  0
VERTEX
  8
0
 10
220.843125
 20
246.675918
 42
0.063427
  0
VERTEX
  8
0
 10
221.741033
 20
247.727520
 42
0.032310
  0
VERTEX
  8
0
 10
222.510558
 20
249.085844
 42
0.121104
  0
VERTEX
  8
0
 10
222.713227
 20
250.037601
 42
0.112002
  0
VERTEX
  8
0
 10
222.458937
 20
251.015908
 42
0.025672
  0
VERTEX
  8
0
 10
221.591957
 20
252.500000
 42
0.085301
  0
VERTEX
  8
0
 10
219.932620
 20
254.280352
 42
0.187908
  0
VERTEX
  8
0
 10
218.173500
 20
254.784082
 42
0.087022
  0
VERTEX
  8
0
 10
215.608011
 20
254.084546
 42
0.010311
  0
VERTEX
  8
0
 10
210.298924
 20
251.451337
 42
-0.057199
  0
VERTEX
  8
0
 10
201.348705
 20
248.013044
 42
-0.083109
  0
VERTEX
  8
0
 10
192.937800
 20
247.282296
 42
-0.085002
  0
VERTEX
  8
0
 10
184.886518
 20
249.327577
 42
-0.062714
  0
VERTEX
  8
0
 10
177.001357
 20
254.093161
 42
-0.046131
  0
VERTEX
  8
0
 10
172.397290
 20
258.478672
 42
-0.022305
  0
VERTEX
  8
0
 10
167.320612
 20
264.848456
 42
-0.021369
  0
VERTEX
  8
0
 10
162.429136
 20
272.224461
 42
-0.023418
  0
VERTEX
  8
0
 10
158.343853
 20
279.773899
 42
0.000000
  0
VERTEX
  8
0
 10
154.837460
 20
287.047798
 42
0.000000
  0
VERTEX
  8
0
 10
157.168730
 20
288.996526
 42
-0.051345
  0
VERTEX
  8
0
 10
161.273741
 20
291.766844
 42
-0.013505
  0
VERTEX
  8
0
 10
168.374169
 20
295.320588
 42
-0.013918
  0
VERTEX
  8
0
 10
175.726962
 20
298.509371
 42
-0.043050
  0
VERTEX
  8
0
 10
180.900941
 20
300.083389
 42
-0.060070
  0
VERTEX
  8
0
 10
188.254024
 20
300.741624
 42
-0.068809
  0
VERTEX
  8
0
 10
195.205615
 20
299.561805
 42
-0.075828
  0
VERTEX
  8
0
 10
201.007141
 20
296.709908
 42
-0.102600
  0
VERTEX
  8
0
 10
205.013296
 20
292.478487
 42
-0.018549
  0
VERTEX
  8
0
 10
206.559273
 20
289.756208
 42
-0.212325
  0
VERTEX
  8
0
 10
206.632634
 20
288.554094
 42
-0.431421
  0
VERTEX
  8
0
 10
205.877765
 20
288.236082
 42
-0.037848
  0
VERTEX
  8
0
 10
203.836764
 20
289.328759
 42
0.078220
  0
VERTEX
  8
0
 10
196.979170
 20
292.318050
 42
0.037987
  0
VERTEX
  8
0
 10
187.547782
 20
294.024695
 42
0.035626
  0
VERTEX
  8
0
 10
178.541761
 20
294.311709
 42
0.175829
  0
VERTEX
  8
0
 10
173.915977
 20
292.423960
 42
0.063281
  0
VERTEX
  8
0
 10
172.523779
 20
290.800431
 42
0.160667
  0
VERTEX
  8
0
 10
172.123685
 20
289.319338
 42
0.125676
  0
VERTEX
  8
0
 10
172.649339
 20
287.648578
 42
0.032323
  0
VERTEX
  8
0
 10
174.305105
 20
285.326725
 42
-0.034587
  0
VERTEX
  8
0
 10
175.287473
 20
283.935898
 42
-0.017466
  0
VERTEX
  8
0
 10
176.337470
 20
282.062623
 42
-0.017259
  0
VERTEX
  8
0
 10
177.291659
 20
280.043335
 42
-0.024540
  0
VERTEX
  8
0
 10
177.986837
 20
278.184331
 42
0.064189
  0
VERTEX
  8
0
 10
179.906478
 20
274.074632
 42
0.035288
  0
VERTEX
  8
0
 10
183.207915
 20
269.600715
 42
0.035281
  0
VERTEX
  8
0
 10
187.108169
 20
265.632886
 42
0.063826
  0
VERTEX
  8
0
 10
190.871787
 20
263.080230
 42
0.033058
  0
VERTEX
  8
0
 10
194.606994
 20
261.490408
 42
0.037401
  0
VERTEX
  8
0
 10
198.369617
 20
260.483235
 42
0.032367
  0
VERTEX
  8
0
 10
202.670868
 20
259.955562
 42
0.016693
  0
VERTEX
  8
0
 10
208.094030
 20
259.825521
 42
-0.010474
  0
VERTEX
  8
0
 10
211.445364
 20
259.786849
 42
-0.040666
  0
VERTEX
  8
0
 10
213.506515
 20
259.551325
 42
-0.073258
  0
VERTEX
  8
0
 10
214.767214
 20
259.103500
 42
-0.181147
  0
VERTEX
  8
0
 10
215.407454
 20
258.380574
 42
0.253163
  0
VERTEX
  8
0
 10
216.647225
 20
257.318223
 42
0.080563
  0
VERTEX
  8
0
 10
219.158650
 20
257.188021
 42
0.074237
  0
VERTEX
  8
0
 10
221.793539
 20
257.881017
 42
0.152667
  0
VERTEX
  8
0
 10
223.397035
 20
259.254754
 42
0.113414
  0
VERTEX
  8
0
 10
223.807305
 20
260.438771
 42
0.065195
  0
VERTEX
  8
0
 10
223.773150
 20
261.955882
 42
0.039816
  0
VERTEX
  8
0
 10
223.273847
 20
264.066412
 42
0.011301
  0
VERTEX
  8
0
 10
222.165720
 20
267.254754
 42
-0.017562
  0
VERTEX
  8
0
 10
221.205007
 20
270.134738
 42
-0.010208
  0
VERTEX
  8
0
 10
220.245198
 20
273.651449
 42
-0.010197
  0
VERTEX
  8
0
 10
219.426231
 20
277.219305
 42
-0.016922
  0
VERTEX
  8
0
 10
218.899754
 20
280.260816
 42
0.037841
  0
VERTEX
  8
0
 10
216.818614
 20
289.873683
 42
0.062310
  0
VERTEX
  8
0
 10
213.482825
 20
297.479708
 42
0.071768
  0
VERTEX
  8
0
 10
208.791943
 20
303.267962
 42
0.072987
  0
VERTEX
  8
0
 10
202.680981
 20
307.455256
 42
0.069461
  0
VERTEX
  8
0
 10
194.283693
 20
310.203720
 42
0.063515
  0
VERTEX
  8
0
 10
185.188082
 20
310.665766
 42
0.055622
  0
VERTEX
  8
0
 10
175.230487
 20
308.779282
 42
0.035728
  0
VERTEX
  8
0
 10
164.255864
 20
304.525303
 42
0.030359
  0
VERTEX
  8
0
 10
154.258952
 20
299.039101
 42
0.037282
  0
VERTEX
  8
0
 10
145.702746
 20
292.706551
 42
0.036728
  0
VERTEX
  8
0
 10
138.081900
 20
285.090327
 42
0.028078
  0
VERTEX
  8
0
 10
130.889500
 20
275.748765
 42
-0.006597
  0
VERTEX
  8
0
 10
128.171398
 20
271.886066
 42
-0.005811
  0
VERTEX
  8
0
 10
125.236664
 20
267.927972
 42
-0.005847
  0
VERTEX
  8
0
 10
122.506652
 20
264.419985
 42
-0.017516
  0
VERTEX
  8
0
 10
120.531060
 20
262.112418
 42
-0.034414
  0
VERTEX
  8
0
 10
113.858687
 20
255.784350
 42
-0.014460
  0
VERTEX
  8
0
 10
104.089467
 20
248.183596
 42
-0.014551
  0
VERTEX
  8
0
 10
93.672217
 20
241.008000
 42
-0.027425
  0
VERTEX
  8
0
 10
84.811010
 20
235.943284
 42
0.021726
  0
VERTEX
  8
0
 10
82.821065
 20
234.835787
 42
0.010514
  0
VERTEX
  8
0
 10
80.371047
 20
233.257345
 42
0.010405
  0
VERTEX
  8
0
 10
77.883307
 20
231.503150
 42
0.014725
  0
VERTEX
  8
0
 10
75.750000
 20
229.832310
 42
-0.011474
  0
VERTEX
  8
0
 10
73.926772
 20
228.385103
 42
-0.022244
  0
VERTEX
  8
0
 10
72.395313
 20
227.329491
 42
-0.024929
  0
VERTEX
  8
0
 10
71.263094
 20
226.697408
 42
-0.556120
  0
VERTEX
  8
0
 10
71.000000
 20
226.860796
 42
-0.088129
  0
VERTEX
  8
0
 10
71.499043
 20
229.670129
 42
-0.004478
  0
VERTEX
  8
0
 10
74.784987
 20
238.385068
 42
-0.007962
  0
VERTEX
  8
0
 10
78.367658
 20
247.215027
 42
-0.016259
  0
VERTEX
  8
0
 10
81.511348
 20
254.000000
 42
-0.016348
  0
VERTEX
  8
0
 10
85.459360
 20
261.242394
 42
-0.008807
  0
VERTEX
  8
0
 10
90.768387
 20
269.913322
 42
-0.008781
  0
VERTEX
  8
0
 10
96.288261
 20
278.254951
 42
-0.019288
  0
VERTEX
  8
0
 10
100.860961
 20
284.387505
 42
0.039298
  0
VERTEX
  8
0
 10
102.846005
 20
287.284544
 42
0.079920
  0
VERTEX
  8
0
 10
103.822602
 20
289.858271
 42
0.110349
  0
VERTEX
  8
0
 10
103.786276
 20
292.040595
 42
0.138105
  0
VERTEX
  8
0
 10
102.800000
 20
293.800000
 42
0.163327
  0
VERTEX
  8
0
 10
100.860874
 20
294.764612
 42
0.088225
  0
VERTEX
  8
0
 10
98.166906
 20
294.661688
 42
0.045166
  0
VERTEX
  8
0
 10
94.134113
 20
293.394499
 42
0.009955
  0
VERTEX
  8
0
 10
87.488754
 20
290.469537
 42
-0.006846
  0
VERTEX
  8
0
 10
83.704182
 20
288.775583
 42
-0.010930
  0
VERTEX
  8
0
 10
80.420868
 20
287.443963
 42
-0.004970
  0
VERTEX
  8
0
 10
77.640694
 20
286.418075
 42
-0.289981
  0
VERTEX
  8
0
 10
77.135027
 20
286.531640
 42
-0.330277
  0
VERTEX
  8
0
 10
76.900506
 20
288.111116
 42
-0.008255
  0
VERTEX
  8
0
 10
80.646062
 20
294.853067
 42
-0.016400
  0
VERTEX
  8
0
 10
85.159861
 20
302.110478
 42
-0.017617
  0
VERTEX
  8
0
 10
90.038599
 20
308.880624
 42
-0.024412
  0
VERTEX
  8
0
 10
97.909023
 20
318.065536
 42
-0.009887
  0
VERTEX
  8
0
 10
109.473800
 20
329.824673
 42
-0.009955
  0
VERTEX
  8
0
 10
121.973412
 20
341.564159
 42
-0.016458
  0
VERTEX
  8
0
 10
133.035771
 20
350.905081
 42
0.004839
  0
VERTEX
  8
0
 10
141.714840
 20
357.894728
 42
0.059684
  0
VERTEX
  8
0
 10
144.646662
 20
360.955393
 42
0.191526
  0
VERTEX
  8
0
 10
145.280182
 20
363.278726
 42
0.131850
  0
VERTEX
  8
0
 10
144.270447
 20
365.848071
 42
0.000000
  0
VERTEX
  8
0
 10
142.234413
 20
368.601955
 42
0.000000
  0
VERTEX
  8
0
 10
148.573432
 20
370.875376
 42
0.051947
  0
VERTEX
  8
0
 10
154.136954
 20
373.550192
 42
0.235138
  0
VERTEX
  8
0
 10
155.984968
 20
376.517845
 42
0.204397
  0
VERTEX
  8
0
 10
154.845379
 20
380.097971
 42
0.039733
  0
VERTEX
  8
0
 10
149.917698
 20
384.972387
 42
-0.008325
  0
VERTEX
  8
0
 10
148.017220
 20
386.629810
 42
-0.013967
  0
VERTEX
  8
0
 10
146.484261
 20
388.091992
 42
-0.007636
  0
VERTEX
  8
0
 10
145.293111
 20
389.330719
 42
-0.404043
  0
VERTEX
  8
0
 10
145.298355
 20
389.631689
 42
-0.243995
  0
VERTEX
  8
0
 10
145.683990
 20
389.753842
 42
-0.001251
  0
VERTEX
  8
0
 10
149.756098
 20
389.036457
 42
-0.005122
  0
VERTEX
  8
0
 10
154.425980
 20
388.152250
 42
-0.003176
  0
VERTEX
  8
0
 10
159.891431
 20
387.023149
 42
0.001866
  0
VERTEX
  8
0
 10
165.425170
 20
385.864807
 42
0.002715
  0
VERTEX
  8
0
 10
170.314349
 20
384.888050
 42
0.001352
  0
VERTEX
  8
0
 10
174.470939
 20
384.092750
 42
0.046620
  0
VERTEX
  8
0
 10
175.463519
 20
384.000000
 42
0.198014
  0
VERTEX
  8
0
 10
177.939870
 20
385.020724
 42
0.121675
  0
VERTEX
  8
0
 10
179.603965
 20
387.755161
 42
0.127939
  0
VERTEX
  8
0
 10
179.758848
 20
390.847738
 42
0.222401
  0
VERTEX
  8
0
 10
178.250000
 20
392.865275
 42
0.065835
  0
VERTEX
  8
0
 10
176.890559
 20
393.376203
 42
0.001270
  0
VERTEX
  8
0
 10
169.564277
 20
395.056742
 42
0.003043
  0
VERTEX
  8
0
 10
160.984432
 20
396.947085
 42
0.002032
  0
VERTEX
  8
0
 10
151.139027
 20
399.011708
 42
0.000000
  0
VERTEX
  8
0
 10
125.778053
 20
404.222498
 42
0.000000
  0
VERTEX
  8
0
 10
123.757784
 20
402.202229
 42
0.161454
  0
VERTEX
  8
0
 10
122.504536
 20
399.705763
 42
0.166625
  0
VERTEX
  8
0
 10
123.012773
 20
396.991575
 42
0.070486
  0
VERTEX
  8
0
 10
125.773025
 20
393.405974
 42
0.012243
  0
VERTEX
  8
0
 10
132.046593
 20
387.567268
 42
-0.003331
  0
VERTEX
  8
0
 10
135.478612
 20
384.485439
 42
-0.005298
  0
VERTEX
  8
0
 10
138.369328
 20
381.798141
 42
-0.001490
  0
VERTEX
  8
0
 10
140.841388
 20
379.436674
 42
-0.205040
  0
VERTEX
  8
0
 10
140.997928
 20
379.067268
 42
-0.303077
  0
VERTEX
  8
0
 10
140.794356
 20
378.764674
 42
-0.001665
  0
VERTEX
  8
0
 10
137.398636
 20
377.381911
 42
-0.006259
  0
VERTEX
  8
0
 10
133.443826
 20
375.844090
 42
-0.003842
  0
VERTEX
  8
0
 10
128.747928
 20
374.126470
 42
0.005171
  0
VERTEX
  8
0
 10
119.237150
 20
370.619021
 42
0.038406
  0
VERTEX
  8
0
 10
114.877210
 20
368.564169
 42
0.095363
  0
VERTEX
  8
0
 10
112.751552
 20
366.746873
 42
0.169932
  0
VERTEX
  8
0
 10
112.000000
 20
364.599392
 42
0.121094
  0
VERTEX
  8
0
 10
112.544864
 20
362.382617
 42
0.130261
  0
VERTEX
  8
0
 10
114.046882
 20
360.741231
 42
0.087751
  0
VERTEX
  8
0
 10
116.697139
 20
359.634472
 42
0.032132
  0
VERTEX
  8
0
 10
120.723482
 20
359.000000
 42
0.000000
  0
VERTEX
  8
0
 10
126.139794
 20
358.500000
 42
0.000000
  0
VERTEX
  8
0
 10
116.999404
 20
350.653826
 42
-0.003774
  0
VERTEX
  8
0
 10
113.470107
 20
347.670220
 42
-0.006261
  0
VERTEX
  8
0
 10
110.443686
 20
345.214155
 42
-0.001574
  0
VERTEX
  8
0
 10
107.798822
 20
343.135619
 42
-0.380721
  0
VERTEX
  8
0
 10
107.517507
 20
343.153826
 42
-0.180432
  0
VERTEX
  8
0
 10
106.972625
 20
344.368779
 42
-0.000698
  0
VERTEX
  8
0
 10
105.998088
 20
359.775059
 42
-0.003894
  0
VERTEX
  8
0
 10
105.229622
 20
373.995190
 42
-0.011789
  0
VERTEX
  8
0
 10
105.010317
 20
383.687391
 42
-0.021705
  0
VERTEX
  8
0
 10
106.013653
 20
406.291735
 42
-0.019124
  0
VERTEX
  8
0
 10
108.979991
 20
429.708590
 42
-0.019835
  0
VERTEX
  8
0
 10
113.473712
 20
451.439894
 42
-0.035473
  0
VERTEX
  8
0
 10
119.112911
 20
468.775939
 42
0.000000
  0
VERTEX
  8
0
 10
121.253342
 20
474.051878
 42
0.000000
  0
VERTEX
  8
0
 10
125.876671
 20
465.802548
 42
0.042920
  0
VERTEX
  8
0
 10
131.672214
 20
457.269437
 42
0.024469
  0
VERTEX
  8
0
 10
140.003955
 20
447.984329
 42
0.022922
  0
VERTEX
  8
0
 10
150.027260
 20
438.745455
 42
0.021922
  0
VERTEX
  8
0
 10
161.000000
 20
430.316615
 42
-0.012375
  0
VERTEX
  8
0
 10
170.020094
 20
423.657557
 42
-0.015049
  0
VERTEX
  8
0
 10
178.115003
 20
416.965888
 42
-0.016505
  0
VERTEX
  8
0
 10
184.951128
 20
410.547586
 42
-0.028761
  0
VERTEX
  8
0
 10
190.114427
 20
404.736024
 42
0.000000
  0
VERTEX
  8
0
 10
193.889531
 20
399.960158
 42
0.000000
  0
VERTEX
  8
0
 10
191.454535
 20
394.730079
 42
0.009887
  0
VERTEX
  8
0
 10
189.622063
 20
390.581699
 42
0.084600
  0
VERTEX
  8
0
 10
189.165946
 20
388.610465
 42
0.161743
  0
VERTEX
  8
0
 10
189.553995
 20
387.164119
 42
0.063184
  0
VERTEX
  8
0
 10
190.917535
 20
385.574630
 42
0.118027
  0
VERTEX
  8
0
 10
193.497947
 20
384.162945
 42
0.210305
  0
VERTEX
  8
0
 10
195.848951
 20
384.515713
 42
0.111383
  0
VERTEX
  8
0
 10
198.248018
 20
386.914593
 42
0.024228
  0
VERTEX
  8
0
 10
201.149417
 20
392.039605
 42
-0.031198
  0
VERTEX
  8
0
 10
205.929885
 20
400.216008
 42
-0.055818
  0
VERTEX
  8
0
 10
210.955738
 20
406.147143
 42
-0.071662
  0
VERTEX
  8
0
 10
216.100200
 20
409.767519
 42
-0.118083
  0
VERTEX
  8
0
 10
221.246142
 20
411.000000
 42
0.113293
  0
VERTEX
  8
0
 10
223.541815
 20
411.526929
 42
0.102456
  0
VERTEX
  8
0
 10
225.475351
 20
413.013499
 42
0.106787
  0
VERTEX
  8
0
 10
226.603946
 20
415.087341
 42
0.133668
  0
VERTEX
  8
0
 10
226.647275
 20
417.269234
 42
0.085171
  0
VERTEX
  8
0
 10
226.152109
 20
418.390562
 42
0.026251
  0
VERTEX
  8
0
 10
225.047305
 20
419.879840
 42
0.025416
  0
VERTEX
  8
0
 10
223.614124
 20
421.444498
 42
0.025371
  0
VERTEX
  8
0
 10
222.028753
 20
422.856652
 42
-0.012233
  0
VERTEX
  8
0
 10
220.485393
 20
424.160329
 42
-0.017346
  0
VERTEX
  8
0
 10
219.183446
 20
425.399161
 42
-0.013482
  0
VERTEX
  8
0
 10
218.185845
 20
426.473062
 42
-0.182388
  0
VERTEX
  8
0
 10
218.000000
 20
426.965593
 42
-0.317419
  0
VERTEX
  8
0
 10
218.694772
 20
427.949735
 42
-0.007170
  0
VERTEX
  8
0
 10
224.453297
 20
429.903006
 42
-0.014388
  0
VERTEX
  8
0
 10
231.190843
 20
431.868927
 42
-0.011750
  0
VERTEX
  8
0
 10
238.500000
 20
433.592892
 42
-0.042154
  0
VERTEX
  8
0
 10
251.894389
 20
435.260630
 42
-0.024129
  0
VERTEX
  8
0
 10
268.195291
 20
435.119897
 42
-0.024001
  0
VERTEX
  8
0
 10
283.849738
 20
433.472107
 42
-0.059944
  0
VERTEX
  8
0
 10
294.906366
 20
430.380982
 42
0.000000
  0
VERTEX
  8
0
 10
298.312732
 20
428.971385
 42
0.000000
  0
VERTEX
  8
0
 10
292.406366
 20
424.427320
 42
0.023239
  0
VERTEX
  8
0
 10
287.999880
 20
420.698879
 42
0.085725
  0
VERTEX
  8
0
 10
285.797792
 20
417.808508
 42
0.157782
  0
VERTEX
  8
0
 10
285.381974
 20
415.342385
 42
0.148482
  0
VERTEX
  8
0
 10
286.472595
 20
413.030282
 42
0.056821
  0
VERTEX
  8
0
 10
287.355604
 20
412.253144
 42
0.041368
  0
VERTEX
  8
0
 10
288.488136
 20
411.596395
 42
0.042029
  0
VERTEX
  8
0
 10
289.683858
 20
411.147950
 42
0.068808
  0
VERTEX
  8
0
 10
290.753858
 20
411.000000
 42
-0.120997
  0
VERTEX
  8
0
 10
295.958656
 20
409.721754
 42
-0.069674
  0
VERTEX
  8
0
 10
301.238568
 20
405.946230
 42
-0.055538
  0
VERTEX
  8
0
 10
306.348738
 20
399.878498
 42
-0.033668
  0
VERTEX
  8
0
 10
311.031852
 20
391.730844
 42
0.010537
  0
VERTEX
  8
0
 10
312.968826
 20
387.968406
 42
0.045188
  0
VERTEX
  8
0
 10
314.363737
 20
385.870675
 42
0.080782
  0
VERTEX
  8
0
 10
315.644383
 20
384.718950
 42
0.113939
  0
VERTEX
  8
0
 10
317.084028
 20
384.202667
 42
0.065643
  0
VERTEX
  8
0
 10
318.253505
 20
384.218650
 42
0.058961
  0
VERTEX
  8
0
 10
319.424730
 20
384.533420
 42
0.057482
  0
VERTEX
  8
0
 10
320.517304
 20
385.123464
 42
0.056365
  0
VERTEX
  8
0
 10
321.454865
 20
385.950126
 42
0.039560
  0
VERTEX
  8
0
 10
322.461337
 20
387.256405
 42
0.131946
  0
VERTEX
  8
0
 10
322.793883
 20
388.276853
 42
0.092909
  0
VERTEX
  8
0
 10
322.627175
 20
389.526398
 42
0.014095
  0
VERTEX
  8
0
 10
321.768792
 20
391.906680
 42
-0.026380
  0
VERTEX
  8
0
 10
320.952371
 20
394.357620
 42
-0.086053
  0
VERTEX
  8
0
 10
320.787138
 20
396.053701
 42
-0.066421
  0
VERTEX
  8
0
 10
321.182248
 20
397.933081
 42
-0.011544
  0
VERTEX
  8
0
 10
322.472904
 20
401.331554
 42
-0.052644
  0
VERTEX
  8
0
 10
327.349084
 20
410.446461
 42
-0.034308
  0
VERTEX
  8
0
 10
334.720017
 20
419.846224
 42
-0.031240
  0
VERTEX
  8
0
 10
344.164868
 20
429.091842
 42
-0.025727
  0
VERTEX
  8
0
 10
355.299934
 20
437.748730
 42
0.023298
  0
VERTEX
  8
0
 10
363.827644
 20
444.312343
 42
0.018515
  0
VERTEX
  8
0
 10
372.412407
 20
452.144561
 42
0.018960
  0
VERTEX
  8
0
 10
380.007704
 20
460.195837
 42
0.034790
  0
VERTEX
  8
0
 10
385.453390
 20
467.377199
 42
0.000000
  0
VERTEX
  8
0
 10
390.406779
 20
474.950133
 42
0.000000
  0
VERTEX
  8
0
 10
392.716643
 20
469.272616
 42
-0.013158
  0
VERTEX
  8
0
 10
393.807004
 20
466.376502
 42
-0.004621
  0
VERTEX
  8
0
 10
395.223975
 20
462.164527
 42
-0.004584
  0
VERTEX
  8
0
 10
396.697541
 20
457.502028
 42
-0.005352
  0
SEQEND
  0
POLYLINE
  8
0
 66
1
 70
1
  0
VERTEX
  8
0
 10
199.355553
 20
280.199649
 42
-0.042120
  0
VERTEX
  8
0
 10
203.373583
 20
277.561523
 42
-0.041871
  0
VERTEX
  8
0
 10
206.901300
 20
274.282581
 42
-0.048481
  0
VERTEX
  8
0
 10
209.121134
 20
271.309506
 42
-0.426288
  0
VERTEX
  8
0
 10
208.740074
 20
269.885427
 42
-0.154718
  0
VERTEX
  8
0
 10
206.469609
 20
269.433647
 42
-0.021520
  0
VERTEX
  8
0
 10
201.667993
 20
270.177125
 42
-0.024770
  0
VERTEX
  8
0
 10
196.871610
 20
271.382354
 42
-0.085592
  0
VERTEX
  8
0
 10
194.020633
 20
272.817944
 42
-0.051068
  0
VERTEX
  8
0
 10
191.727973
 20
274.908377
 42
-0.028651
  0
VERTEX
  8
0
 10
189.377778
 20
277.861653
 42
-0.026314
  0
VERTEX
  8
0
 10
187.499108
 20
280.843131
 42
-0.128107
  0
VERTEX
  8
0
 10
187.000000
 20
282.759174
 42
-0.399558
  0
VERTEX
  8
0
 10
187.936857
 20
283.744376
 42
-0.063726
  0
VERTEX
  8
0
 10
190.851893
 20
283.519515
 42
-0.044665
  0
VERTEX
  8
0
 10
194.901497
 20
282.295443
 42
-0.028503
  0
SEQEND
  0
POLYLINE
  8
0
 66
1
 70
1
  0
VERTEX
  8
0
 10
325.000000
 20
282.647883
 42
-0.131143
  0
VERTEX
  8
0
 10
324.505972
 20
280.796734
 42
-0.024656
  0
VERTEX
  8
0
 10
322.595366
 20
277.821802
 42
-0.027409
  0
VERTEX
  8
0
 10
320.237826
 20
274.876463
 42
-0.050980
  0
VERTEX
  8
0
 10
317.979367
 20
272.817944
 42
-0.085592
  0
VERTEX
  8
0
 10
315.128390
 20
271.382354
 42
-0.024770
  0
VERTEX
  8
0
 10
310.332007
 20
270.177125
 42
-0.021520
  0
VERTEX
  8
0
 10
305.530391
 20
269.433647
 42
-0.154718
  0
VERTEX
  8
0
 10
303.259926
 20
269.885427
 42
-0.436318
  0
VERTEX
  8
0
 10
302.868945
 20
271.452245
 42
-0.050344
  0
VERTEX
  8
0
 10
305.420640
 20
274.614836
 42
-0.041924
  0
VERTEX
  8
0
 10
309.505022
 20
278.107740
 42
-0.040093
  0
VERTEX
  8
0
 10
314.174123
 20
280.929146
 42
-0.021784
  0
VERTEX
  8
0
 10
318.619135
 20
282.913378
 42
-0.054766
  0
VERTEX
  8
0
 10
322.036535
 20
283.847665
 42
-0.107468
  0
VERTEX
  8
0
 10
324.180355
 20
283.726054
 42
-0.336953
  0
SEQEND
  0
POLYLINE
  8
0
 66
1
 70
1
  0
VERTEX
  8
0
 10
130.004811
 20
252.025366
 42
0.032504
  0
VERTEX
  8
0
 10
129.232009
 20
245.744999
 42
0.018285
  0
VERTEX
  8
0
 10
129.071517
 20
238.060805
 42
0.018242
  0
VERTEX
  8
0
 10
129.475817
 20
230.317295
 42
0.030062
  0
VERTEX
  8
0
 10
130.446949
 20
223.836918
 42
0.046673
  0
VERTEX
  8
0
 10
133.491295
 20
214.069262
 42
0.042194
  0
VERTEX
  8
0
 10
138.376168
 20
204.680567
 42
0.041108
  0
VERTEX
  8
0
 10
144.912565
 20
196.015238
 42
0.039365
  0
VERTEX
  8
0
 10
152.867142
 20
188.398890
 42
-0.046481
  0
VERTEX
  8
0
 10
161.681144
 20
179.716343
 42
-0.026043
  0
VERTEX
  8
0
 10
170.767585
 20
167.712540
 42
-0.021741
  0
VERTEX
  8
0
 10
180.237999
 20
152.348566
 42
-0.012889
  0
VERTEX
  8
0
 10
190.237798
 20
133.287220
 42
0.013538
  0
VERTEX
  8
0
 10
196.530103
 20
121.330731
 42
0.037637
  0
VERTEX
  8
0
 10
201.782405
 20
113.430897
 42
0.052044
  0
VERTEX
  8
0
 10
207.014872
 20
107.991238
 42
0.058252
  0
VERTEX
  8
0
 10
213.075368
 20
103.981994
 42
-0.027005
  0
VERTEX
  8
0
 10
215.110050
 20
102.811422
 42
-0.012849
  0
VERTEX
  8
0
 10
217.601457
 20
101.100513
 42
-0.012695
  0
VERTEX
  8
0
 10
220.120512
 20
99.174179
 42
-0.017596
  0
VERTEX
  8
0
 10
222.270017
 20
97.313783
 42
0.046439
  0
VERTEX
  8
0
 10
227.663356
 20
93.164168
 42
0.031923
  0
VERTEX
  8
0
 10
234.441723
 20
89.468491
 42
0.031445
  0
VERTEX
  8
0
 10
241.787021
 20
86.598641
 42
0.039542
  0
VERTEX
  8
0
 10
248.896577
 20
84.929816
 42
0.058342
  0
VERTEX
  8
0
 10
260.109856
 20
84.537629
 42
0.052941
  0
VERTEX
  8
0
 10
271.500433
 20
86.697263
 42
0.054279
  0
VERTEX
  8
0
 10
281.895492
 20
91.111936
 42
0.069687
  0
VERTEX
  8
0
 10
290.162214
 20
97.385998
 42
-0.021192
  0
VERTEX
  8
0
 10
292.148522
 20
99.221569
 42
-0.014710
  0
VERTEX
  8
0
 10
294.536521
 20
101.129780
 42
-0.014864
  0
VERTEX
  8
0
 10
296.942080
 20
102.829169
 42
-0.029408
  0
VERTEX
  8
0
 10
298.962115
 20
104.003295
 42
0.061210
  0
VERTEX
  8
0
 10
305.027233
 20
108.064053
 42
0.051898
  0
VERTEX
  8
0
 10
310.314568
 20
113.684749
 42
0.035729
  0
VERTEX
  8
0
 10
315.793818
 20
122.053057
 42
0.011555
  0
VERTEX
  8
0
 10
322.704154
 20
135.160385
 42
-0.012653
  0
VERTEX
  8
0
 10
332.497745
 20
153.638074
 42
-0.021957
  0
VERTEX
  8
0
 10
341.671391
 20
168.381813
 42
-0.026464
  0
VERTEX
  8
0
 10
350.495502
 20
179.907587
 42
-0.044160
  0
VERTEX
  8
0
 10
359.208144
 20
188.461571
 42
0.039679
  0
VERTEX
  8
0
 10
367.161297
 20
196.131395
 42
0.041237
  0
VERTEX
  8
0
 10
373.690652
 20
204.868376
 42
0.042098
  0
VERTEX
  8
0
 10
378.583094
 20
214.376748
 42
0.045333
  0
VERTEX
  8
0
 10
381.670222
 20
224.340288
 42
0.040494
  0
VERTEX
  8
0
 10
382.534805
 20
231.009755
 42
0.014068
  0
VERTEX
  8
0
 10
382.727261
 20
240.710683
 42
0.013402
  0
VERTEX
  8
0
 10
382.391979
 20
250.258727
 42
0.054010
  0
VERTEX
  8
0
 10
381.407519
 20
256.000000
 42
-0.234990
  0
VERTEX
  8
0
 10
381.539751
 20
256.711034
 42
-0.388465
  0
VERTEX
  8
0
 10
382.098278
 20
256.815138
 42
-0.045145
  0
VERTEX
  8
0
 10
383.688582
 20
255.613697
 42
-0.004795
  0
VERTEX
  8
0
 10
387.097381
 20
252.458290
 42
0.012983
  0
VERTEX
  8
0
 10
393.343744
 20
246.863367
 42
0.013496
  0
VERTEX
  8
0
 10
399.793582
 20
241.674424
 42
0.013157
  0
VERTEX
  8
0
 10
406.667336
 20
236.723687
 42
0.011102
  0
VERTEX
  8
0
 10
414.187549
 20
231.843169
 42
-0.005179
  0
VERTEX
  8
0
 10
417.426349
 20
229.795341
 42
-0.007219
  0
VERTEX
  8
0
 10
420.278085
 20
227.891664
 42
-0.004652
  0
VERTEX
  8
0
 10
422.625467
 20
226.242789
 42
-0.088520
  0
VERTEX
  8
0
 10
423.248485
 20
225.603561
 42
-0.069910
  0
VERTEX
  8
0
 10
424.572989
 20
222.905735
 42
-0.001927
  0
VERTEX
  8
0
 10
428.603273
 20
210.450012
 42
-0.001613
  0
VERTEX
  8
0
 10
432.596405
 20
197.804131
 42
-0.086759
  0
VERTEX
  8
0
 10
432.921053
 20
195.312130
 42
-0.024616
  0
VERTEX
  8
0
 10
432.861597
 20
194.673017
 42
-0.159439
  0
VERTEX
  8
0
 10
432.720363
 20
194.386659
 42
-0.446453
  0
VERTEX
  8
0
 10
432.542391
 20
194.394391
 42
-0.075843
  0
VERTEX
  8
0
 10
432.346212
 20
194.724522
 42
0.124292
  0
VERTEX
  8
0
 10
430.804711
 20
196.829441
 42
0.016582
  0
VERTEX
  8
0
 10
426.415140
 20
200.223727
 42
0.015769
  0
VERTEX
  8
0
 10
421.809499
 20
203.331042
 42
0.141430
  0
VERTEX
  8
0
 10
419.491816
 20
204.000000
 42
0.176184
  0
VERTEX
  8
0
 10
417.091648
 20
203.127166
 42
0.157167
  0
VERTEX
  8
0
 10
415.673732
 20
200.872758
 42
0.051764
  0
VERTEX
  8
0
 10
414.967684
 20
196.078443
 42
0.005587
  0
VERTEX
  8
0
 10
414.613178
 20
184.865979
 42
-0.011908
  0
VERTEX
  8
0
 10
414.078604
 20
172.792276
 42
-0.038967
  0
VERTEX
  8
0
 10
412.917130
 20
164.891134
 42
-0.044541
  0
VERTEX
  8
0
 10
410.634785
 20
157.835916
 42
-0.019376
  0
VERTEX
  8
0
 10
406.428821
 20
148.916788
 42
-0.032634
  0
VERTEX
  8
0
 10
403.585879
 20
144.223521
 42
-0.024221
  0
VERTEX
  8
0
 10
399.875988
 20
139.426697
 42
-0.014699
  0
VERTEX
  8
0
 10
394.198047
 20
133.159932
 42
-0.003432
  0
VERTEX
  8
0
 10
384.298825
 20
123.000000
 42
0.000000
  0
VERTEX
  8
0
 10
366.024353
 20
104.500000
 42
0.000000
  0
VERTEX
  8
0
 10
366.623106
 20
109.067642
 42
0.019457
  0
VERTEX
  8
0
 10
366.837413
 20
111.404967
 42
0.056107
  0
VERTEX
  8
0
 10
366.740689
 20
113.026673
 42
0.078504
  0
VERTEX
  8
0
 10
366.321686
 20
114.256538
 42
0.075230
  0
VERTEX
  8
0
 10
365.539501
 20
115.317642
 42
0.193579
  0
VERTEX
  8
0
 10
362.534182
 20
116.598806
 42
0.175170
  0
VERTEX
  8
0
 10
359.321348
 20
115.511669
 42
0.058100
  0
VERTEX
  8
0
 10
354.907602
 20
111.064497
 42
0.007394
  0
VERTEX
  8
0
 10
346.722244
 20
100.314368
 42
0.004197
  0
VERTEX
  8
0
 10
343.560746
 20
95.956258
 42
0.003520
  0
VERTEX
  8
0
 10
340.279846
 20
91.283498
 42
0.003552
  0
VERTEX
  8
0
 10
337.342343
 20
86.971403
 42
0.009754
  0
VERTEX
  8
0
 10
335.351005
 20
83.874207
 42
0.000000
  0
VERTEX
  8
0
 10
331.500000
 20
77.619677
 42
0.000000
  0
VERTEX
  8
0
 10
331.000000
 20
84.892230
 42
0.011249
  0
VERTEX
  8
0
 10
330.660459
 20
88.607361
 42
0.040074
  0
VERTEX
  8
0
 10
330.200898
 20
90.949608
 42
0.065155
  0
VERTEX
  8
0
 10
329.535232
 20
92.506768
 42
0.101830
  0
VERTEX
  8
0
 10
328.558870
 20
93.582392
 42
0.038176
  0
VERTEX
  8
0
 10
327.052144
 20
94.515442
 42
0.088084
  0
VERTEX
  8
0
 10
325.784959
 20
94.910804
 42
0.107152
  0
VERTEX
  8
0
 10
324.619854
 20
94.809449
 42
0.076466
  0
VERTEX
  8
0
 10
323.438755
 20
94.234687
 42
0.085823
  0
VERTEX
  8
0
 10
322.761819
 20
93.569349
 42
0.001356
  0
VERTEX
  8
0
 10
319.611289
 20
89.157210
 42
0.003541
  0
VERTEX
  8
0
 10
315.991786
 20
83.981852
 42
0.002334
  0
VERTEX
  8
0
 10
311.899343
 20
77.981345
 42
-0.005592
  0
VERTEX
  8
0
 10
302.102196
 20
63.815567
 42
-0.007255
  0
VERTEX
  8
0
 10
292.790444
 20
51.064743
 42
-0.007976
  0
VERTEX
  8
0
 10
284.010016
 20
39.779839
 42
-0.011337
  0
VERTEX
  8
0
 10
275.823715
 20
30.057708
 42
-0.012910
  0
VERTEX
  8
0
 10
269.838366
 20
23.611423
 42
-0.014117
  0
VERTEX
  8
0
 10
263.699392
 20
17.677584
 42
-0.008715
  0
VERTEX
  8
0
 10
258.126607
 20
12.762734
 42
-0.178180
  0
VERTEX
  8
0
 10
256.054208
 20
12.000000
 42
-0.177642
  0
VERTEX
  8
0
 10
253.982341
 20
12.760085
 42
-0.008022
  0
VERTEX
  8
0
 10
248.184028
 20
17.838170
 42
-0.013868
  0
VERTEX
  8
0
 10
241.994564
 20
23.757048
 42
-0.015195
  0
VERTEX
  8
0
 10
236.334550
 20
29.837295
 42
-0.012498
  0
VERTEX
  8
0
 10
228.067832
 20
39.767482
 42
-0.006305
  0
VERTEX
  8
0
 10
218.121298
 20
52.672971
 42
-0.006166
  0
VERTEX
  8
0
 10
207.938209
 20
66.589915
 42
-0.007708
  0
VERTEX
  8
0
 10
198.848467
 20
79.764634
 42
0.003682
  0
VERTEX
  8
0
 10
191.470291
 20
90.644985
 42
0.059190
  0
VERTEX
  8
0
 10
188.542736
 20
93.972829
 42
0.218737
  0
VERTEX
  8
0
 10
186.217480
 20
94.693061
 42
0.125771
  0
VERTEX
  8
0
 10
183.441130
 20
93.582392
 42
0.101830
  0
VERTEX
  8
0
 10
182.464768
 20
92.506768
 42
0.065155
  0
VERTEX
  8
0
 10
181.799102
 20
90.949608
 42
0.040074
  0
VERTEX
  8
0
 10
181.339541
 20
88.607361
 42
0.011249
  0
VERTEX
  8
0
 10
181.000000
 20
84.892230
 42
0.000000
  0
VERTEX
  8
0
 10
180.500000
 20
77.619677
 42
0.000000
  0
VERTEX
  8
0
 10
176.648995
 20
83.874207
 42
0.009754
  0
VERTEX
  8
0
 10
174.657657
 20
86.971403
 42
0.003552
  0
VERTEX
  8
0
 10
171.720154
 20
91.283498
 42
0.003520
  0
VERTEX
  8
0
 10
168.439254
 20
95.956258
 42
0.004197
  0
VERTEX
  8
0
 10
165.277756
 20
100.314368
 42
0.007394
  0
VERTEX
  8
0
 10
157.092398
 20
111.064497
 42
0.058100
  0
VERTEX
  8
0
 10
152.678652
 20
115.511669
 42
0.175170
  0
VERTEX
  8
0
 10
149.465818
 20
116.598806
 42
0.193579
  0
VERTEX
  8
0
 10
146.460499
 20
115.317642
 42
0.075230
  0
VERTEX
  8
0
 10
145.678314
 20
114.256538
 42
0.078504
  0
VERTEX
  8
0
 10
145.259311
 20
113.026673
 42
0.056107
  0
VERTEX
  8
0
 10
145.162587
 20
111.404967
 42
0.019457
  0
VERTEX
  8
0
 10
145.376894
 20
109.067642
 42
0.000000
  0
VERTEX
  8
0
 10
145.975647
 20
104.500000
 42
0.000000
  0
VERTEX
  8
0
 10
127.648039
 20
123.000000
 42
-0.002803
  0
VERTEX
  8
0
 10
116.431116
 20
134.450101
 42
-0.020404
  0
VERTEX
  8
0
 10
111.309646
 20
140.187893
 42
-0.036201
  0
VERTEX
  8
0
 10
107.963993
 20
144.918849
 42
-0.021292
  0
VERTEX
  8
0
 10
104.637242
 20
151.000000
 42
-0.026006
  0
VERTEX
  8
0
 10
100.805051
 20
159.914349
 42
-0.038477
  0
VERTEX
  8
0
 10
98.478350
 20
168.095271
 42
-0.035622
  0
VERTEX
  8
0
 10
97.324719
 20
176.991290
 42
-0.018561
  0
VERTEX
  8
0
 10
97.093895
 20
188.179328
 42
0.008776
  0
VERTEX
  8
0
 10
97.084450
 20
197.065122
 42
0.065973
  0
VERTEX
  8
0
 10
96.455688
 20
201.215001
 42
0.173596
  0
VERTEX
  8
0
 10
95.001131
 20
203.227284
 42
0.151427
  0
VERTEX
  8
0
 10
92.508184
 20
204.000000
 42
0.141430
  0
VERTEX
  8
0
 10
90.190501
 20
203.331042
 42
0.015769
  0
VERTEX
  8
0
 10
85.584860
 20
200.223727
 42
0.016582
  0
VERTEX
  8
0
 10
81.195289
 20
196.829441
 42
0.124292
  0
VERTEX
  8
0
 10
79.653788
 20
194.724522
 42
-0.075843
  0
VERTEX
  8
0
 10
79.457609
 20
194.394391
 42
-0.446453
  0
VERTEX
  8
0
 10
79.279637
 20
194.386659
 42
-0.159439
  0
VERTEX
  8
0
 10
79.138403
 20
194.673017
 42
-0.024616
  0
VERTEX
  8
0
 10
79.078947
 20
195.312130
 42
-0.086759
  0
VERTEX
  8
0
 10
79.403595
 20
197.804131
 42
-0.001613
  0
VERTEX
  8
0
 10
83.396727
 20
210.450012
 42
-0.001927
  0
VERTEX
  8
0
 10
87.427011
 20
222.905735
 42
-0.069910
  0
VERTEX
  8
0
 10
88.751515
 20
225.603561
 42
-0.088830
  0
VERTEX
  8
0
 10
89.376774
 20
226.244301
 42
-0.004532
  0
VERTEX
  8
0
 10
91.765520
 20
227.918709
 42
-0.007115
  0
VERTEX
  8
0
 10
94.665196
 20
229.852127
 42
-0.005089
  0
VERTEX
  8
0
 10
97.960895
 20
231.935236
 42
0.014875
  0
VERTEX
  8
0
 10
105.599002
 20
236.974886
 42
0.010916
  0
VERTEX
  8
0
 10
113.771156
 20
242.993802
 42
0.011012
  0
VERTEX
  8
0
 10
121.214199
 20
248.996345
 42
0.025758
  0
VERTEX
  8
0
 10
126.435023
 20
253.881518
 42
-0.007479
  0
VERTEX
  8
0
 10
127.966836
 20
255.423611
 42
-0.012447
  0
VERTEX
  8
0
 10
129.308071
 20
256.670330
 42
-0.006076
  0
VERTEX
  8
0
 10
130.448073
 20
257.653865
 42
-0.389329
  0
VERTEX
  8
0
 10
130.689834
 20
257.643500
 42
-0.225667
  0
VERTEX
  8
0
 10
130.789293
 20
257.363668
 42
-0.004733
  0
VERTEX
  8
0
 10
130.620521
 20
255.861261
 42
-0.010044
  0
VERTEX
  8
0
 10
130.366811
 20
254.079208
 42
-0.006479
  0
SEQEND
  0
POLYLINE
  8
0
 66
1
 70
1
  0
VERTEX
  8
0
 10
192.000000
 20
163.332238
 42
-0.012713
  0
VERTEX
  8
0
 10
191.850667
 20
157.459764
 42
-0.412033
  0
VERTEX
  8
0
 10
190.891043
 20
156.586570
 42
-0.239101
  0
VERTEX
  8
0
 10
189.411366
 20
157.419658
 42
-0.007000
  0
VERTEX
  8
0
 10
185.397255
 20
163.618949
 42
-0.001199
  0
VERTEX
  8
0
 10
183.328072
 20
166.932391
 42
-0.001939
  0
VERTEX
  8
0
 10
181.585444
 20
169.762284
 42
-0.000285
  0
VERTEX
  8
0
 10
180.050667
 20
172.279651
 42
-0.137592
  0
VERTEX
  8
0
 10
180.000000
 20
172.460284
 42
-0.503358
  0
VERTEX
  8
0
 10
180.090991
 20
172.527768
 42
-0.001423
  0
VERTEX
  8
0
 10
181.762500
 20
172.015520
 42
-0.005783
  0
VERTEX
  8
0
 10
183.699032
 20
171.391387
 42
-0.003403
  0
VERTEX
  8
0
 10
186.000000
 20
170.602846
 42
0.000000
  0
VERTEX
  8
0
 10
192.000000
 20
168.500902
 42
0.000000
  0
SEQEND
  0
POLYLINE
  8
0
 66
1
 70
1
  0
VERTEX
  8
0
 10
326.645802
 20
163.687532
 42
-0.007941
  0
VERTEX
  8
0
 10
324.530383
 20
160.433970
 42
-0.013573
  0
VERTEX
  8
0
 10
322.649334
 20
157.796500
 42
-0.007412
  0
VERTEX
  8
0
 10
321.042972
 20
155.733121
 42
-0.446534
  0
VERTEX
  8
0
 10
320.623132
 20
155.710201
 42
-0.165304
  0
VERTEX
  8
0
 10
320.376570
 20
156.210680
 42
-0.009434
  0
VERTEX
  8
0
 10
320.183045
 20
157.943213
 42
-0.013593
  0
VERTEX
  8
0
 10
320.045300
 20
160.053256
 42
-0.009501
  0
VERTEX
  8
0
 10
320.000000
 20
162.436907
 42
0.000000
  0
VERTEX
  8
0
 10
320.000000
 20
168.540481
 42
0.000000
  0
VERTEX
  8
0
 10
325.750000
 20
170.566071
 42
-0.003587
  0
VERTEX
  8
0
 10
327.973809
 20
171.331579
 42
-0.005682
  0
VERTEX
  8
0
 10
329.891034
 20
171.952044
 42
-0.001715
  0
VERTEX
  8
0
 10
331.554160
 20
172.463223
 42
-0.203451
  0
VERTEX
  8
0
 10
331.772669
 20
172.439829
 42
-0.419523
  0
VERTEX
  8
0
 10
331.818346
 20
172.273670
 42
-0.000930
  0
VERTEX
  8
0
 10
330.379128
 20
169.806210
 42
-0.004806
  0
VERTEX
  8
0
 10
328.696682
 20
166.996319
 42
-0.002876
  0
SEQEND
  0
POLYLINE
  8
0
 66
1
 70
1
  0
VERTEX
  8
0
 10
270.668607
 20
155.169064
 42
-0.112534
  0
VERTEX
  8
0
 10
278.792714
 20
148.383384
 42
-0.167790
  0
VERTEX
  8
0
 10
281.664166
 20
139.669419
 42
-0.166605
  0
VERTEX
  8
0
 10
278.553007
 20
130.994336
 42
-0.110765
  0
VERTEX
  8
0
 10
270.231639
 20
124.324902
 42
-0.092883
  0
VERTEX
  8
0
 10
260.097422
 20
121.522576
 42
-0.080433
  0
VERTEX
  8
0
 10
249.084156
 20
122.360924
 42
-0.085388
  0
VERTEX
  8
0
 10
239.484498
 20
126.497419
 42
-0.129167
  0
VERTEX
  8
0
 10
233.404986
 20
133.200340
 42
-0.078819
  0
VERTEX
  8
0
 10
232.252803
 20
136.648929
 42
-0.055847
  0
VERTEX
  8
0
 10
232.034011
 20
140.730653
 42
-0.055794
  0
VERTEX
  8
0
 10
232.724354
 20
144.764405
 42
-0.078164
  0
VERTEX
  8
0
 10
234.268863
 20
148.071000
 42
-0.118984
  0
VERTEX
  8
0
 10
240.803560
 20
154.049125
 42
-0.078034
  0
VERTEX
  8
0
 10
250.437999
 20
157.547848
 42
-0.074819
  0
VERTEX
  8
0
 10
261.112891
 20
158.009572
 42
-0.091658
  0
SEQEND
  0
POLYLINE
  8
0
 66
1
 70
1
  0
VERTEX
  8
0
 10
261.612418
 20
104.474468
 42
0.018208
  0
VERTEX
  8
0
 10
264.130251
 20
103.080605
 42
0.015977
  0
VERTEX
  8
0
 10
266.853706
 20
101.807642
 42
0.016260
  0
VERTEX
  8
0
 10
269.387039
 20
100.816988
 42
0.045452
  0
VERTEX
  8
0
 10
271.233572
 20
100.346660
 42
-0.020540
  0
VERTEX
  8
0
 10
272.676794
 20
100.054648
 42
-0.031505
  0
VERTEX
  8
0
 10
273.893612
 20
99.673302
 42
-0.032469
  0
VERTEX
  8
0
 10
274.783670
 20
99.263372
 42
-0.275218
  0
VERTEX
  8
0
 10
275.000000
 20
98.900127
 42
-0.321567
  0
VERTEX
  8
0
 10
274.431048
 20
98.106950
 42
-0.008526
  0
VERTEX
  8
0
 10
270.079835
 20
96.716734
 42
-0.016671
  0
VERTEX
  8
0
 10
265.193640
 20
95.422865
 42
-0.018233
  0
VERTEX
  8
0
 10
260.375310
 20
94.500901
 42
-0.055560
  0
VERTEX
  8
0
 10
256.151472
 20
94.325120
 42
-0.021945
  0
VERTEX
  8
0
 10
250.365243
 20
94.983502
 42
-0.022133
  0
VERTEX
  8
0
 10
244.517871
 20
96.177580
 42
-0.042810
  0
VERTEX
  8
0
 10
240.007185
 20
97.728983
 42
0.000000
  0
VERTEX
  8
0
 10
236.500000
 20
99.281897
 42
0.000000
  0
VERTEX
  8
0
 10
240.589653
 20
100.168087
 42
0.052617
  0
VERTEX
  8
0
 10
243.482354
 20
101.121979
 42
0.012780
  0
VERTEX
  8
0
 10
248.019819
 20
103.309497
 42
0.013617
  0
VERTEX
  8
0
 10
252.542956
 20
105.792363
 42
0.034806
  0
VERTEX
  8
0
 10
255.628846
 20
107.898253
 42
-0.305526
  0
VERTEX
  8
0
 10
255.736990
 20
107.906420
 42
-0.000517
  0
VERTEX
  8
0
 10
257.439669
 20
106.934487
 42
-0.003466
  0
VERTEX
  8
0
 10
259.358342
 20
105.818901
 42
-0.002106
  0
SEQEND
  0
POLYLINE
  8
0
 66
1
 70
1
  0
VERTEX
  8
0
 10
252.441130
 20
416.580611
 42
0.192497
  0
VERTEX
  8
0
 10
251.276033
 20
414.718458
 42
0.031426
  0
VERTEX
  8
0
 10
250.773924
 20
410.405952
 42
0.012337
  0
VERTEX
  8
0
 10
250.541378
 20
402.221393
 42
0.000933
  0
VERTEX
  8
0
 10
250.500000
 20
380.044137
 42
0.001467
  0
VERTEX
  8
0
 10
250.574228
 20
354.749417
 42
0.032430
  0
VERTEX
  8
0
 10
251.094510
 20
347.403360
 42
0.159663
  0
VERTEX
  8
0
 10
252.615459
 20
344.272335
 42
0.201273
  0
VERTEX
  8
0
 10
255.550000
 20
343.015313
 42
0.252214
  0
VERTEX
  8
0
 10
258.088935
 20
344.358655
 42
0.118645
  0
VERTEX
  8
0
 10
259.414250
 20
347.946595
 42
0.027772
  0
VERTEX
  8
0
 10
259.918904
 20
356.059903
 42
0.001648
  0
VERTEX
  8
0
 10
260.000000
 20
380.664816
 42
0.000904
  0
VERTEX
  8
0
 10
259.959595
 20
403.020919
 42
0.012406
  0
VERTEX
  8
0
 10
259.728949
 20
411.132974
 42
0.031526
  0
VERTEX
  8
0
 10
259.235460
 20
415.358318
 42
0.228902
  0
VERTEX
  8
0
 10
258.065741
 20
416.964816
 42
0.031871
  0
VERTEX
  8
0
 10
256.365237
 20
417.739927
 42
0.108462
  0
VERTEX
  8
0
 10
255.167930
 20
417.918284
 42
0.108934
  0
VERTEX
  8
0
 10
254.008923
 20
417.578453
 42
0.032297
  0
SEQEND
  0
POLYLINE
  8
0
 66
1
 70
1
  0
VERTEX
  8
0
 10
194.844690
 20
333.075321
 42
0.035162
  0
VERTEX
  8
0
 10
193.645846
 20
331.956344
 42
0.120532
  0
VERTEX
  8
0
 10
193.129761
 20
331.032928
 42
0.118630
  0
VERTEX
  8
0
 10
193.093954
 20
329.966980
 42
0.033547
  0
VERTEX
  8
0
 10
193.539559
 20
328.354668
 42
0.066388
  0
VERTEX
  8
0
 10
194.350804
 20
326.754837
 42
0.122207
  0
VERTEX
  8
0
 10
195.436192
 20
325.791859
 42
0.069067
  0
VERTEX
  8
0
 10
197.264334
 20
325.135731
 42
0.010876
  0
VERTEX
  8
0
 10
201.029661
 20
324.431402
 42
-0.013461
  0
VERTEX
  8
0
 10
206.510588
 20
323.376806
 42
-0.028748
  0
VERTEX
  8
0
 10
210.659612
 20
322.208447
 42
-0.036476
  0
VERTEX
  8
0
 10
213.934810
 20
320.804791
 42
-0.047211
  0
VERTEX
  8
0
 10
216.681801
 20
319.035655
 42
0.134603
  0
VERTEX
  8
0
 10
221.419976
 20
317.038423
 42
0.267722
  0
VERTEX
  8
0
 10
225.061800
 20
318.543311
 42
0.248067
  0
VERTEX
  8
0
 10
225.757578
 20
322.610013
 42
0.126308
  0
VERTEX
  8
0
 10
222.888948
 20
327.103738
 42
0.077214
  0
VERTEX
  8
0
 10
219.581364
 20
329.353193
 42
0.027499
  0
VERTEX
  8
0
 10
214.277333
 20
331.521865
 42
0.026438
  0
VERTEX
  8
0
 10
208.080943
 20
333.305567
 42
0.027675
  0
VERTEX
  8
0
 10
201.824541
 20
334.392955
 42
0.021068
  0
VERTEX
  8
0
 10
199.390634
 20
334.574908
 42
0.054822
  0
VERTEX
  8
0
 10
197.641524
 20
334.439878
 42
0.069430
  0
VERTEX
  8
0
 10
196.217766
 20
333.959799
 42
0.054254
  0
SEQEND
  0
POLYLINE
  8
0
 66
1
 70
1
  0
VERTEX
  8
0
 10
306.763386
 20
333.967194
 42
0.035205
  0
VERTEX
  8
0
 10
298.504161
 20
331.970512
 42
0.055687
  0
VERTEX
  8
0
 10
291.856448
 20
329.011062
 42
0.072404
  0
VERTEX
  8
0
 10
287.457248
 20
325.492313
 42
0.190139
  0
VERTEX
  8
0
 10
286.000000
 20
321.798790
 42
0.137176
  0
VERTEX
  8
0
 10
286.804623
 20
318.921165
 42
0.179024
  0
VERTEX
  8
0
 10
288.928442
 20
317.234403
 42
0.156707
  0
VERTEX
  8
0
 10
291.879765
 20
317.216634
 42
0.102755
  0
VERTEX
  8
0
 10
294.872117
 20
318.889087
 42
-0.049616
  0
VERTEX
  8
0
 10
297.444225
 20
320.707146
 42
-0.043624
  0
VERTEX
  8
0
 10
300.435205
 20
322.075096
 42
-0.032282
  0
VERTEX
  8
0
 10
304.365857
 20
323.193560
 42
-0.012202
  0
VERTEX
  8
0
 10
309.979658
 20
324.263182
 42
0.008375
  0
VERTEX
  8
0
 10
314.425051
 20
325.074976
 42
0.063127
  0
VERTEX
  8
0
 10
316.446937
 20
325.752780
 42
0.124646
  0
VERTEX
  8
0
 10
317.610206
 20
326.727742
 42
0.072180
  0
VERTEX
  8
0
 10
318.459509
 20
328.354668
 42
0.033826
  0
VERTEX
  8
0
 10
318.905812
 20
329.971179
 42
0.119768
  0
VERTEX
  8
0
 10
318.866661
 20
331.039041
 42
0.120185
  0
VERTEX
  8
0
 10
318.341965
 20
331.967745
 42
0.034175
  0
VERTEX
  8
0
 10
317.119068
 20
333.104668
 42
0.048984
  0
VERTEX
  8
0
 10
315.325211
 20
334.287060
 42
0.100785
  0
VERTEX
  8
0
 10
313.717822
 20
334.756222
 42
0.055435
  0
VERTEX
  8
0
 10
311.493024
 20
334.694672
 42
0.007101
  0
SEQEND
  0
POLYLINE
  8
0
 66
1
 70
1
  0
VERTEX
  8
0
 10
235.646357
 20
296.730677
 42
0.113709
  0
VERTEX
  8
0
 10
234.486908
 20
295.389844
 42
0.100257
  0
VERTEX
  8
0
 10
233.963294
 20
293.613730
 42
0.041042
  0
VERTEX
  8
0
 10
233.948851
 20
290.606779
 42
0.004812
  0
VERTEX
  8
0
 10
234.531087
 20
283.920412
 42
-0.030832
  0
VERTEX
  8
0
 10
234.761081
 20
277.321359
 42
-0.028332
  0
VERTEX
  8
0
 10
234.194883
 20
270.552536
 42
-0.028976
  0
VERTEX
  8
0
 10
232.893086
 20
264.065189
 42
-0.037264
  0
VERTEX
  8
0
 10
230.919767
 20
258.312823
 42
0.039915
  0
VERTEX
  8
0
 10
229.612541
 20
254.435400
 42
0.105676
  0
VERTEX
  8
0
 10
229.511210
 20
251.525844
 42
0.158473
  0
VERTEX
  8
0
 10
230.573183
 20
249.535281
 42
0.130857
  0
VERTEX
  8
0
 10
232.686607
 20
248.363809
 42
0.054221
  0
VERTEX
  8
0
 10
234.125814
 20
248.164561
 42
0.103643
  0
VERTEX
  8
0
 10
235.269443
 20
248.369498
 42
0.088068
  0
VERTEX
  8
0
 10
236.353775
 20
249.048639
 42
0.031310
  0
VERTEX
  8
0
 10
237.635559
 20
250.362701
 42
0.102111
  0
VERTEX
  8
0
 10
241.184187
 20
256.753988
 42
0.034321
  0
VERTEX
  8
0
 10
243.677927
 20
267.182610
 42
0.034187
  0
VERTEX
  8
0
 10
244.809585
 20
278.722320
 42
0.048580
  0
VERTEX
  8
0
 10
244.112954
 20
289.000000
 42
0.038430
  0
VERTEX
  8
0
 10
242.836600
 20
294.180126
 42
0.128805
  0
VERTEX
  8
0
 10
240.952132
 20
297.090586
 42
0.218309
  0
VERTEX
  8
0
 10
238.528821
 20
297.867163
 42
0.128607
  0
SEQEND
  0
POLYLINE
  8
0
 66
1
 70
1
  0
VERTEX
  8
0
 10
270.702082
 20
296.750000
 42
0.156070
  0
VERTEX
  8
0
 10
269.269752
 20
294.750133
 42
0.027868
  0
VERTEX
  8
0
 10
268.090686
 20
290.248402
 42
0.027965
  0
VERTEX
  8
0
 10
267.276580
 20
284.654576
 42
0.022865
  0
VERTEX
  8
0
 10
267.017364
 20
278.613510
 42
0.041144
  0
VERTEX
  8
0
 10
267.802245
 20
269.410760
 42
0.031403
  0
VERTEX
  8
0
 10
270.108847
 20
259.564337
 42
0.027125
  0
VERTEX
  8
0
 10
273.149863
 20
251.158615
 42
0.218925
  0
VERTEX
  8
0
 10
276.109043
 20
248.465391
 42
0.085907
  0
VERTEX
  8
0
 10
278.201127
 20
248.179231
 42
0.096819
  0
VERTEX
  8
0
 10
280.175166
 20
248.638295
 42
0.105428
  0
VERTEX
  8
0
 10
281.706661
 20
249.758701
 42
0.121393
  0
VERTEX
  8
0
 10
282.552926
 20
251.354852
 42
0.087623
  0
VERTEX
  8
0
 10
282.635935
 20
252.520317
 42
0.025783
  0
VERTEX
  8
0
 10
282.357733
 20
254.297857
 42
0.025029
  0
VERTEX
  8
0
 10
281.831825
 20
256.300134
 42
0.024519
  0
VERTEX
  8
0
 10
281.105461
 20
258.253969
 42
-0.036527
  0
VERTEX
  8
0
 10
279.068556
 20
264.163347
 42
-0.031997
  0
VERTEX
  8
0
 10
277.802860
 20
270.573534
 42
-0.029046
  0
VERTEX
  8
0
 10
277.284312
 20
277.674573
 42
-0.020563
  0
VERTEX
  8
0
 10
277.494565
 20
285.666366
 42
0.004027
  0
VERTEX
  8
0
 10
277.866951
 20
291.931382
 42
0.042455
  0
VERTEX
  8
0
 10
277.781006
 20
294.492562
 42
0.117586
  0
VERTEX
  8
0
 10
277.257706
 20
295.915096
 42
0.123828
  0
VERTEX
  8
0
 10
276.156271
 20
296.916366
 42
0.028784
  0
VERTEX
  8
0
 10
274.426332
 20
297.717816
 42
0.102048
  0
VERTEX
  8
0
 10
273.227772
 20
297.927137
 42
0.113160
  0
VERTEX
  8
0
 10
272.113332
 20
297.635614
 42
0.039624
  0
SEQEND
  0
ENDSEC
  0
EOF
