  0
SECTION
  2
HEADER
  9
$ACADVER
  1
AC1006
  9
$EXTMIN
 10
0.000000
 20
0.000000
 30
0.000000
  9
$EXTMAX
 10
512.000000
 20
512.000000
 30
0.000000
  0
ENDSEC
  0
SECTION
  2
ENTITIES
  0
POLYLINE
  8
0
 66
1
 70
1
  0
VERTEX
  8
0
 10
122.806765
 20
510.826167
 42
0.188645
  0
VERTEX
  8
0
 10
122.156047
 20
509.724344
 42
0.140653
  0
VERTEX
  8
0
 10
122.325106
 20
508.309362
 42
0.044415
  0
VERTEX
  8
0
 10
123.570054
 20
505.959262
 42
0.004394
  0
VERTEX
  8
0
 10
127.099281
 20
500.627549
 42
-0.008114
  0
VERTEX
  8
0
 10
129.366192
 20
497.146877
 42
-0.012210
  0
VERTEX
  8
0
 10
131.217709
 20
494.034353
 42
-0.007094
  0
VERTEX
  8
0
 10
132.652749
 20
491.395158
 42
-0.204165
  0
VERTEX
  8
0
 10
132.713937
 20
490.641810
 42
-0.189815
  0
VERTEX
  8
0
 10
132.315608
 20
490.165928
 42
-0.030306
  0
VERTEX
  8
0
 10
131.195170
 20
489.641019
 42
-0.029915
  0
VERTEX
  8
0
 10
129.730191
 20
489.159256
 42
-0.022208
  0
VERTEX
  8
0
 10
128.064780
 20
488.798202
 42
0.018733
  0
VERTEX
  8
0
 10
126.324794
 20
488.433617
 42
0.019289
  0
VERTEX
  8
0
 10
124.634100
 20
487.942725
 42
0.019431
  0
VERTEX
  8
0
 10
123.206550
 20
487.405376
 42
0.073597
  0
VERTEX
  8
0
 10
122.393359
 20
486.911496
 42
0.171706
  0
VERTEX
  8
0
 10
121.174502
 20
484.868772
 42
0.084811
  0
VERTEX
  8
0
 10
121.086777
 20
481.809273
 42
0.067928
  0
VERTEX
  8
0
 10
122.106291
 20
478.212396
 42
0.050577
  0
VERTEX
  8
0
 10
124.133389
 20
474.613098
 42
0.000000
  0
VERTEX
  8
0
 10
127.266778
 20
470.167724
 42
0.000000
  0
VERTEX
  8
0
 10
124.955487
 20
466.427976
 42
0.035130
  0
VERTEX
  8
0
 10
123.631034
 20
463.904576
 42
0.083973
  0
VERTEX
  8
0
 10
123.118499
 20
461.859495
 42
0.045674
  0
VERTEX
  8
0
 10
123.155123
 20
459.100825
 42
0.004900
  0
VERTEX
  8
0
 10
123.885615
 20
452.740964
 42
-0.004789
  0
VERTEX
  8
0
 10
124.328232
 20
448.894908
 42
-0.007515
  0
VERTEX
  8
0
 10
124.627231
 20
445.580573
 42
-0.002820
  0
VERTEX
  8
0
 10
124.823766
 20
442.749064
 42
-0.215511
  0
VERTEX
  8
0
 10
124.666995
 20
442.333662
 42
-0.320519
  0
VERTEX
  8
0
 10
123.776605
 20
442.185353
 42
-0.002193
  0
VERTEX
  8
0
 10
116.437009
 20
445.818835
 42
-0.008228
  0
VERTEX
  8
0
 10
108.799029
 20
449.800331
 42
-0.008916
  0
VERTEX
  8
0
 10
101.500000
 20
453.929321
 42
0.030228
  0
VERTEX
  8
0
 10
95.640313
 20
456.922094
 42
0.019163
  0
VERTEX
  8
0
 10
88.498572
 20
459.720433
 42
0.012580
  0
VERTEX
  8
0
 10
78.534902
 20
462.911656
 42
0.003640
  0
VERTEX
  8
0
 10
63.000000
 20
467.337183
 42
-0.008179
  0
VERTEX
  8
0
 10
56.918022
 20
469.129647
 42
-0.003371
  0
VERTEX
  8
0
 10
48.737500
 20
471.747419
 42
-0.003334
  0
VERTEX
  8
0
 10
39.998113
 20
474.673799
 42
-0.004280
  0
VERTEX
  8
0
 10
32.000000
 20
477.488122
 42
0.001695
  0
VERTEX
  8
0
 10
24.801947
 20
480.062813
 42
0.002536
  0
VERTEX
  8
0
 10
18.493750
 20
482.259180
 42
0.001057
  0
VERTEX
  8
0
 10
13.081308
 20
484.100172
 42
0.054619
  0
VERTEX
  8
0
 10
12.000000
 20
484.338140
 42
0.112789
  0
VERTEX
  8
0
 10
11.428091
 20
484.270840
 42
0.112064
  0
VERTEX
  8
0
 10
10.940625
 20
483.961843
 42
0.105662
  0
VERTEX
  8
0
 10
10.614265
 20
483.455015
 42
0.090635
  0
VERTEX
  8
0
 10
10.500000
 20
482.829834
 42
0.223450
  0
VERTEX
  8
0
 10
10.966373
 20
481.838368
 42
0.025688
  0
VERTEX
  8
0
 10
12.996295
 20
480.326762
 42
0.022460
  0
VERTEX
  8
0
 10
16.075924
 20
478.464802
 42
0.008675
  0
VERTEX
  8
0
 10
20.500000
 20
476.152932
 42
-0.010960
  0
VERTEX
  8
0
 10
29.924712
 20
471.172946
 42
-0.043900
  0
VERTEX
  8
0
 10
35.319671
 20
467.515473
 42
-0.064790
  0
VERTEX
  8
0
 10
38.880662
 20
463.752939
 42
-0.047429
  0
VERTEX
  8
0
 10
41.809121
 20
458.796970
 42
-0.025541
  0
VERTEX
  8
0
 10
44.645311
 20
451.854581
 42
-0.037724
  0
VERTEX
  8
0
 10
46.344910
 20
445.500363
 42
-0.033252
  0
VERTEX
  8
0
 10
47.197661
 20
438.396309
 42
-0.014958
  0
VERTEX
  8
0
 10
47.414498
 20
429.000000
 42
-0.038534
  0
VERTEX
  8
0
 10
46.144764
 20
413.896195
 42
-0.044672
  0
VERTEX
  8
0
 10
42.573699
 20
399.921532
 42
-0.043195
  0
VERTEX
  8
0
 10
36.451614
 20
386.423512
 42
-0.032378
  0
VERTEX
  8
0
 10
27.545985
 20
372.737561
 42
0.005421
  0
VERTEX
  8
0
 10
23.561524
 20
367.281582
 42
0.031491
  0
VERTEX
  8
0
 10
21.678937
 20
364.258461
 42
0.096352
  0
VERTEX
  8
0
 10
21.174677
 20
362.639182
 42
0.436868
  0
VERTEX
  8
0
 10
21.750000
 20
361.975197
 42
0.000207
  0
VERTEX
  8
0
 10
22.287217
 20
361.957653
 42
0.000006
  0
VERTEX
  8
0
 10
24.514664
 20
361.885861
 42
0.000012
  0
VERTEX
  8
0
 10
27.138825
 20
361.801380
 42
0.000009
  0
VERTEX
  8
0
 10
30.108431
 20
361.705903
 42
-0.015623
  0
VERTEX
  8
0
 10
34.268295
 20
361.441955
 42
-0.035426
  0
VERTEX
  8
0
 10
37.375964
 20
360.923109
 42
-0.038129
  0
VERTEX
  8
0
 10
40.237652
 20
359.998621
 42
-0.021015
  0
VERTEX
  8
0
 10
43.580919
 20
358.462423
 42
-0.066711
  0
VERTEX
  8
0
 10
49.755192
 20
354.184073
 42
-0.109494
  0
VERTEX
  8
0
 10
53.400496
 20
349.006961
 42
-0.105814
  0
VERTEX
  8
0
 10
54.588467
 20
342.642116
 42
-0.059333
  0
VERTEX
  8
0
 10
53.447566
 20
334.820748
 42
0.004612
  0
VERTEX
  8
0
 10
51.292994
 20
326.526604
 42
0.143108
  0
VERTEX
  8
0
 10
51.375753
 20
324.424902
 42
0.275708
  0
VERTEX
  8
0
 10
52.655866
 20
323.326597
 42
0.019489
  0
VERTEX
  8
0
 10
57.519898
 20
322.680372
 42
-0.034059
  0
VERTEX
  8
0
 10
63.132618
 20
321.767661
 42
-0.072106
  0
VERTEX
  8
0
 10
67.226618
 20
320.164380
 42
-0.083593
  0
VERTEX
  8
0
 10
70.313536
 20
317.647512
 42
-0.060596
  0
VERTEX
  8
0
 10
72.818840
 20
313.977122
 42
-0.070059
  0
VERTEX
  8
0
 10
74.346113
 20
309.631952
 42
-0.067189
  0
VERTEX
  8
0
 10
74.644567
 20
304.970031
 42
-0.058970
  0
VERTEX
  8
0
 10
73.676802
 20
299.884494
 42
-0.037308
  0
VERTEX
  8
0
 10
71.432393
 20
294.272289
 42
0.015701
  0
VERTEX
  8
0
 10
70.466306
 20
292.129790
 42
0.020658
  0
VERTEX
  8
0
 10
69.729296
 20
290.116401
 42
0.018622
  0
VERTEX
  8
0
 10
69.257491
 20
288.427134
 42
0.151525
  0
VERTEX
  8
0
 10
69.309513
 20
287.635806
 42
0.235899
  0
VERTEX
  8
0
 10
69.968261
 20
287.033026
 42
0.046632
  0
VERTEX
  8
0
 10
71.589105
 20
286.730475
 42
0.028609
  0
VERTEX
  8
0
 10
74.201816
 20
286.641242
 42
0.007344
  0
VERTEX
  8
0
 10
78.425874
 20
286.800777
 42
-0.029665
  0
VERTEX
  8
0
 10
85.753612
 20
286.750404
 42
-0.066667
  0
VERTEX
  8
0
 10
91.192638
 20
285.651689
 42
-0.077107
  0
VERTEX
  8
0
 10
95.652588
 20
283.293568
 42
-0.052230
  0
VERTEX
  8
0
 10
99.887335
 20
279.390655
 42
-0.031891
  0
VERTEX
  8
0
 10
104.252176
 20
273.743646
 42
-0.064059
  0
VERTEX
  8
0
 10
106.780901
 20
268.719829
 42
-0.059609
  0
VERTEX
  8
0
 10
108.059068
 20
262.985194
 42
-0.024364
  0
VERTEX
  8
0
 10
108.470720
 20
255.000000
 42
-0.007343
  0
VERTEX
  8
0
 10
108.417007
 20
250.485596
 42
-0.005791
  0
VERTEX
  8
0
 10
108.230521
 20
245.601562
 42
-0.005858
  0
VERTEX
  8
0
 10
107.951559
 20
241.068453
 42
-0.014411
  0
VERTEX
  8
0
 10
107.611905
 20
237.750000
 42
0.005380
  0
VERTEX
  8
0
 10
107.114717
 20
233.628692
 42
0.064298
  0
VERTEX
  8
0
 10
107.145324
 20
232.028106
 42
0.219909
  0
VERTEX
  8
0
 10
107.624181
 20
231.297956
 42
0.143144
  0
VERTEX
  8
0
 10
108.611905
 20
231.021351
 42
0.135340
  0
VERTEX
  8
0
 10
109.519148
 20
231.282581
 42
0.036981
  0
VERTEX
  8
0
 10
110.739990
 20
232.160299
 42
0.034550
  0
VERTEX
  8
0
 10
112.030739
 20
233.402735
 42
0.029999
  0
VERTEX
  8
0
 10
113.205081
 20
234.868637
 42
-0.058149
  0
VERTEX
  8
0
 10
116.682578
 20
238.741965
 42
-0.035925
  0
VERTEX
  8
0
 10
121.555815
 20
242.455917
 42
-0.035291
  0
VERTEX
  8
0
 10
127.060345
 20
245.526516
 42
-0.046670
  0
VERTEX
  8
0
 10
132.460099
 20
247.467100
 42
-0.016260
  0
VERTEX
  8
0
 10
137.391867
 20
248.565908
 42
-0.045220
  0
VERTEX
  8
0
 10
140.921527
 20
248.906962
 42
-0.046974
  0
VERTEX
  8
0
 10
144.378950
 20
248.602158
 42
-0.018684
  0
VERTEX
  8
0
 10
149.032072
 20
247.565658
 42
0.030442
  0
VERTEX
  8
0
 10
153.573232
 20
246.665554
 42
0.191349
  0
VERTEX
  8
0
 10
155.822769
 20
247.223970
 42
0.257229
  0
VERTEX
  8
0
 10
156.684286
 20
249.026690
 42
0.053327
  0
VERTEX
  8
0
 10
156.088776
 20
252.618913
 42
-0.023896
  0
VERTEX
  8
0
 10
155.678208
 20
254.428943
 42
-0.013034
  0
VERTEX
  8
0
 10
155.339547
 20
256.681806
 42
-0.012962
  0
VERTEX
  8
0
 10
155.113994
 20
258.994546
 42
-0.020066
  0
VERTEX
  8
0
 10
155.051466
 20
261.000000
 42
0.000000
  0
VERTEX
  8
0
 10
155.091778
 20
265.500000
 42
0.000000
  0
VERTEX
  8
0
 10
158.098006
 20
259.000000
 42
-0.013319
  0
VERTEX
  8
0
 10
159.929532
 20
254.746058
 42
-0.064800
  0
VERTEX
  8
0
 10
160.578883
 20
252.208335
 42
-0.054792
  0
VERTEX
  8
0
 10
160.611414
 20
249.406591
 42
-0.007838
  0
VERTEX
  8
0
 10
159.960214
 20
243.695856
 42
0.046768
  0
VERTEX
  8
0
 10
159.477813
 20
230.207536
 42
0.032509
  0
VERTEX
  8
0
 10
161.345114
 20
215.067191
 42
0.031854
  0
VERTEX
  8
0
 10
165.244267
 20
199.885236
 42
0.038185
  0
VERTEX
  8
0
 10
170.871678
 20
186.250000
 42
0.019890
  0
VERTEX
  8
0
 10
173.774589
 20
181.030005
 42
0.302251
  0
VERTEX
  8
0
 10
175.559956
 20
180.197209
 42
0.282201
  0
VERTEX
  8
0
 10
177.116411
 20
181.510017
 42
0.018137
  0
VERTEX
  8
0
 10
178.851749
 20
187.460868
 42
-0.019631
  0
VERTEX
  8
0
 10
179.876716
 20
190.937032
 42
-0.053556
  0
VERTEX
  8
0
 10
180.951103
 20
193.261268
 42
-0.101302
  0
VERTEX
  8
0
 10
182.022443
 20
194.430064
 42
-0.304012
  0
VERTEX
  8
0
 10
183.052006
 20
194.467858
 42
-0.102081
  0
VERTEX
  8
0
 10
183.511148
 20
194.034053
 42
-0.006520
  0
VERTEX
  8
0
 10
184.555755
 20
192.498168
 42
-0.009335
  0
VERTEX
  8
0
 10
185.751215
 20
190.614719
 42
-0.006801
  0
VERTEX
  8
0
 10
187.012090
 20
188.478869
 42
0.016272
  0
VERTEX
  8
0
 10
188.305290
 20
186.380098
 42
0.023074
  0
VERTEX
  8
0
 10
189.598775
 20
184.609418
 42
0.020414
  0
VERTEX
  8
0
 10
190.756800
 20
183.283387
 42
0.205863
  0
VERTEX
  8
0
 10
191.415920
 20
183.000000
 42
0.175263
  0
VERTEX
  8
0
 10
192.025900
 20
183.220590
 42
0.035851
  0
VERTEX
  8
0
 10
192.865931
 20
184.028125
 42
0.033749
  0
VERTEX
  8
0
 10
193.755246
 20
185.159964
 42
0.026132
  0
VERTEX
  8
0
 10
194.569933
 20
186.500000
 42
-0.033381
  0
VERTEX
  8
0
 10
196.100768
 20
188.937728
 42
-0.175667
  0
VERTEX
  8
0
 10
197.388291
 20
189.810159
 42
-0.220045
  0
VERTEX
  8
0
 10
198.752463
 20
189.554255
 42
-0.054206
  0
VERTEX
  8
0
 10
200.500000
 20
188.000000
 42
0.059752
  0
VERTEX
  8
0
 10
202.210550
 20
186.512187
 42
0.171993
  0
VERTEX
  8
0
 10
203.709833
 20
186.119995
 42
0.170034
  0
VERTEX
  8
0
 10
205.132907
 20
186.758314
 42
0.058131
  0
VERTEX
  8
0
 10
206.604339
 20
188.518897
 42
0.066845
  0
VERTEX
  8
0
 10
207.396857
 20
190.174099
 42
0.050130
  0
VERTEX
  8
0
 10
207.824204
 20
192.151144
 42
0.032875
  0
VERTEX
  8
0
 10
207.951839
 20
194.866071
 42
0.009769
  0
VERTEX
  8
0
 10
207.792764
 20
199.018897
 42
-0.002502
  0
VERTEX
  8
0
 10
207.630962
 20
202.079284
 42
-0.004181
  0
VERTEX
  8
0
 10
207.529262
 20
204.655551
 42
-0.000705
  0
VERTEX
  8
0
 10
207.462166
 20
206.915274
 42
-0.422519
  0
VERTEX
  8
0
 10
207.544530
 20
207.000000
 42
-0.103036
  0
VERTEX
  8
0
 10
207.704935
 20
206.966590
 42
-0.000481
  0
VERTEX
  8
0
 10
209.273200
 20
206.281883
 42
-0.002228
  0
VERTEX
  8
0
 10
211.054904
 20
205.492465
 42
-0.001404
  0
VERTEX
  8
0
 10
213.129157
 20
204.555345
 42
0.025499
  0
VERTEX
  8
0
 10
219.654308
 20
201.978125
 42
0.013815
  0
VERTEX
  8
0
 10
227.906830
 20
199.447488
 42
0.013642
  0
VERTEX
  8
0
 10
236.573722
 20
197.302324
 42
0.019093
  0
VERTEX
  8
0
 10
244.426383
 20
195.896309
 42
0.000000
  0
VERTEX
  8
0
 10
252.921252
 20
194.707936
 42
0.000000
  0
VERTEX
  8
0
 10
253.541582
 20
190.103968
 42
0.035382
  0
VERTEX
  8
0
 10
255.107764
 20
182.558740
 42
0.042637
  0
VERTEX
  8
0
 10
257.661986
 20
175.785667
 42
0.042248
  0
VERTEX
  8
0
 10
261.350695
 20
169.494249
 42
0.033721
  0
VERTEX
  8
0
 10
266.310024
 20
163.388439
 42
0.022630
  0
VERTEX
  8
0
 10
270.421136
 20
159.354114
 42
0.158517
  0
VERTEX
  8
0
 10
272.957247
 20
158.232791
 42
0.352837
  0
VERTEX
  8
0
 10
274.477840
 20
159.221480
 42
0.079135
  0
VERTEX
  8
0
 10
275.000000
 20
162.500000
 42
-0.069706
  0
VERTEX
  8
0
 10
275.396000
 20
165.326721
 42
-0.279283
  0
VERTEX
  8
0
 10
276.623491
 20
166.465068
 42
-0.167143
  0
VERTEX
  8
0
 10
278.784725
 20
166.186522
 42
-0.026450
  0
VERTEX
  8
0
 10
282.569039
 20
164.058353
 42
0.051781
  0
VERTEX
  8
0
 10
288.846579
 20
160.934818
 42
0.304532
  0
VERTEX
  8
0
 10
292.246451
 20
161.741587
 42
0.207806
  0
VERTEX
  8
0
 10
293.650034
 20
165.750057
 42
0.028279
  0
VERTEX
  8
0
 10
292.475855
 20
174.765501
 42
-0.009664
  0
VERTEX
  8
0
 10
291.681034
 20
179.488450
 42
-0.021324
  0
VERTEX
  8
0
 10
291.298657
 20
183.125214
 42
-0.027272
  0
VERTEX
  8
0
 10
291.275895
 20
186.126497
 42
-0.036098
  0
VERTEX
  8
0
 10
291.600538
 20
188.839150
 42
0.000000
  0
VERTEX
  8
0
 10
292.500000
 20
193.484131
 42
0.000000
  0
VERTEX
  8
0
 10
297.500000
 20
194.163199
 42
-0.011270
  0
VERTEX
  8
0
 10
300.013072
 20
194.446986
 42
-0.004105
  0
VERTEX
  8
0
 10
303.584270
 20
194.739395
 42
-0.004068
  0
VERTEX
  8
0
 10
307.497142
 20
194.995470
 42
-0.004848
  0
VERTEX
  8
0
 10
311.191132
 20
195.171134
 42
0.000000
  0
VERTEX
  8
0
 10
319.882264
 20
195.500000
 42
0.000000
  0
VERTEX
  8
0
 10
321.008320
 20
189.000000
 42
0.051601
  0
VERTEX
  8
0
 10
323.486200
 20
180.205966
 42
0.049326
  0
VERTEX
  8
0
 10
327.739455
 20
171.962533
 42
0.053697
  0
VERTEX
  8
0
 10
332.700036
 20
165.855678
 42
0.197851
  0
VERTEX
  8
0
 10
337.206056
 20
164.000000
 42
0.060406
  0
VERTEX
  8
0
 10
338.151333
 20
164.114619
 42
0.036299
  0
VERTEX
  8
0
 10
339.227689
 20
164.464038
 42
0.035894
  0
VERTEX
  8
0
 10
340.263280
 20
164.974829
 42
0.051442
  0
VERTEX
  8
0
 10
341.088072
 20
165.579704
 42
-0.044897
  0
VERTEX
  8
0
 10
342.066022
 20
166.316731
 42
-0.110853
  0
VERTEX
  8
0
 10
342.909510
 20
166.610640
 42
-0.109164
  0
VERTEX
  8
0
 10
343.805897
 20
166.518002
 42
-0.042763
  0
VERTEX
  8
0
 10
344.954585
 20
166.024305
 42
0.049562
  0
VERTEX
  8
0
 10
345.901109
 20
165.632625
 42
0.038511
  0
VERTEX
  8
0
 10
346.990177
 20
165.393286
 42
0.039620
  0
VERTEX
  8
0
 10
348.051173
 20
165.329396
 42
0.072195
  0
VERTEX
  8
0
 10
348.905889
 20
165.470130
 42
0.098430
  0
VERTEX
  8
0
 10
351.330529
 20
166.805946
 42
0.103274
  0
VERTEX
  8
0
 10
353.011048
 20
168.948217
 42
0.071724
  0
VERTEX
  8
0
 10
354.086476
 20
172.235531
 42
0.025278
  0
VERTEX
  8
0
 10
354.693652
 20
177.170405
 42
-0.021899
  0
VERTEX
  8
0
 10
355.266359
 20
182.099601
 42
-0.043309
  0
VERTEX
  8
0
 10
356.224839
 20
185.916564
 42
-0.044859
  0
VERTEX
  8
0
 10
357.800898
 20
189.424617
 42
-0.025306
  0
VERTEX
  8
0
 10
360.290615
 20
193.373774
 42
-0.043236
  0
VERTEX
  8
0
 10
361.728919
 20
195.083043
 42
-0.140479
  0
VERTEX
  8
0
 10
363.011983
 20
195.793550
 42
-0.073031
  0
VERTEX
  8
0
 10
364.925019
 20
195.948441
 42
-0.006340
  0
VERTEX
  8
0
 10
369.808911
 20
195.568238
 42
-0.003433
  0
VERTEX
  8
0
 10
372.872733
 20
195.269376
 42
-0.003616
  0
VERTEX
  8
0
 10
375.879608
 20
194.933209
 42
-0.003461
  0
VERTEX
  8
0
 10
378.468437
 20
194.606617
 42
-0.016247
  0
VERTEX
  8
0
 10
379.948181
 20
194.360364
 42
0.000000
  0
VERTEX
  8
0
 10
382.590999
 20
193.831800
 42
0.000000
  0
VERTEX
  8
0
 10
380.185251
 20
186.665900
 42
0.018386
  0
VERTEX
  8
0
 10
378.886049
 20
182.266173
 42
0.036753
  0
VERTEX
  8
0
 10
378.248096
 20
178.697389
 42
0.027847
  0
VERTEX
  8
0
 10
378.047042
 20
174.488983
 42
0.006690
  0
VERTEX
  8
0
 10
378.196073
 20
167.500000
 42
0.013773
  0
VERTEX
  8
0
 10
378.902345
 20
156.167946
 42
0.140143
  0
VERTEX
  8
0
 10
380.581888
 20
151.815256
 42
0.519460
  0
VERTEX
  8
0
 10
382.822121
 20
151.891730
 42
0.052282
  0
VERTEX
  8
0
 10
385.718484
 20
157.537340
 42
-0.019306
  0
VERTEX
  8
0
 10
387.533339
 20
161.734125
 42
-0.045120
  0
VERTEX
  8
0
 10
389.281619
 20
164.671033
 42
-0.193649
  0
VERTEX
  8
0
 10
390.367588
 20
165.353566
 42
-0.467531
  0
VERTEX
  8
0
 10
391.000000
 20
164.825070
 42
0.080274
  0
VERTEX
  8
0
 10
391.124536
 20
164.054380
 42
0.030101
  0
VERTEX
  8
0
 10
391.532297
 20
163.035238
 42
0.028884
  0
VERTEX
  8
0
 10
392.118559
 20
161.958334
 42
0.031104
  0
VERTEX
  8
0
 10
392.812074
 20
160.983751
 42
0.119777
  0
VERTEX
  8
0
 10
394.721223
 20
159.527218
 42
0.196930
  0
VERTEX
  8
0
 10
396.722945
 20
159.478326
 42
0.130392
  0
VERTEX
  8
0
 10
398.800086
 20
160.973114
 42
0.043943
  0
VERTEX
  8
0
 10
400.923955
 20
164.078486
 42
-0.074749
  0
VERTEX
  8
0
 10
404.983945
 20
169.296200
 42
-0.078298
  0
VERTEX
  8
0
 10
410.340138
 20
172.992458
 42
-0.088688
  0
VERTEX
  8
0
 10
415.952779
 20
174.550963
 42
-0.143776
  0
VERTEX
  8
0
 10
420.778328
 20
173.614631
 42
-0.098320
  0
VERTEX
  8
0
 10
423.824686
 20
171.184933
 42
-0.024481
  0
VERTEX
  8
0
 10
427.713766
 20
166.096329
 42
-0.025891
  0
VERTEX
  8
0
 10
431.191241
 20
160.447911
 42
-0.059331
  0
VERTEX
  8
0
 10
433.049329
 20
155.816805
 42
-0.045080
  0
VERTEX
  8
0
 10
433.851851
 20
151.222537
 42
-0.021962
  0
VERTEX
  8
0
 10
434.083690
 20
145.268604
 42
-0.021734
  0
VERTEX
  8
0
 10
433.801013
 20
139.439668
 42
-0.056775
  0
VERTEX
  8
0
 10
432.947007
 20
135.339428
 42
0.000000
  0
VERTEX
  8
0
 10
431.769013
 20
131.770073
 42
0.000000
  0
VERTEX
  8
0
 10
428.888473
 20
137.135037
 42
0.060655
  0
VERTEX
  8
0
 10
424.203953
 20
143.782118
 42
0.064702
  0
VERTEX
  8
0
 10
418.152000
 20
148.947262
 42
0.062100
  0
VERTEX
  8
0
 10
410.755687
 20
152.549678
 42
0.049368
  0
VERTEX
  8
0
 10
402.101683
 20
154.580899
 42
0.042300
  0
VERTEX
  8
0
 10
397.968781
 20
154.776678
 42
0.309437
  0
VERTEX
  8
0
 10
396.458788
 20
153.658517
 42
0.211456
  0
VERTEX
  8
0
 10
396.647946
 20
151.400045
 42
0.023090
  0
VERTEX
  8
0
 10
399.422203
 20
146.839421
 42
-0.007119
  0
VERTEX
  8
0
 10
400.792843
 20
144.740233
 42
-0.010052
  0
VERTEX
  8
0
 10
401.949022
 20
142.829229
 42
-0.006594
  0
VERTEX
  8
0
 10
402.857892
 20
141.207447
 42
-0.125050
  0
VERTEX
  8
0
 10
403.000000
 20
140.648125
 42
-0.377842
  0
VERTEX
  8
0
 10
402.726247
 20
140.337584
 42
-0.022773
  0
VERTEX
  8
0
 10
401.383318
 20
140.229625
 42
-0.024962
  0
VERTEX
  8
0
 10
399.606666
 20
140.256692
 42
-0.014788
  0
VERTEX
  8
0
 10
397.496400
 20
140.457183
 42
0.030514
  0
VERTEX
  8
0
 10
393.418453
 20
140.715619
 42
0.205732
  0
VERTEX
  8
0
 10
391.597076
 20
139.937985
 42
0.267199
  0
VERTEX
  8
0
 10
391.185231
 20
138.249743
 42
0.048620
  0
VERTEX
  8
0
 10
392.427646
 20
135.139917
 42
-0.059182
  0
VERTEX
  8
0
 10
393.701701
 20
131.745058
 42
-0.088753
  0
VERTEX
  8
0
 10
393.902884
 20
128.593923
 42
-0.089900
  0
VERTEX
  8
0
 10
393.000275
 20
125.597696
 42
-0.062233
  0
VERTEX
  8
0
 10
391.008022
 20
122.661918
 42
0.039460
  0
VERTEX
  8
0
 10
388.622578
 20
119.469054
 42
0.024354
  0
VERTEX
  8
0
 10
386.316352
 20
115.385229
 42
0.023145
  0
VERTEX
  8
0
 10
384.537419
 20
111.391999
 42
0.090310
  0
VERTEX
  8
0
 10
384.021962
 20
108.750000
 42
-0.319212
  0
VERTEX
  8
0
 10
383.158540
 20
107.567099
 42
-0.063729
  0
VERTEX
  8
0
 10
380.442883
 20
107.030705
 42
-0.032867
  0
VERTEX
  8
0
 10
375.715246
 20
107.021195
 42
-0.007618
  0
VERTEX
  8
0
 10
367.783372
 20
107.648598
 42
0.000000
  0
VERTEX
  8
0
 10
361.066743
 20
108.282977
 42
0.000000
  0
VERTEX
  8
0
 10
359.530356
 20
112.891488
 42
0.082547
  0
VERTEX
  8
0
 10
354.183147
 20
123.001207
 42
0.021397
  0
VERTEX
  8
0
 10
342.363022
 20
137.206082
 42
0.014105
  0
VERTEX
  8
0
 10
329.575220
 20
150.526094
 42
0.294056
  0
VERTEX
  8
0
 10
324.408902
 20
151.603416
 42
0.081305
  0
VERTEX
  8
0
 10
323.756614
 20
151.222402
 42
0.127091
  0
VERTEX
  8
0
 10
323.377168
 20
150.698748
 42
0.120200
  0
VERTEX
  8
0
 10
323.286938
 20
150.034323
 42
0.068197
  0
VERTEX
  8
0
 10
323.481322
 20
149.241571
 42
-0.024848
  0
VERTEX
  8
0
 10
323.783808
 20
148.349614
 42
-0.008826
  0
VERTEX
  8
0
 10
324.129630
 20
147.047640
 42
-0.008734
  0
VERTEX
  8
0
 10
324.459618
 20
145.602536
 42
-0.010178
  0
VERTEX
  8
0
 10
324.721033
 20
144.218482
 42
0.000000
  0
VERTEX
  8
0
 10
325.271914
 20
140.936963
 42
0.000000
  0
VERTEX
  8
0
 10
322.239835
 20
142.677138
 42
0.020118
  0
VERTEX
  8
0
 10
320.552027
 20
143.557530
 42
0.088367
  0
VERTEX
  8
0
 10
319.471609
 20
143.849910
 42
0.129687
  0
VERTEX
  8
0
 10
318.576363
 20
143.696305
 42
0.066313
  0
VERTEX
  8
0
 10
317.603878
 20
143.086211
 42
0.070974
  0
VERTEX
  8
0
 10
316.989684
 20
142.408623
 42
0.044601
  0
VERTEX
  8
0
 10
316.471139
 20
141.471740
 42
0.043954
  0
VERTEX
  8
0
 10
316.118097
 20
140.436023
 42
0.060239
  0
VERTEX
  8
0
 10
316.000000
 20
139.459343
 42
-0.041799
  0
VERTEX
  8
0
 10
315.767556
 20
136.683721
 42
-0.146716
  0
VERTEX
  8
0
 10
314.982380
 20
135.092763
 42
-0.156767
  0
VERTEX
  8
0
 10
313.487646
 20
134.256698
 42
-0.049787
  0
VERTEX
  8
0
 10
310.916064
 20
134.000000
 42
0.074736
  0
VERTEX
  8
0
 10
308.158002
 20
133.585434
 42
0.118792
  0
VERTEX
  8
0
 10
306.114324
 20
132.374616
 42
0.099033
  0
VERTEX
  8
0
 10
304.607282
 20
130.181359
 42
0.040904
  0
VERTEX
  8
0
 10
303.459315
 20
126.750000
 42
-0.032439
  0
VERTEX
  8
0
 10
303.126740
 20
125.697067
 42
-0.044569
  0
VERTEX
  8
0
 10
302.686303
 20
124.807812
 42
-0.052329
  0
VERTEX
  8
0
 10
302.210462
 20
124.186418
 42
-0.206023
  0
VERTEX
  8
0
 10
301.777244
 20
124.000000
 42
-0.068336
  0
VERTEX
  8
0
 10
301.067079
 20
124.097515
 42
-0.001935
  0
VERTEX
  8
0
 10
298.102633
 20
124.939657
 42
-0.003908
  0
VERTEX
  8
0
 10
294.619955
 20
125.973151
 42
-0.002673
  0
VERTEX
  8
0
 10
290.680525
 20
127.198831
 42
-0.009139
  0
VERTEX
  8
0
 10
285.324191
 20
129.005202
 42
-0.031674
  0
VERTEX
  8
0
 10
281.966683
 20
130.451993
 42
-0.046889
  0
VERTEX
  8
0
 10
279.579331
 20
131.961755
 42
-0.048520
  0
VERTEX
  8
0
 10
277.544872
 20
133.874509
 42
0.053983
  0
VERTEX
  8
0
 10
265.323192
 20
145.116656
 42
0.051601
  0
VERTEX
  8
0
 10
250.799365
 20
153.679239
 42
0.047311
  0
VERTEX
  8
0
 10
233.675233
 20
159.641302
 42
0.033883
  0
VERTEX
  8
0
 10
213.688983
 20
163.128694
 42
0.013928
  0
VERTEX
  8
0
 10
207.059510
 20
163.641226
 42
0.012883
  0
VERTEX
  8
0
 10
200.236994
 20
163.801848
 42
0.009828
  0
VERTEX
  8
0
 10
191.933249
 20
163.620121
 42
0.003801
  0
VERTEX
  8
0
 10
180.434579
 20
163.054640
 42
-0.004441
  0
VERTEX
  8
0
 10
171.478289
 20
162.625678
 42
-0.004916
  0
VERTEX
  8
0
 10
162.813842
 20
162.373088
 42
-0.004575
  0
VERTEX
  8
0
 10
155.417700
 20
162.297926
 42
-0.025167
  0
VERTEX
  8
0
 10
151.434579
 20
162.494502
 42
-0.020231
  0
VERTEX
  8
0
 10
139.623069
 20
164.160109
 42
-0.020774
  0
VERTEX
  8
0
 10
128.090046
 20
166.764446
 42
-0.019996
  0
VERTEX
  8
0
 10
116.418260
 20
170.421291
 42
-0.016103
  0
VERTEX
  8
0
 10
104.186657
 20
175.247420
 42
0.010274
  0
VERTEX
  8
0
 10
95.351951
 20
178.852825
 42
0.427672
  0
VERTEX
  8
0
 10
93.675421
 20
178.060792
 42
0.266012
  0
VERTEX
  8
0
 10
94.147378
 20
175.718046
 42
0.006859
  0
VERTEX
  8
0
 10
101.590071
 20
167.443045
 42
-0.003716
  0
VERTEX
  8
0
 10
112.993118
 20
154.923981
 42
-0.033459
  0
VERTEX
  8
0
 10
117.564016
 20
149.088318
 42
-0.088559
  0
VERTEX
  8
0
 10
119.295653
 20
145.220122
 42
-0.154970
  0
VERTEX
  8
0
 10
119.075890
 20
141.750000
 42
-0.142510
  0
VERTEX
  8
0
 10
114.318596
 20
135.541881
 42
-0.033229
  0
VERTEX
  8
0
 10
103.133616
 20
128.413672
 42
-0.032041
  0
VERTEX
  8
0
 10
88.800324
 20
121.719991
 42
-0.028376
  0
VERTEX
  8
0
 10
73.141303
 20
116.598352
 42
0.011492
  0
VERTEX
  8
0
 10
69.583318
 20
115.566172
 42
0.022030
  0
VERTEX
  8
0
 10
66.790955
 20
114.548816
 42
0.020981
  0
VERTEX
  8
0
 10
64.758639
 20
113.603445
 42
0.231174
  0
VERTEX
  8
0
 10
64.237915
 20
112.902711
 42
0.206101
  0
VERTEX
  8
0
 10
64.393088
 20
112.214609
 42
0.041532
  0
VERTEX
  8
0
 10
65.230696
 20
111.242724
 42
0.037566
  0
VERTEX
  8
0
 10
66.469312
 20
110.196580
 42
0.027386
  0
VERTEX
  8
0
 10
67.985627
 20
109.221457
 42
-0.027766
  0
VERTEX
  8
0
 10
72.009562
 20
106.629389
 42
-0.027637
  0
VERTEX
  8
0
 10
75.728079
 20
103.603631
 42
-0.028757
  0
VERTEX
  8
0
 10
78.667620
 20
100.602314
 42
-0.088777
  0
VERTEX
  8
0
 10
80.122843
 20
98.176898
 42
-0.183306
  0
VERTEX
  8
0
 10
80.125022
 20
95.212403
 42
-0.104659
  0
VERTEX
  8
0
 10
78.165602
 20
92.158187
 42
-0.040973
  0
VERTEX
  8
0
 10
73.354354
 20
88.023377
 42
-0.005545
  0
VERTEX
  8
0
 10
62.495011
 20
80.320880
 42
0.005987
  0
VERTEX
  8
0
 10
51.503343
 20
72.509936
 42
0.071806
  0
VERTEX
  8
0
 10
47.789512
 20
68.885916
 42
0.397828
  0
VERTEX
  8
0
 10
48.006780
 20
66.783834
 42
0.138876
  0
VERTEX
  8
0
 10
51.034671
 20
65.378465
 42
-0.092457
  0
VERTEX
  8
0
 10
56.616209
 20
63.385506
 42
-0.177451
  0
VERTEX
  8
0
 10
59.609946
 20
59.774496
 42
-0.157906
  0
VERTEX
  8
0
 10
59.749515
 20
54.744474
 42
-0.070036
  0
VERTEX
  8
0
 10
56.978451
 20
48.627074
 42
-0.011826
  0
VERTEX
  8
0
 10
55.356504
 20
46.198483
 42
-0.003671
  0
VERTEX
  8
0
 10
52.806149
 20
42.624733
 42
-0.003668
  0
VERTEX
  8
0
 10
49.896118
 20
38.671030
 42
-0.004033
  0
VERTEX
  8
0
 10
47.017896
 20
34.884131
 42
0.017650
  0
VERTEX
  8
0
 10
41.201050
 20
26.782087
 42
0.031602
  0
VERTEX
  8
0
 10
37.101272
 20
19.690780
 42
0.038322
  0
VERTEX
  8
0
 10
34.505119
 20
13.273039
 42
0.054396
  0
VERTEX
  8
0
 10
33.288306
 20
7.242863
 42
0.013350
  0
VERTEX
  8
0
 10
33.117584
 20
4.567706
 42
0.032273
  0
VERTEX
  8
0
 10
33.172024
 20
2.587935
 42
0.043142
  0
VERTEX
  8
0
 10
33.420585
 20
1.208247
 42
0.190440
  0
VERTEX
  8
0
 10
33.905091
 20
0.558657
 42
0.266263
  0
VERTEX
  8
0
 10
34.672073
 20
0.533242
 42
0.025019
  0
VERTEX
  8
0
 10
36.355176
 20
1.536101
 42
0.025489
  0
VERTEX
  8
0
 10
38.441147
 20
3.083854
 42
0.014069
  0
VERTEX
  8
0
 10
40.833647
 20
5.171489
 42
-0.040815
  0
VERTEX
  8
0
 10
48.472233
 20
11.149038
 42
-0.046918
  0
VERTEX
  8
0
 10
56.645036
 20
15.494227
 42
-0.048742
  0
VERTEX
  8
0
 10
65.196453
 20
18.115937
 42
-0.051055
  0
VERTEX
  8
0
 10
73.960099
 20
18.978038
 42
-0.047572
  0
VERTEX
  8
0
 10
78.740781
 20
18.503024
 42
-0.049326
  0
VERTEX
  8
0
 10
83.285076
 20
17.133674
 42
-0.039617
  0
VERTEX
  8
0
 10
88.237803
 20
14.615084
 42
-0.017539
  0
VERTEX
  8
0
 10
94.359888
 20
10.562730
 42
0.040839
  0
VERTEX
  8
0
 10
105.618743
 20
3.842086
 42
0.127154
  0
VERTEX
  8
0
 10
114.201584
 20
2.070343
 42
0.143573
  0
VERTEX
  8
0
 10
121.936637
 20
4.759422
 42
0.057694
  0
VERTEX
  8
0
 10
130.321984
 20
12.340018
 42
-0.031188
  0
VERTEX
  8
0
 10
135.325796
 20
17.369351
 42
-0.057662
  0
VERTEX
  8
0
 10
140.043067
 20
20.669074
 42
-0.066275
  0
VERTEX
  8
0
 10
144.907516
 20
22.515833
 42
-0.057684
  0
VERTEX
  8
0
 10
150.324442
 20
23.142857
 42
-0.046276
  0
VERTEX
  8
0
 10
155.417511
 20
22.670467
 42
-0.061737
  0
VERTEX
  8
0
 10
159.839364
 20
21.262353
 42
-0.050175
  0
VERTEX
  8
0
 10
164.422896
 20
18.565227
 42
-0.019939
  0
VERTEX
  8
0
 10
170.141933
 20
14.015524
 42
0.005534
  0
VERTEX
  8
0
 10
172.874276
 20
11.710279
 42
0.008326
  0
VERTEX
  8
0
 10
175.311494
 20
9.767060
 42
0.004083
  0
VERTEX
  8
0
 10
177.406418
 20
8.180164
 42
0.161409
  0
VERTEX
  8
0
 10
177.949975
 20
8.000000
 42
0.249464
  0
VERTEX
  8
0
 10
178.852799
 20
8.480337
 42
0.103254
  0
VERTEX
  8
0
 10
179.391275
 20
9.801131
 42
0.075559
  0
VERTEX
  8
0
 10
179.447559
 20
11.645492
 42
0.060824
  0
VERTEX
  8
0
 10
178.971948
 20
13.573784
 42
-0.040579
  0
VERTEX
  8
0
 10
178.597952
 20
14.863660
 42
-0.015897
  0
VERTEX
  8
0
 10
178.285510
 20
16.691439
 42
-0.015613
  0
VERTEX
  8
0
 10
178.071260
 20
18.699541
 42
-0.018769
  0
VERTEX
  8
0
 10
178.000000
 20
20.597218
 42
-0.115871
  0
VERTEX
  8
0
 10
180.262695
 20
30.229971
 42
-0.116494
  0
VERTEX
  8
0
 10
186.575049
 20
37.825927
 42
-0.119635
  0
VERTEX
  8
0
 10
195.469171
 20
41.663577
 42
-0.126833
  0
VERTEX
  8
0
 10
204.926540
 20
40.875764
 42
0.071552
  0
VERTEX
  8
0
 10
207.751620
 20
40.324916
 42
0.308270
  0
VERTEX
  8
0
 10
209.137457
 20
41.171429
 42
0.129821
  0
VERTEX
  8
0
 10
209.543770
 20
43.593608
 42
0.012653
  0
VERTEX
  8
0
 10
208.842718
 20
49.542626
 42
-0.093498
  0
VERTEX
  8
0
 10
209.652954
 20
68.009541
 42
-0.093064
  0
VERTEX
  8
0
 10
217.132847
 20
84.945562
 42
-0.093707
  0
VERTEX
  8
0
 10
230.190963
 20
97.926724
 42
-0.096375
  0
VERTEX
  8
0
 10
246.962893
 20
105.085462
 42
-0.086832
  0
VERTEX
  8
0
 10
262.257578
 20
105.667442
 42
-0.040970
  0
VERTEX
  8
0
 10
281.615501
 20
101.397730
 42
-0.030702
  0
VERTEX
  8
0
 10
305.818191
 20
92.277560
 42
-0.013710
  0
VERTEX
  8
0
 10
336.500000
 20
77.487894
 42
0.004674
  0
VERTEX
  8
0
 10
353.669481
 20
68.825859
 42
0.015663
  0
VERTEX
  8
0
 10
365.141796
 20
63.611930
 42
0.022782
  0
VERTEX
  8
0
 10
374.324931
 20
60.263013
 42
0.025155
  0
VERTEX
  8
0
 10
383.478316
 20
57.888315
 42
0.052091
  0
VERTEX
  8
0
 10
401.414463
 20
56.098647
 42
0.046545
  0
VERTEX
  8
0
 10
420.045761
 20
57.923963
 42
0.040372
  0
VERTEX
  8
0
 10
440.313218
 20
63.563293
 42
0.024520
  0
VERTEX
  8
0
 10
463.230335
 20
73.282539
 42
0.013522
  0
VERTEX
  8
0
 10
474.312525
 20
79.012444
 42
0.044991
  0
VERTEX
  8
0
 10
481.099241
 20
83.597402
 42
0.056604
  0
VERTEX
  8
0
 10
486.105396
 20
88.722670
 42
0.031788
  0
VERTEX
  8
0
 10
491.004403
 20
95.929816
 42
0.042848
  0
VERTEX
  8
0
 10
496.271313
 20
106.894589
 42
0.039025
  0
VERTEX
  8
0
 10
499.789995
 20
118.942705
 42
0.036209
  0
VERTEX
  8
0
 10
501.579004
 20
132.238346
 42
0.027566
  0
VERTEX
  8
0
 10
501.670853
 20
146.938524
 42
0.020637
  0
VERTEX
  8
0
 10
500.533170
 20
159.525883
 42
0.032477
  0
VERTEX
  8
0
 10
498.416627
 20
170.167153
 42
0.033617
  0
VERTEX
  8
0
 10
495.004914
 20
180.177341
 42
0.024306
  0
VERTEX
  8
0
 10
489.936773
 20
190.824016
 42
0.048340
  0
VERTEX
  8
0
 10
479.852546
 20
205.901534
 42
0.043011
  0
VERTEX
  8
0
 10
466.692264
 20
219.417387
 42
0.038642
  0
VERTEX
  8
0
 10
450.048499
 20
231.693649
 42
0.026482
  0
VERTEX
  8
0
 10
429.500000
 20
243.061523
 42
0.016983
  0
VERTEX
  8
0
 10
408.436671
 20
252.427415
 42
0.038927
  0
VERTEX
  8
0
 10
391.890661
 20
257.665993
 42
0.036025
  0
VERTEX
  8
0
 10
373.970185
 20
260.498966
 42
0.012719
  0
VERTEX
  8
0
 10
348.000000
 20
262.041661
 42
-0.002038
  0
VERTEX
  8
0
 10
336.304393
 20
262.485972
 42
-0.002100
  0
VERTEX
  8
0
 10
324.730086
 20
263.021629
 42
-0.002028
  0
VERTEX
  8
0
 10
314.702424
 20
263.568715
 42
-0.008958
  0
VERTEX
  8
0
 10
308.804547
 20
264.020644
 42
-0.048704
  0
VERTEX
  8
0
 10
287.291292
 20
268.196527
 42
-0.069253
  0
VERTEX
  8
0
 10
269.588757
 20
276.258331
 42
-0.078025
  0
VERTEX
  8
0
 10
256.313102
 20
287.933930
 42
-0.086150
  0
VERTEX
  8
0
 10
247.793259
 20
302.751273
 42
-0.057472
  0
VERTEX
  8
0
 10
246.048449
 20
310.034486
 42
-0.031411
  0
VERTEX
  8
0
 10
245.519823
 20
319.215424
 42
-0.031435
  0
VERTEX
  8
0
 10
246.143534
 20
328.355350
 42
-0.059480
  0
VERTEX
  8
0
 10
247.966363
 20
335.500000
 42
-0.075779
  0
VERTEX
  8
0
 10
256.282417
 20
350.027989
 42
-0.081669
  0
VERTEX
  8
0
 10
268.369836
 20
360.991098
 42
-0.071244
  0
VERTEX
  8
0
 10
284.762694
 20
368.537712
 42
-0.042073
  0
VERTEX
  8
0
 10
305.898030
 20
372.934193
 42
-0.005352
  0
VERTEX
  8
0
 10
311.967719
 20
373.606349
 42
-0.051258
  0
VERTEX
  8
0
 10
314.567768
 20
373.598963
 42
-0.089177
  0
VERTEX
  8
0
 10
316.542589
 20
373.024352
 42
-0.030902
  0
VERTEX
  8
0
 10
319.123786
 20
371.536780
 42
-0.066538
  0
VERTEX
  8
0
 10
322.525474
 20
368.568378
 42
-0.066811
  0
VERTEX
  8
0
 10
325.022604
 20
364.814607
 42
-0.062469
  0
VERTEX
  8
0
 10
326.560442
 20
360.307390
 42
-0.047525
  0
VERTEX
  8
0
 10
327.128892
 20
355.115529
 42
-0.010968
  0
VERTEX
  8
0
 10
327.109967
 20
352.707777
 42
-0.011345
  0
VERTEX
  8
0
 10
326.985066
 20
350.330189
 42
-0.011118
  0
VERTEX
  8
0
 10
326.784638
 20
348.279093
 42
-0.046957
  0
VERTEX
  8
0
 10
326.523167
 20
347.072994
 42
0.058068
  0
VERTEX
  8
0
 10
326.343040
 20
346.143040
 42
0.049524
  0
VERTEX
  8
0
 10
326.366671
 20
345.143908
 42
0.051900
  0
VERTEX
  8
0
 10
326.577569
 20
344.228022
 42
0.090923
  0
VERTEX
  8
0
 10
326.957110
 20
343.551679
 42
0.160534
  0
VERTEX
  8
0
 10
327.814063
 20
343.014747
 42
0.114634
  0
VERTEX
  8
0
 10
328.954285
 20
342.999813
 42
0.052345
  0
VERTEX
  8
0
 10
330.700659
 20
343.578096
 42
0.009489
  0
VERTEX
  8
0
 10
333.789729
 20
345.045003
 42
-0.026041
  0
VERTEX
  8
0
 10
339.217321
 20
347.405623
 42
-0.036396
  0
VERTEX
  8
0
 10
344.292717
 20
348.894907
 42
-0.033798
  0
VERTEX
  8
0
 10
349.809590
 20
349.701016
 42
-0.018630
  0
VERTEX
  8
0
 10
356.624273
 20
349.975554
 42
-0.025825
  0
VERTEX
  8
0
 10
363.031773
 20
349.663717
 42
-0.047698
  0
VERTEX
  8
0
 10
368.141931
 20
348.651273
 42
-0.043428
  0
VERTEX
  8
0
 10
373.274125
 20
346.614985
 42
-0.017888
  0
VERTEX
  8
0
 10
379.844023
 20
343.023356
 42
0.039777
  0
VERTEX
  8
0
 10
395.134255
 20
335.513403
 42
0.014243
  0
VERTEX
  8
0
 10
417.976703
 20
327.212646
 42
0.014125
  0
VERTEX
  8
0
 10
441.143257
 20
320.253476
 42
0.042641
  0
VERTEX
  8
0
 10
457.353697
 20
317.331432
 42
0.024258
  0
VERTEX
  8
0
 10
463.245358
 20
317.068455
 42
0.056529
  0
VERTEX
  8
0
 10
467.626012
 20
317.582618
 42
0.071083
  0
VERTEX
  8
0
 10
471.134781
 20
318.950411
 42
0.063262
  0
VERTEX
  8
0
 10
474.277055
 20
321.289890
 42
0.029897
  0
VERTEX
  8
0
 10
476.291070
 20
323.474971
 42
0.106083
  0
VERTEX
  8
0
 10
477.155239
 20
325.161433
 42
0.065566
  0
VERTEX
  8
0
 10
477.457260
 20
327.450024
 42
0.006864
  0
VERTEX
  8
0
 10
477.384295
 20
332.869825
 42
0.012895
  0
VERTEX
  8
0
 10
476.900843
 20
341.986962
 42
0.129933
  0
VERTEX
  8
0
 10
475.652553
 20
345.547704
 42
0.498042
  0
VERTEX
  8
0
 10
473.848573
 20
345.639853
 42
0.061739
  0
VERTEX
  8
0
 10
471.348384
 20
341.776325
 42
0.000000
  0
VERTEX
  8
0
 10
469.302743
 20
337.552650
 42
0.000000
  0
VERTEX
  8
0
 10
468.063381
 20
341.307954
 42
-0.027766
  0
VERTEX
  8
0
 10
467.415977
 20
343.710098
 42
-0.139978
  0
VERTEX
  8
0
 10
467.512784
 20
345.082705
 42
-0.101967
  0
VERTEX
  8
0
 10
468.331845
 20
346.413277
 42
-0.011341
  0
VERTEX
  8
0
 10
470.846700
 20
348.967137
 42
0.010388
  0
VERTEX
  8
0
 10
472.510026
 20
350.649835
 42
0.009059
  0
VERTEX
  8
0
 10
474.181312
 20
352.477571
 42
0.009147
  0
VERTEX
  8
0
 10
475.632492
 20
354.185496
 42
0.026499
  0
VERTEX
  8
0
 10
476.549700
 20
355.435508
 42
-0.050841
  0
VERTEX
  8
0
 10
477.594626
 20
356.723365
 42
-0.092414
  0
VERTEX
  8
0
 10
478.707112
 20
357.489799
 42
-0.077488
  0
VERTEX
  8
0
 10
480.156010
 20
357.881903
 42
-0.027413
  0
VERTEX
  8
0
 10
482.308413
 20
358.000000
 42
0.045078
  0
VERTEX
  8
0
 10
484.732591
 20
358.218998
 42
0.085781
  0
VERTEX
  8
0
 10
486.565510
 20
358.890835
 42
0.057936
  0
VERTEX
  8
0
 10
488.496645
 20
360.323310
 42
0.011850
  0
VERTEX
  8
0
 10
491.530522
 20
363.310594
 42
0.051904
  0
VERTEX
  8
0
 10
495.752951
 20
368.687329
 42
0.107346
  0
VERTEX
  8
0
 10
497.566231
 20
373.683759
 42
0.131022
  0
VERTEX
  8
0
 10
496.978194
 20
378.314884
 42
0.098711
  0
VERTEX
  8
0
 10
494.138099
 20
382.615537
 42
0.048849
  0
VERTEX
  8
0
 10
491.434646
 20
384.859319
 42
0.049550
  0
VERTEX
  8
0
 10
488.359677
 20
386.523679
 42
0.039084
  0
VERTEX
  8
0
 10
484.425003
 20
387.823054
 42
0.016645
  0
VERTEX
  8
0
 10
478.992815
 20
388.966956
 42
-0.023508
  0
VERTEX
  8
0
 10
475.752669
 20
389.695823
 42
-0.028337
  0
VERTEX
  8
0
 10
472.796023
 20
390.691828
 42
-0.028673
  0
VERTEX
  8
0
 10
470.000273
 20
392.004324
 42
-0.025135
  0
VERTEX
  8
0
 10
467.242823
 20
393.681711
 42
0.021425
  0
VERTEX
  8
0
 10
464.745313
 20
395.226459
 42
0.011557
  0
VERTEX
  8
0
 10
461.549238
 20
396.922867
 42
0.011491
  0
VERTEX
  8
0
 10
458.207420
 20
398.503781
 42
0.017714
  0
VERTEX
  8
0
 10
455.242823
 20
399.699813
 42
-0.019547
  0
VERTEX
  8
0
 10
449.801942
 20
401.918093
 42
-0.080588
  0
VERTEX
  8
0
 10
446.851048
 20
403.881293
 42
-0.098272
  0
VERTEX
  8
0
 10
444.974659
 20
406.471066
 42
-0.037062
  0
VERTEX
  8
0
 10
443.404112
 20
410.681848
 42
0.038532
  0
VERTEX
  8
0
 10
442.037711
 20
414.312718
 42
0.059504
  0
VERTEX
  8
0
 10
440.270554
 20
417.157681
 42
0.030567
  0
VERTEX
  8
0
 10
437.148521
 20
420.605776
 42
0.003769
  0
VERTEX
  8
0
 10
429.832247
 20
427.648257
 42
-0.041769
  0
VERTEX
  8
0
 10
425.562482
 20
432.433696
 42
-0.033773
  0
VERTEX
  8
0
 10
421.802511
 20
438.204036
 42
-0.032661
  0
VERTEX
  8
0
 10
418.732127
 20
444.647470
 42
-0.032517
  0
VERTEX
  8
0
 10
416.521767
 20
451.445291
 42
-0.029010
  0
VERTEX
  8
0
 10
414.452560
 20
462.126128
 42
-0.017197
  0
VERTEX
  8
0
 10
413.170341
 20
475.039934
 42
-0.017197
  0
VERTEX
  8
0
 10
412.778668
 20
488.011567
 42
-0.029005
  0
VERTEX
  8
0
 10
413.454971
 20
498.870733
 42
0.007162
  0
VERTEX
  8
0
 10
413.809218
 20
502.204302
 42
0.046743
  0
VERTEX
  8
0
 10
413.806066
 20
503.887044
 42
0.156046
  0
VERTEX
  8
0
 10
413.486611
 20
504.632448
 42
0.303338
  0
VERTEX
  8
0
 10
412.888607
 20
504.796202
 42
0.158733
  0
VERTEX
  8
0
 10
412.285454
 20
504.350317
 42
0.028747
  0
VERTEX
  8
0
 10
411.533460
 20
503.155890
 42
0.028437
  0
VERTEX
  8
0
 10
410.785692
 20
501.598171
 42
0.022400
  0
VERTEX
  8
0
 10
410.151135
 20
499.837425
 42
-0.033730
  0
VERTEX
  8
0
 10
409.163163
 20
497.279155
 42
-0.077896
  0
VERTEX
  8
0
 10
408.017352
 20
495.573227
 42
-0.063874
  0
VERTEX
  8
0
 10
406.262243
 20
494.106019
 42
-0.017092
  0
VERTEX
  8
0
 10
403.124728
 20
492.248542
 42
-0.029529
  0
VERTEX
  8
0
 10
397.119710
 20
489.411881
 42
-0.030972
  0
VERTEX
  8
0
 10
390.916021
 20
487.353673
 42
-0.031467
  0
VERTEX
  8
0
 10
384.601702
 20
486.103206
 42
-0.032778
  0
VERTEX
  8
0
 10
378.266350
 20
485.677715
 42
-0.015893
  0
VERTEX
  8
0
 10
374.229500
 20
485.799892
 42
-0.039852
  0
VERTEX
  8
0
 10
371.314906
 20
486.215681
 42
-0.042510
  0
VERTEX
  8
0
 10
368.614536
 20
487.069777
 42
-0.020363
  0
VERTEX
  8
0
 10
365.309305
 20
488.593719
 42
-0.031348
  0
VERTEX
  8
0
 10
361.714580
 20
490.726166
 42
-0.046182
  0
VERTEX
  8
0
 10
358.886337
 20
493.062271
 42
-0.031769
  0
VERTEX
  8
0
 10
355.869933
 20
496.469780
 42
-0.007600
  0
VERTEX
  8
0
 10
351.317091
 20
502.510320
 42
0.019975
  0
VERTEX
  8
0
 10
350.171711
 20
503.954205
 42
0.092142
  0
VERTEX
  8
0
 10
349.343229
 20
504.619339
 42
0.184456
  0
VERTEX
  8
0
 10
348.636236
 20
504.710252
 42
0.136149
  0
VERTEX
  8
0
 10
347.940291
 20
504.323200
 42
0.132329
  0
VERTEX
  8
0
 10
347.490349
 20
503.554353
 42
0.120632
  0
VERTEX
  8
0
 10
347.466196
 20
502.634343
 42
0.067671
  0
VERTEX
  8
0
 10
347.918456
 20
501.391488
 42
0.017363
  0
VERTEX
  8
0
 10
348.981159
 20
499.530485
 42
-0.024461
  0
VERTEX
  8
0
 10
350.202829
 20
497.318800
 42
-0.082681
  0
VERTEX
  8
0
 10
350.674403
 20
495.742903
 42
-0.075230
  0
VERTEX
  8
0
 10
350.632362
 20
494.020474
 42
-0.018026
  0
VERTEX
  8
0
 10
350.032573
 20
491.215077
 42
-0.043903
  0
VERTEX
  8
0
 10
347.912290
 20
485.113129
 42
-0.023231
  0
VERTEX
  8
0
 10
344.291140
 20
477.960134
 42
-0.022915
  0
VERTEX
  8
0
 10
339.870913
 20
470.923940
 42
-0.032377
  0
VERTEX
  8
0
 10
335.267597
 20
465.130937
 42
0.000000
  0
VERTEX
  8
0
 10
329.500000
 20
458.765848
 42
0.000000
  0
VERTEX
  8
0
 10
326.204112
 20
463.360299
 42
0.079716
  0
VERTEX
  8
0
 10
317.283122
 20
472.353277
 42
0.019362
  0
VERTEX
  8
0
 10
299.862852
 20
484.057566
 42
0.020716
  0
VERTEX
  8
0
 10
280.802980
 20
494.755330
 42
0.044244
  0
VERTEX
  8
0
 10
265.145561
 20
501.038170
 42
0.032973
  0
VERTEX
  8
0
 10
259.422221
 20
502.361654
 42
0.041620
  0
VERTEX
  8
0
 10
254.006035
 20
502.785707
 42
0.045720
  0
VERTEX
  8
0
 10
249.062458
 20
502.307490
 42
0.060230
  0
VERTEX
  8
0
 10
244.750000
 20
500.934995
 42
0.083899
  0
VERTEX
  8
0
 10
242.730611
 20
499.565731
 42
0.239389
  0
VERTEX
  8
0
 10
242.184453
 20
498.009935
 42
0.149910
  0
VERTEX
  8
0
 10
243.066948
 20
496.085344
 42
0.030793
  0
VERTEX
  8
0
 10
245.750000
 20
493.422081
 42
0.000000
  0
VERTEX
  8
0
 10
249.500000
 20
490.132209
 42
0.000000
  0
VERTEX
  8
0
 10
246.250000
 20
488.968279
 42
0.111811
  0
VERTEX
  8
0
 10
243.617933
 20
487.293813
 42
0.258499
  0
VERTEX
  8
0
 10
243.000894
 20
485.111715
 42
0.133539
  0
VERTEX
  8
0
 10
244.555201
 20
482.238316
 42
0.028273
  0
VERTEX
  8
0
 10
248.750000
 20
478.307630
 42
-0.010910
  0
VERTEX
  8
0
 10
255.387643
 20
472.507138
 42
-0.013121
  0
VERTEX
  8
0
 10
261.359516
 20
466.759649
 42
-0.007661
  0
VERTEX
  8
0
 10
266.292473
 20
461.600418
 42
-0.189123
  0
VERTEX
  8
0
 10
267.000000
 20
459.796772
 42
-0.221600
  0
VERTEX
  8
0
 10
266.639480
 20
459.023269
 42
-0.072213
  0
VERTEX
  8
0
 10
265.540978
 20
458.343226
 42
-0.042592
  0
VERTEX
  8
0
 10
263.661503
 20
457.709920
 42
-0.013283
  0
VERTEX
  8
0
 10
260.750000
 20
457.079263
 42
0.017067
  0
VERTEX
  8
0
 10
252.482295
 20
455.222806
 42
0.007065
  0
VERTEX
  8
0
 10
241.433064
 20
452.175080
 42
0.006615
  0
VERTEX
  8
0
 10
230.762770
 20
448.915272
 42
0.026672
  0
VERTEX
  8
0
 10
224.398017
 20
446.497317
 42
0.000000
  0
VERTEX
  8
0
 10
218.801882
 20
444.022441
 42
0.000000
  0
VERTEX
  8
0
 10
207.281526
 20
449.498467
 42
-0.027981
  0
VERTEX
  8
0
 10
191.955210
 20
457.864687
 42
-0.027558
  0
VERTEX
  8
0
 10
177.577501
 20
467.928943
 42
-0.025623
  0
VERTEX
  8
0
 10
163.494159
 20
480.207843
 42
-0.018452
  0
VERTEX
  8
0
 10
149.039955
 20
495.245849
 42
0.006081
  0
VERTEX
  8
0
 10
144.942053
 20
499.725982
 42
0.007079
  0
VERTEX
  8
0
 10
140.936081
 20
503.880570
 42
0.006360
  0
VERTEX
  8
0
 10
137.457681
 20
507.299183
 42
0.041712
  0
VERTEX
  8
0
 10
135.558537
 20
508.836943
 42
0.056981
  0
VERTEX
  8
0
 10
132.210160
 20
510.594727
 42
0.053760
  0
VERTEX
  8
0
 10
128.485348
 20
511.594245
 42
0.058924
  0
VERTEX
  8
0
 10
125.093753
 20
511.719917
 42
0.146982
  0
SEQEND
  0
POLYLINE
  8
0
 66
1
 70
1
  0
VERTEX
  8
0
 10
271.543889
 20
485.339767
 42
-0.023332
  0
VERTEX
  8
0
 10
279.621371
 20
481.506410
 42
-0.021969
  0
VERTEX
  8
0
 10
287.475229
 20
476.865713
 42
-0.022873
  0
VERTEX
  8
0
 10
294.496371
 20
471.817578
 42
-0.034877
  0
VERTEX
  8
0
 10
300.043372
 20
466.764635
 42
0.000000
  0
VERTEX
  8
0
 10
305.069728
 20
461.500000
 42
0.000000
  0
VERTEX
  8
0
 10
290.844123
 20
460.816751
 42
0.002539
  0
VERTEX
  8
0
 10
285.261517
 20
460.520196
 42
0.003519
  0
VERTEX
  8
0
 10
280.259938
 20
460.193687
 42
0.002203
  0
VERTEX
  8
0
 10
276.060176
 20
459.871218
 42
0.043713
  0
VERTEX
  8
0
 10
274.789235
 20
459.655135
 42
-0.108035
  0
VERTEX
  8
0
 10
273.883110
 20
459.618378
 42
-0.110596
  0
VERTEX
  8
0
 10
273.052845
 20
459.964515
 42
-0.082800
  0
VERTEX
  8
0
 10
272.274105
 20
460.735677
 42
-0.036971
  0
VERTEX
  8
0
 10
271.516288
 20
461.968503
 42
0.043304
  0
VERTEX
  8
0
 10
269.183995
 20
465.657322
 42
0.033740
  0
VERTEX
  8
0
 10
266.062559
 20
469.232031
 42
0.026291
  0
VERTEX
  8
0
 10
261.768427
 20
473.097904
 42
0.011807
  0
VERTEX
  8
0
 10
255.755137
 20
477.733911
 42
-0.009509
  0
VERTEX
  8
0
 10
252.403440
 20
480.293468
 42
-0.016177
  0
VERTEX
  8
0
 10
249.714712
 20
482.574541
 42
-0.010276
  0
VERTEX
  8
0
 10
247.677166
 20
484.497441
 42
-0.423030
  0
VERTEX
  8
0
 10
247.680796
 20
485.046120
 42
-0.084910
  0
VERTEX
  8
0
 10
248.161397
 20
485.370958
 42
-0.024870
  0
VERTEX
  8
0
 10
248.993734
 20
485.698802
 42
-0.024206
  0
VERTEX
  8
0
 10
249.982841
 20
485.980110
 42
-0.023807
  0
VERTEX
  8
0
 10
251.000000
 20
486.166339
 42
0.047805
  0
VERTEX
  8
0
 10
252.264932
 20
486.461202
 42
0.148339
  0
VERTEX
  8
0
 10
252.970737
 20
486.964106
 42
0.140561
  0
VERTEX
  8
0
 10
253.299825
 20
487.793104
 42
0.041288
  0
VERTEX
  8
0
 10
253.322046
 20
489.175720
 42
0.000000
  0
VERTEX
  8
0
 10
253.144091
 20
491.849409
 42
0.000000
  0
VERTEX
  8
0
 10
258.046520
 20
490.393544
 42
-0.012941
  0
VERTEX
  8
0
 10
260.511380
 20
489.591586
 42
-0.004458
  0
VERTEX
  8
0
 10
264.033624
 20
488.308453
 42
-0.004426
  0
VERTEX
  8
0
 10
267.893791
 20
486.824008
 42
-0.005118
  0
SEQEND
  0
POLYLINE
  8
0
 66
1
 70
1
  0
VERTEX
  8
0
 10
404.926196
 20
479.907830
 42
0.040128
  0
VERTEX
  8
0
 10
404.147870
 20
467.946311
 42
0.023609
  0
VERTEX
  8
0
 10
405.042699
 20
453.634860
 42
0.023662
  0
VERTEX
  8
0
 10
407.262050
 20
439.612293
 42
0.043875
  0
VERTEX
  8
0
 10
410.576575
 20
428.584710
 42
-0.130291
  0
VERTEX
  8
0
 10
410.663778
 20
427.864818
 42
-0.464105
  0
VERTEX
  8
0
 10
410.322007
 20
427.649030
 42
-0.069004
  0
VERTEX
  8
0
 10
409.283216
 20
428.142721
 42
-0.006389
  0
VERTEX
  8
0
 10
406.920417
 20
429.739241
 42
-0.015458
  0
VERTEX
  8
0
 10
404.973538
 20
431.182479
 42
-0.009530
  0
VERTEX
  8
0
 10
402.770372
 20
432.993026
 42
-0.009554
  0
VERTEX
  8
0
 10
400.658779
 20
434.867780
 42
-0.016871
  0
VERTEX
  8
0
 10
399.000000
 20
436.505143
 42
0.020675
  0
VERTEX
  8
0
 10
397.263155
 20
438.193681
 42
0.009652
  0
VERTEX
  8
0
 10
394.883692
 20
440.241583
 42
0.009545
  0
VERTEX
  8
0
 10
392.301235
 20
442.297046
 42
0.013182
  0
VERTEX
  8
0
 10
389.901931
 20
444.034699
 42
-0.035877
  0
VERTEX
  8
0
 10
383.550377
 20
449.089162
 42
-0.041533
  0
VERTEX
  8
0
 10
378.316990
 20
454.776089
 42
-0.035507
  0
VERTEX
  8
0
 10
373.502431
 20
461.968499
 42
-0.017454
  0
VERTEX
  8
0
 10
368.374896
 20
471.722082
 42
-0.001163
  0
VERTEX
  8
0
 10
365.931025
 20
476.823255
 42
-0.001866
  0
VERTEX
  8
0
 10
363.872626
 20
481.187473
 42
-0.000323
  0
VERTEX
  8
0
 10
362.070222
 20
485.052693
 42
-0.109356
  0
VERTEX
  8
0
 10
362.000000
 20
485.369923
 42
-0.480394
  0
VERTEX
  8
0
 10
362.152135
 20
485.491724
 42
-0.004265
  0
VERTEX
  8
0
 10
363.788671
 20
485.110102
 42
-0.010122
  0
VERTEX
  8
0
 10
365.753855
 20
484.591805
 42
-0.005905
  0
VERTEX
  8
0
 10
368.089094
 20
483.895139
 42
0.054193
  0
VERTEX
  8
0
 10
376.235828
 20
482.299173
 42
0.043589
  0
VERTEX
  8
0
 10
385.168664
 20
482.316583
 42
0.043487
  0
VERTEX
  8
0
 10
393.987184
 20
483.884780
 42
0.053172
  0
VERTEX
  8
0
 10
401.794272
 20
486.905260
 42
-0.009446
  0
VERTEX
  8
0
 10
403.237715
 20
487.614142
 42
-0.014870
  0
VERTEX
  8
0
 10
404.505147
 20
488.161812
 42
-0.008869
  0
VERTEX
  8
0
 10
405.561412
 20
488.559878
 42
-0.285328
  0
VERTEX
  8
0
 10
405.818995
 20
488.504108
 42
-0.228127
  0
VERTEX
  8
0
 10
405.924487
 20
488.217883
 42
-0.002006
  0
VERTEX
  8
0
 10
405.688321
 20
485.851586
 42
-0.006401
  0
VERTEX
  8
0
 10
405.367707
 20
483.107005
 42
-0.004025
  0
SEQEND
  0
POLYLINE
  8
0
 66
1
 70
1
  0
VERTEX
  8
0
 10
141.024197
 20
479.813813
 42
0.031524
  0
VERTEX
  8
0
 10
147.530059
 20
471.920868
 42
0.010015
  0
VERTEX
  8
0
 10
158.173576
 20
460.997357
 42
0.010054
  0
VERTEX
  8
0
 10
169.265271
 20
450.492242
 42
0.030676
  0
VERTEX
  8
0
 10
177.346336
 20
444.000000
 42
0.000000
  0
VERTEX
  8
0
 10
185.124649
 20
438.500000
 42
0.000000
  0
VERTEX
  8
0
 10
178.812324
 20
437.324934
 42
-0.025172
  0
VERTEX
  8
0
 10
167.005146
 20
435.736658
 42
-0.030074
  0
VERTEX
  8
0
 10
155.783215
 20
435.475668
 42
-0.030833
  0
VERTEX
  8
0
 10
144.855474
 20
436.555801
 42
-0.029135
  0
VERTEX
  8
0
 10
133.930357
 20
438.980780
 42
0.000000
  0
VERTEX
  8
0
 10
130.360714
 20
439.994410
 42
0.000000
  0
VERTEX
  8
0
 10
129.133355
 20
450.553121
 42
-0.004581
  0
VERTEX
  8
0
 10
128.431034
 20
457.118986
 42
-0.039125
  0
VERTEX
  8
0
 10
128.374299
 20
460.075416
 42
-0.077510
  0
VERTEX
  8
0
 10
128.825421
 20
462.153846
 42
-0.046315
  0
VERTEX
  8
0
 10
129.952998
 20
464.423950
 42
0.054136
  0
VERTEX
  8
0
 10
131.466236
 20
467.593676
 42
0.105076
  0
VERTEX
  8
0
 10
131.822410
 20
470.364197
 42
0.098444
  0
VERTEX
  8
0
 10
131.025185
 20
473.159982
 42
0.043452
  0
VERTEX
  8
0
 10
128.972180
 20
476.428139
 42
-0.026786
  0
VERTEX
  8
0
 10
126.484973
 20
480.109502
 42
-0.190364
  0
VERTEX
  8
0
 10
126.139163
 20
482.194101
 42
-0.246481
  0
VERTEX
  8
0
 10
127.334491
 20
483.627256
 42
-0.044727
  0
VERTEX
  8
0
 10
130.750000
 20
484.694701
 42
0.000449
  0
VERTEX
  8
0
 10
132.607904
 20
485.099282
 42
0.000638
  0
VERTEX
  8
0
 10
134.258670
 20
485.462518
 42
0.000354
  0
VERTEX
  8
0
 10
135.653523
 20
485.772345
 42
0.009401
  0
VERTEX
  8
0
 10
136.024197
 20
485.862301
 42
-0.287643
  0
VERTEX
  8
0
 10
136.348571
 20
485.760793
 42
-0.004142
  0
VERTEX
  8
0
 10
137.709178
 20
484.142359
 42
-0.009916
  0
VERTEX
  8
0
 10
139.270614
 20
482.175327
 42
-0.006196
  0
SEQEND
  0
POLYLINE
  8
0
 66
1
 70
1
  0
VERTEX
  8
0
 10
354.001125
 20
485.250000
 42
0.029988
  0
VERTEX
  8
0
 10
354.036515
 20
484.674889
 42
0.000245
  0
VERTEX
  8
0
 10
354.588759
 20
480.167187
 42
0.000880
  0
VERTEX
  8
0
 10
355.234204
 20
474.995167
 42
0.000566
  0
VERTEX
  8
0
 10
356.000000
 20
469.000000
 42
-0.016999
  0
VERTEX
  8
0
 10
357.904204
 20
448.842305
 42
-0.043617
  0
VERTEX
  8
0
 10
357.509277
 20
434.212464
 42
-0.070578
  0
VERTEX
  8
0
 10
355.104897
 20
424.992180
 42
-0.302442
  0
VERTEX
  8
0
 10
350.610685
 20
422.000000
 42
-0.126309
  0
VERTEX
  8
0
 10
347.911474
 20
422.692924
 42
-0.001358
  0
VERTEX
  8
0
 10
331.013797
 20
432.040589
 42
-0.000739
  0
VERTEX
  8
0
 10
313.678950
 20
441.725290
 42
-0.294319
  0
VERTEX
  8
0
 10
313.050204
 20
442.911609
 42
-0.240247
  0
VERTEX
  8
0
 10
313.249343
 20
443.231601
 42
-0.006030
  0
VERTEX
  8
0
 10
314.772279
 20
444.124950
 42
-0.011643
  0
VERTEX
  8
0
 10
316.637837
 20
445.132420
 42
-0.007513
  0
VERTEX
  8
0
 10
318.842088
 20
446.215881
 42
0.060840
  0
VERTEX
  8
0
 10
327.328995
 20
451.576491
 42
0.034682
  0
VERTEX
  8
0
 10
336.183303
 20
459.895221
 42
0.034134
  0
VERTEX
  8
0
 10
344.047584
 20
469.640253
 42
0.047665
  0
VERTEX
  8
0
 10
349.564641
 20
479.377394
 42
-0.012429
  0
VERTEX
  8
0
 10
351.344622
 20
483.108828
 42
-0.044286
  0
VERTEX
  8
0
 10
352.745918
 20
485.351553
 42
-0.241374
  0
VERTEX
  8
0
 10
353.530801
 20
485.730817
 42
-0.406892
  0
SEQEND
  0
POLYLINE
  8
0
 66
1
 70
1
  0
VERTEX
  8
0
 10
70.578550
 20
442.148809
 42
0.030000
  0
VERTEX
  8
0
 10
76.592353
 20
438.945750
 42
0.025110
  0
VERTEX
  8
0
 10
83.310169
 20
436.268729
 42
0.022508
  0
VERTEX
  8
0
 10
90.969979
 20
434.032972
 42
0.015416
  0
VERTEX
  8
0
 10
99.834002
 20
432.160771
 42
-0.021315
  0
VERTEX
  8
0
 10
108.538289
 20
430.214794
 42
-0.035094
  0
VERTEX
  8
0
 10
115.663681
 20
427.752402
 42
-0.030354
  0
VERTEX
  8
0
 10
123.052160
 20
424.058779
 42
-0.011861
  0
VERTEX
  8
0
 10
132.793168
 20
418.113412
 42
0.020338
  0
VERTEX
  8
0
 10
140.046386
 20
413.853478
 42
0.028821
  0
VERTEX
  8
0
 10
146.839800
 20
410.715266
 42
0.031103
  0
VERTEX
  8
0
 10
153.514618
 20
408.555519
 42
0.031137
  0
VERTEX
  8
0
 10
160.403403
 20
407.241421
 42
0.000000
  0
VERTEX
  8
0
 10
166.245245
 20
406.500000
 42
0.000000
  0
VERTEX
  8
0
 10
153.372623
 20
402.593725
 42
-0.002555
  0
VERTEX
  8
0
 10
135.103204
 20
397.151563
 42
-0.005673
  0
VERTEX
  8
0
 10
121.116240
 20
393.234482
 42
-0.005066
  0
VERTEX
  8
0
 10
106.114123
 20
389.378570
 42
-0.001664
  0
VERTEX
  8
0
 10
83.956527
 20
384.000357
 42
0.001306
  0
VERTEX
  8
0
 10
64.004975
 20
379.172733
 42
0.003895
  0
VERTEX
  8
0
 10
50.382430
 20
375.726154
 42
0.005105
  0
VERTEX
  8
0
 10
40.833231
 20
373.126402
 42
0.022602
  0
VERTEX
  8
0
 10
35.308277
 20
371.288055
 42
-0.589889
  0
VERTEX
  8
0
 10
35.035550
 20
371.517534
 42
-0.052977
  0
VERTEX
  8
0
 10
35.370666
 20
372.599117
 42
-0.028097
  0
VERTEX
  8
0
 10
36.240363
 20
374.343545
 42
-0.012606
  0
VERTEX
  8
0
 10
37.566334
 20
376.536242
 42
0.019255
  0
VERTEX
  8
0
 10
41.025141
 20
382.431510
 42
0.018220
  0
VERTEX
  8
0
 10
44.088871
 20
388.683489
 42
0.017606
  0
VERTEX
  8
0
 10
46.783736
 20
395.352888
 42
0.015386
  0
VERTEX
  8
0
 10
49.136572
 20
402.500000
 42
0.019777
  0
VERTEX
  8
0
 10
50.416648
 20
407.561519
 42
0.029222
  0
VERTEX
  8
0
 10
51.099758
 20
412.089540
 42
0.019198
  0
VERTEX
  8
0
 10
51.406120
 20
417.873978
 42
0.004040
  0
VERTEX
  8
0
 10
51.471356
 20
428.000000
 42
0.006185
  0
VERTEX
  8
0
 10
51.308955
 20
439.593255
 42
0.034045
  0
VERTEX
  8
0
 10
50.719767
 20
445.813313
 42
0.045026
  0
VERTEX
  8
0
 10
49.352528
 20
451.112601
 42
0.015967
  0
VERTEX
  8
0
 10
46.486016
 20
458.407297
 42
-0.697024
  0
VERTEX
  8
0
 10
46.781693
 20
458.688153
 42
-0.023938
  0
VERTEX
  8
0
 10
48.767292
 20
457.588884
 42
-0.016566
  0
VERTEX
  8
0
 10
51.764825
 20
455.596535
 42
-0.007389
  0
VERTEX
  8
0
 10
55.582651
 20
452.786386
 42
0.004191
  0
VERTEX
  8
0
 10
59.752060
 20
449.676152
 42
0.003887
  0
VERTEX
  8
0
 10
64.078603
 20
446.556212
 42
0.003878
  0
VERTEX
  8
0
 10
67.971139
 20
443.840113
 42
0.013023
  0
SEQEND
  0
POLYLINE
  8
0
 66
1
 70
1
  0
VERTEX
  8
0
 10
325.437933
 20
412.716388
 42
-0.041826
  0
VERTEX
  8
0
 10
327.464101
 20
407.514245
 42
-0.061405
  0
VERTEX
  8
0
 10
328.270188
 20
402.677796
 42
-0.075333
  0
VERTEX
  8
0
 10
327.830770
 20
398.620670
 42
-0.132550
  0
VERTEX
  8
0
 10
326.160780
 20
395.716335
 42
-0.105793
  0
VERTEX
  8
0
 10
322.190107
 20
393.145430
 42
-0.008552
  0
VERTEX
  8
0
 10
310.430638
 20
388.896906
 42
-0.005898
  0
VERTEX
  8
0
 10
298.438783
 20
384.952263
 42
-0.628949
  0
VERTEX
  8
0
 10
297.528177
 20
385.922066
 42
0.025642
  0
VERTEX
  8
0
 10
300.677834
 20
395.501218
 42
0.027456
  0
VERTEX
  8
0
 10
302.746810
 20
405.137456
 42
0.027218
  0
VERTEX
  8
0
 10
303.760026
 20
415.019428
 42
0.024320
  0
VERTEX
  8
0
 10
303.750963
 20
425.334114
 42
0.005552
  0
VERTEX
  8
0
 10
303.505834
 20
429.373301
 42
0.007019
  0
VERTEX
  8
0
 10
303.185353
 20
433.101271
 42
0.005676
  0
VERTEX
  8
0
 10
302.838157
 20
436.212183
 42
0.055202
  0
VERTEX
  8
0
 10
302.532833
 20
437.500000
 42
-0.754178
  0
VERTEX
  8
0
 10
302.820598
 20
437.706107
 42
-0.013187
  0
VERTEX
  8
0
 10
305.094802
 20
435.801527
 42
-0.011613
  0
VERTEX
  8
0
 10
308.298715
 20
432.836033
 42
-0.005649
  0
VERTEX
  8
0
 10
312.257648
 20
428.909454
 42
-0.008733
  0
VERTEX
  8
0
 10
317.016348
 20
423.910060
 42
-0.015022
  0
VERTEX
  8
0
 10
320.777777
 20
419.562387
 42
-0.017996
  0
VERTEX
  8
0
 10
323.607305
 20
415.818598
 42
-0.039069
  0
SEQEND
  0
POLYLINE
  8
0
 66
1
 70
1
  0
VERTEX
  8
0
 10
205.812784
 20
406.250000
 42
0.021827
  0
VERTEX
  8
0
 10
204.075448
 20
402.281263
 42
0.011243
  0
VERTEX
  8
0
 10
202.233320
 20
397.179226
 42
0.010753
  0
VERTEX
  8
0
 10
200.482512
 20
391.569089
 42
0.011421
  0
VERTEX
  8
0
 10
199.012003
 20
386.000000
 42
-0.009977
  0
VERTEX
  8
0
 10
194.679849
 20
369.399247
 42
-0.030615
  0
VERTEX
  8
0
 10
190.844920
 20
358.433772
 42
-0.036780
  0
VERTEX
  8
0
 10
186.113630
 20
349.146488
 42
-0.020184
  0
VERTEX
  8
0
 10
179.061160
 20
338.500000
 42
0.010654
  0
VERTEX
  8
0
 10
174.195260
 20
331.449942
 42
0.015137
  0
VERTEX
  8
0
 10
170.198322
 20
324.967689
 42
0.017085
  0
VERTEX
  8
0
 10
167.207643
 20
319.334940
 42
0.042894
  0
VERTEX
  8
0
 10
165.535277
 20
315.000000
 42
-0.027203
  0
VERTEX
  8
0
 10
165.003526
 20
313.481566
 42
-0.003084
  0
VERTEX
  8
0
 10
163.594110
 20
310.123776
 42
-0.003726
  0
VERTEX
  8
0
 10
161.861445
 20
306.148498
 42
-0.003022
  0
VERTEX
  8
0
 10
159.945899
 20
301.910728
 42
0.015334
  0
VERTEX
  8
0
 10
155.371589
 20
291.088735
 42
0.031062
  0
VERTEX
  8
0
 10
152.577057
 20
282.278079
 42
0.034765
  0
VERTEX
  8
0
 10
151.084371
 20
273.861829
 42
0.025252
  0
VERTEX
  8
0
 10
150.556177
 20
264.360832
 42
0.000000
  0
VERTEX
  8
0
 10
150.500000
 20
253.221663
 42
0.000000
  0
VERTEX
  8
0
 10
141.000000
 20
252.796677
 42
0.012015
  0
VERTEX
  8
0
 10
136.114388
 20
252.460341
 42
0.023307
  0
VERTEX
  8
0
 10
132.240154
 20
251.916874
 42
0.026931
  0
VERTEX
  8
0
 10
128.827687
 20
251.082428
 42
0.024141
  0
VERTEX
  8
0
 10
125.394864
 20
249.860600
 42
0.000000
  0
VERTEX
  8
0
 10
119.289728
 20
247.349510
 42
0.000000
  0
VERTEX
  8
0
 10
127.781276
 20
260.924755
 42
0.000622
  0
VERTEX
  8
0
 10
139.773504
 20
280.149635
 42
0.003966
  0
VERTEX
  8
0
 10
145.770057
 20
289.962180
 42
0.007749
  0
VERTEX
  8
0
 10
149.605114
 20
296.581446
 42
0.010980
  0
VERTEX
  8
0
 10
152.794784
 20
302.595301
 42
0.009725
  0
VERTEX
  8
0
 10
157.018940
 20
311.424281
 42
0.012647
  0
VERTEX
  8
0
 10
160.522322
 20
319.675756
 42
0.009319
  0
VERTEX
  8
0
 10
164.318197
 20
329.834803
 42
0.002768
  0
VERTEX
  8
0
 10
169.743662
 20
345.500000
 42
-0.009617
  0
VERTEX
  8
0
 10
177.986818
 20
368.286662
 42
-0.029091
  0
VERTEX
  8
0
 10
184.780920
 20
383.318259
 42
-0.039096
  0
VERTEX
  8
0
 10
192.014890
 20
394.835514
 42
-0.033386
  0
VERTEX
  8
0
 10
201.315350
 20
405.750000
 42
-0.000762
  0
VERTEX
  8
0
 10
204.407251
 20
408.913227
 42
-0.001256
  0
VERTEX
  8
0
 10
207.031643
 20
411.576563
 42
-0.000089
  0
VERTEX
  8
0
 10
209.395142
 20
413.962259
 42
-0.200081
  0
VERTEX
  8
0
 10
209.485681
 20
414.000000
 42
-0.550378
  0
VERTEX
  8
0
 10
209.515921
 20
413.952248
 42
-0.000208
  0
VERTEX
  8
0
 10
208.460771
 20
411.723437
 42
-0.002150
  0
VERTEX
  8
0
 10
207.262054
 20
409.221936
 42
-0.001276
  0
SEQEND
  0
POLYLINE
  8
0
 66
1
 70
1
  0
VERTEX
  8
0
 10
185.287542
 20
402.622319
 42
0.014103
  0
VERTEX
  8
0
 10
181.314371
 20
398.180457
 42
0.004417
  0
VERTEX
  8
0
 10
175.611386
 20
391.308713
 42
0.004410
  0
VERTEX
  8
0
 10
169.376795
 20
383.520659
 42
0.004864
  0
VERTEX
  8
0
 10
163.483425
 20
375.872319
 42
-0.019793
  0
VERTEX
  8
0
 10
146.705637
 20
355.393058
 42
-0.018425
  0
VERTEX
  8
0
 10
127.970407
 20
335.791348
 42
-0.018967
  0
VERTEX
  8
0
 10
108.534185
 20
318.284470
 42
-0.025818
  0
VERTEX
  8
0
 10
89.664094
 20
304.127054
 42
-0.002692
  0
VERTEX
  8
0
 10
86.764479
 20
302.199609
 42
-0.003097
  0
VERTEX
  8
0
 10
83.976368
 20
300.392472
 42
-0.002783
  0
VERTEX
  8
0
 10
81.595562
 20
298.888793
 42
-0.017907
  0
VERTEX
  8
0
 10
80.361841
 20
298.179221
 42
-0.028339
  0
VERTEX
  8
0
 10
79.058690
 20
297.582398
 42
-0.414008
  0
VERTEX
  8
0
 10
78.638759
 20
297.766030
 42
-0.144482
  0
VERTEX
  8
0
 10
78.576247
 20
298.486600
 42
-0.005144
  0
VERTEX
  8
0
 10
79.164175
 20
301.235172
 42
0.047618
  0
VERTEX
  8
0
 10
79.626379
 20
304.888432
 42
0.036672
  0
VERTEX
  8
0
 10
79.455059
 20
308.905099
 42
0.037009
  0
VERTEX
  8
0
 10
78.705496
 20
312.804232
 42
0.052270
  0
VERTEX
  8
0
 10
77.432835
 20
316.101556
 42
0.065975
  0
VERTEX
  8
0
 10
75.459134
 20
318.958489
 42
0.036038
  0
VERTEX
  8
0
 10
72.373899
 20
321.905201
 42
0.036095
  0
VERTEX
  8
0
 10
68.979456
 20
324.319483
 42
0.082655
  0
VERTEX
  8
0
 10
66.074280
 20
325.483685
 42
-0.020034
  0
VERTEX
  8
0
 10
64.896355
 20
325.792333
 42
-0.030262
  0
VERTEX
  8
0
 10
63.903070
 20
326.162620
 42
-0.030388
  0
VERTEX
  8
0
 10
63.173670
 20
326.540588
 42
-0.263866
  0
VERTEX
  8
0
 10
63.000000
 20
326.846764
 42
-0.273843
  0
VERTEX
  8
0
 10
63.212328
 20
327.205374
 42
-0.008005
  0
VERTEX
  8
0
 10
64.832176
 20
328.060299
 42
-0.013969
  0
VERTEX
  8
0
 10
66.846537
 20
329.012758
 42
-0.008914
  0
VERTEX
  8
0
 10
69.237196
 20
330.012026
 42
0.036978
  0
VERTEX
  8
0
 10
79.066846
 20
334.784700
 42
0.020046
  0
VERTEX
  8
0
 10
90.415204
 20
341.995075
 42
0.015035
  0
VERTEX
  8
0
 10
104.351139
 20
352.288341
 42
0.006310
  0
VERTEX
  8
0
 10
122.500000
 20
366.930494
 42
-0.010283
  0
VERTEX
  8
0
 10
137.263904
 20
378.649326
 42
-0.015477
  0
VERTEX
  8
0
 10
150.644014
 20
388.189429
 42
-0.016801
  0
VERTEX
  8
0
 10
163.694875
 20
396.278353
 42
-0.016136
  0
VERTEX
  8
0
 10
177.433817
 20
403.588599
 42
-0.000861
  0
VERTEX
  8
0
 10
183.235756
 20
406.427056
 42
-0.001396
  0
VERTEX
  8
0
 10
188.179723
 20
408.818176
 42
-0.000182
  0
VERTEX
  8
0
 10
192.585833
 20
410.932033
 42
-0.109228
  0
VERTEX
  8
0
 10
192.858858
 20
410.995776
 42
-0.653303
  0
VERTEX
  8
0
 10
192.905640
 20
410.892459
 42
-0.000731
  0
VERTEX
  8
0
 10
190.782813
 20
408.537816
 42
-0.003612
  0
VERTEX
  8
0
 10
188.303316
 20
405.835137
 42
-0.002095
  0
SEQEND
  0
POLYLINE
  8
0
 66
1
 70
1
  0
VERTEX
  8
0
 10
298.985219
 20
408.250000
 42
-0.054054
  0
VERTEX
  8
0
 10
298.733980
 20
406.293424
 42
-0.003630
  0
VERTEX
  8
0
 10
297.375286
 20
400.811893
 42
-0.005138
  0
VERTEX
  8
0
 10
295.942650
 20
395.437425
 42
-0.026040
  0
VERTEX
  8
0
 10
294.959075
 20
392.497478
 42
0.000000
  0
VERTEX
  8
0
 10
293.779469
 20
389.500000
 42
0.000000
  0
VERTEX
  8
0
 10
292.376056
 20
393.440714
 42
-0.021046
  0
VERTEX
  8
0
 10
291.793806
 20
395.322702
 42
-0.010338
  0
VERTEX
  8
0
 10
291.204315
 20
397.760294
 42
-0.010238
  0
VERTEX
  8
0
 10
290.695442
 20
400.321564
 42
-0.014665
  0
VERTEX
  8
0
 10
290.357903
 20
402.611900
 42
-0.008272
  0
VERTEX
  8
0
 10
290.014779
 20
406.016279
 42
-0.116624
  0
VERTEX
  8
0
 10
290.194831
 20
407.221536
 42
-0.223173
  0
VERTEX
  8
0
 10
290.883285
 20
407.864386
 42
-0.041039
  0
VERTEX
  8
0
 10
292.621582
 20
408.271354
 42
-0.005852
  0
VERTEX
  8
0
 10
295.909902
 20
408.722149
 42
-0.031984
  0
VERTEX
  8
0
 10
297.700494
 20
408.830774
 42
-0.073566
  0
VERTEX
  8
0
 10
298.670845
 20
408.683899
 42
-0.335115
  0
SEQEND
  0
POLYLINE
  8
0
 66
1
 70
1
  0
VERTEX
  8
0
 10
289.333391
 20
401.084390
 42
0.014446
  0
VERTEX
  8
0
 10
289.678821
 20
398.503128
 42
0.010297
  0
VERTEX
  8
0
 10
290.208248
 20
395.634663
 42
0.010409
  0
VERTEX
  8
0
 10
290.826981
 20
392.917865
 42
0.021766
  0
VERTEX
  8
0
 10
291.443372
 20
390.839152
 42
0.000000
  0
VERTEX
  8
0
 10
292.935051
 20
386.509524
 42
0.000000
  0
VERTEX
  8
0
 10
288.944998
 20
382.443957
 42
0.016087
  0
VERTEX
  8
0
 10
287.465152
 20
380.835744
 42
0.026217
  0
VERTEX
  8
0
 10
286.329473
 20
379.370198
 42
0.024262
  0
VERTEX
  8
0
 10
285.577890
 20
378.166925
 42
0.335614
  0
VERTEX
  8
0
 10
285.644139
 20
377.689194
 42
0.166235
  0
VERTEX
  8
0
 10
286.210009
 20
377.411689
 42
0.007768
  0
VERTEX
  8
0
 10
288.358487
 20
377.172335
 42
0.012126
  0
VERTEX
  8
0
 10
290.961122
 20
376.986809
 42
0.008349
  0
VERTEX
  8
0
 10
293.916667
 20
376.897478
 42
0.000000
  0
VERTEX
  8
0
 10
301.500000
 20
376.794955
 42
0.000000
  0
VERTEX
  8
0
 10
294.000000
 20
375.514761
 42
0.000306
  0
VERTEX
  8
0
 10
290.981882
 20
374.997692
 42
0.000356
  0
VERTEX
  8
0
 10
288.115625
 20
374.502734
 42
0.000315
  0
VERTEX
  8
0
 10
285.691674
 20
374.080803
 42
0.002162
  0
VERTEX
  8
0
 10
284.500000
 20
373.867283
 42
-0.164085
  0
VERTEX
  8
0
 10
283.362738
 20
374.031788
 42
-0.130691
  0
VERTEX
  8
0
 10
282.432501
 20
374.862323
 42
-0.055220
  0
VERTEX
  8
0
 10
281.493634
 20
376.702743
 42
-0.008894
  0
VERTEX
  8
0
 10
280.134971
 20
380.500000
 42
-0.021643
  0
VERTEX
  8
0
 10
279.139980
 20
383.927373
 42
-0.014213
  0
VERTEX
  8
0
 10
278.279783
 20
387.946643
 42
-0.013911
  0
VERTEX
  8
0
 10
277.625708
 20
392.143818
 42
-0.016740
  0
VERTEX
  8
0
 10
277.253699
 20
396.119616
 42
0.000000
  0
VERTEX
  8
0
 10
276.737457
 20
404.739231
 42
0.000000
  0
VERTEX
  8
0
 10
280.618729
 20
405.766263
 42
-0.014615
  0
VERTEX
  8
0
 10
285.670588
 20
406.946226
 42
-0.175062
  0
VERTEX
  8
0
 10
287.620450
 20
406.658744
 42
-0.222109
  0
VERTEX
  8
0
 10
288.691760
 20
405.221905
 42
-0.024859
  0
SEQEND
  0
POLYLINE
  8
0
 66
1
 70
1
  0
VERTEX
  8
0
 10
275.852688
 20
396.250000
 42
0.028516
  0
VERTEX
  8
0
 10
276.235442
 20
390.897776
 42
0.017987
  0
VERTEX
  8
0
 10
277.260777
 20
384.716390
 42
0.018072
  0
VERTEX
  8
0
 10
278.703804
 20
378.728690
 42
0.033186
  0
VERTEX
  8
0
 10
280.371068
 20
374.000000
 42
-0.223100
  0
VERTEX
  8
0
 10
280.343114
 20
373.170504
 42
-0.113769
  0
VERTEX
  8
0
 10
279.657139
 20
372.354867
 42
-0.054481
  0
VERTEX
  8
0
 10
278.154756
 20
371.462209
 42
-0.013446
  0
VERTEX
  8
0
 10
275.509473
 20
370.342641
 42
0.000000
  0
VERTEX
  8
0
 10
270.004257
 20
368.185281
 42
0.000000
  0
VERTEX
  8
0
 10
268.053873
 20
370.924342
 42
-0.047094
  0
VERTEX
  8
0
 10
265.600783
 20
375.162845
 42
-0.030180
  0
VERTEX
  8
0
 10
263.542013
 20
380.467722
 42
-0.028930
  0
VERTEX
  8
0
 10
262.041619
 20
386.294845
 42
-0.031022
  0
VERTEX
  8
0
 10
261.267093
 20
392.121961
 42
0.000000
  0
VERTEX
  8
0
 10
260.731766
 20
399.743922
 42
0.000000
  0
VERTEX
  8
0
 10
266.615883
 20
401.793014
 42
-0.010073
  0
VERTEX
  8
0
 10
272.797127
 20
403.806905
 42
-0.211917
  0
VERTEX
  8
0
 10
274.675956
 20
403.574944
 42
-0.245219
  0
VERTEX
  8
0
 10
275.612691
 20
402.044876
 42
-0.013509
  0
SEQEND
  0
POLYLINE
  8
0
 66
1
 70
1
  0
VERTEX
  8
0
 10
411.000000
 20
400.500000
 42
0.047160
  0
VERTEX
  8
0
 10
411.098630
 20
399.456621
 42
0.088208
  0
VERTEX
  8
0
 10
411.400000
 20
398.666667
 42
0.118484
  0
VERTEX
  8
0
 10
411.880020
 20
398.177821
 42
0.140575
  0
VERTEX
  8
0
 10
412.500000
 20
398.000000
 42
0.132926
  0
VERTEX
  8
0
 10
413.088601
 20
398.159295
 42
0.107148
  0
VERTEX
  8
0
 10
413.573317
 20
398.603741
 42
0.089651
  0
VERTEX
  8
0
 10
413.891732
 20
399.286452
 42
0.064485
  0
VERTEX
  8
0
 10
414.000000
 20
400.122445
 42
-0.021530
  0
VERTEX
  8
0
 10
414.048580
 20
401.250092
 42
-0.243483
  0
VERTEX
  8
0
 10
414.280049
 20
401.616210
 42
-0.285199
  0
VERTEX
  8
0
 10
414.682027
 20
401.605635
 42
-0.027702
  0
VERTEX
  8
0
 10
415.500000
 20
401.000000
 42
-0.054728
  0
VERTEX
  8
0
 10
416.698076
 20
399.761289
 42
-0.265044
  0
VERTEX
  8
0
 10
416.830629
 20
398.828803
 42
-0.188032
  0
VERTEX
  8
0
 10
416.069156
 20
398.009272
 42
-0.028746
  0
VERTEX
  8
0
 10
413.971824
 20
397.140022
 42
-0.051005
  0
VERTEX
  8
0
 10
411.668425
 20
396.592170
 42
-0.083096
  0
VERTEX
  8
0
 10
409.665096
 20
396.660764
 42
-0.081119
  0
VERTEX
  8
0
 10
407.759914
 20
397.382060
 42
-0.046485
  0
VERTEX
  8
0
 10
405.750000
 20
398.806987
 42
-0.074756
  0
VERTEX
  8
0
 10
404.336067
 20
400.445515
 42
-0.329202
  0
VERTEX
  8
0
 10
404.424034
 20
401.642852
 42
-0.173466
  0
VERTEX
  8
0
 10
405.889519
 20
402.477831
 42
-0.027053
  0
VERTEX
  8
0
 10
409.250000
 20
402.883999
 42
-0.097901
  0
VERTEX
  8
0
 10
410.039606
 20
402.781579
 42
-0.154565
  0
VERTEX
  8
0
 10
410.586600
 20
402.382026
 42
-0.116035
  0
VERTEX
  8
0
 10
410.902201
 20
401.640082
 42
-0.042813
  0
SEQEND
  0
POLYLINE
  8
0
 66
1
 70
1
  0
VERTEX
  8
0
 10
152.823445
 20
394.674999
 42
0.011871
  0
VERTEX
  8
0
 10
145.288750
 20
389.691366
 42
0.009328
  0
VERTEX
  8
0
 10
137.358178
 20
383.948324
 42
0.006325
  0
VERTEX
  8
0
 10
127.174490
 20
376.076219
 42
0.001888
  0
VERTEX
  8
0
 10
111.834773
 20
363.810703
 42
-0.004000
  0
VERTEX
  8
0
 10
104.769821
 20
358.210383
 42
-0.003538
  0
VERTEX
  8
0
 10
97.322866
 20
352.487914
 42
-0.003554
  0
VERTEX
  8
0
 10
90.541119
 20
347.427964
 42
-0.010806
  0
VERTEX
  8
0
 10
85.834773
 20
344.122542
 42
-0.016721
  0
VERTEX
  8
0
 10
77.881898
 20
339.167026
 42
-0.010780
  0
VERTEX
  8
0
 10
68.363824
 20
333.939563
 42
-0.003454
  0
VERTEX
  8
0
 10
58.831427
 20
329.052097
 42
-0.323711
  0
VERTEX
  8
0
 10
57.381706
 20
329.284961
 42
-0.211561
  0
VERTEX
  8
0
 10
57.227895
 20
329.683381
 42
-0.018582
  0
VERTEX
  8
0
 10
57.322686
 20
330.786613
 42
-0.021814
  0
VERTEX
  8
0
 10
57.551015
 20
332.145332
 42
-0.015186
  0
VERTEX
  8
0
 10
57.921528
 20
333.656229
 42
0.096533
  0
VERTEX
  8
0
 10
58.746176
 20
344.155542
 42
0.115915
  0
VERTEX
  8
0
 10
55.404347
 20
353.457884
 42
0.116717
  0
VERTEX
  8
0
 10
48.293270
 20
360.253585
 42
0.098851
  0
VERTEX
  8
0
 10
38.446847
 20
363.662340
 42
-0.017957
  0
VERTEX
  8
0
 10
36.752870
 20
363.956833
 42
-0.037150
  0
VERTEX
  8
0
 10
35.463530
 20
364.330806
 42
-0.062331
  0
VERTEX
  8
0
 10
34.720845
 20
364.718466
 42
-0.474355
  0
VERTEX
  8
0
 10
34.693648
 20
365.060370
 42
-0.122742
  0
VERTEX
  8
0
 10
37.132886
 20
366.457209
 42
-0.001600
  0
VERTEX
  8
0
 10
54.189749
 20
371.225724
 42
-0.004990
  0
VERTEX
  8
0
 10
72.442483
 20
376.070127
 42
-0.005235
  0
VERTEX
  8
0
 10
90.500000
 20
380.469533
 42
0.003779
  0
VERTEX
  8
0
 10
109.116622
 20
384.947805
 42
0.005346
  0
VERTEX
  8
0
 10
125.617153
 20
389.237056
 42
0.006063
  0
VERTEX
  8
0
 10
139.740016
 20
393.254378
 42
0.011478
  0
VERTEX
  8
0
 10
151.000000
 20
396.888786
 42
-0.002334
  0
VERTEX
  8
0
 10
154.322295
 20
398.028619
 42
-0.003380
  0
VERTEX
  8
0
 10
157.268262
 20
399.001858
 42
-0.001744
  0
VERTEX
  8
0
 10
159.772050
 20
399.800653
 42
-0.055588
  0
VERTEX
  8
0
 10
160.402593
 20
399.924717
 42
-0.760132
  0
VERTEX
  8
0
 10
160.461298
 20
399.765920
 42
-0.004803
  0
VERTEX
  8
0
 10
158.548538
 20
398.413667
 42
-0.007386
  0
VERTEX
  8
0
 10
156.014589
 20
396.713355
 42
-0.003902
  0
SEQEND
  0
POLYLINE
  8
0
 66
1
 70
1
  0
VERTEX
  8
0
 10
185.277913
 20
392.762765
 42
0.025164
  0
VERTEX
  8
0
 10
180.683143
 20
384.809432
 42
0.016449
  0
VERTEX
  8
0
 10
176.163711
 20
375.225999
 42
0.013019
  0
VERTEX
  8
0
 10
171.328651
 20
363.181056
 42
0.006253
  0
VERTEX
  8
0
 10
165.725420
 20
347.500000
 42
-0.002960
  0
VERTEX
  8
0
 10
160.376662
 20
332.214100
 42
-0.008210
  0
VERTEX
  8
0
 10
156.376564
 20
321.552589
 42
-0.010983
  0
VERTEX
  8
0
 10
152.787787
 20
313.000550
 42
-0.011484
  0
VERTEX
  8
0
 10
148.877173
 20
304.742232
 42
-0.017187
  0
VERTEX
  8
0
 10
144.546012
 20
296.806403
 42
-0.003819
  0
VERTEX
  8
0
 10
136.573838
 20
283.554989
 42
-0.004163
  0
VERTEX
  8
0
 10
127.657526
 20
269.256031
 42
-0.005900
  0
VERTEX
  8
0
 10
119.469648
 20
256.695494
 42
0.000000
  0
VERTEX
  8
0
 10
114.249850
 20
248.890988
 42
0.000000
  0
VERTEX
  8
0
 10
113.828075
 20
257.712795
 42
0.012831
  0
VERTEX
  8
0
 10
113.471256
 20
262.563046
 42
0.031595
  0
VERTEX
  8
0
 10
112.894585
 20
266.085679
 42
0.035148
  0
VERTEX
  8
0
 10
111.921282
 20
269.280687
 42
0.019648
  0
VERTEX
  8
0
 10
110.318248
 20
273.017301
 42
0.048337
  0
VERTEX
  8
0
 10
105.903005
 20
280.363876
 42
0.064951
  0
VERTEX
  8
0
 10
100.517369
 20
285.946195
 42
0.068856
  0
VERTEX
  8
0
 10
94.150452
 20
289.729161
 42
0.064009
  0
VERTEX
  8
0
 10
86.835881
 20
291.759639
 42
0.000000
  0
VERTEX
  8
0
 10
81.605694
 20
292.512335
 42
0.000000
  0
VERTEX
  8
0
 10
91.052847
 20
299.221447
 42
0.016744
  0
VERTEX
  8
0
 10
112.650610
 20
315.674431
 42
0.021419
  0
VERTEX
  8
0
 10
131.327535
 20
332.298820
 42
0.021076
  0
VERTEX
  8
0
 10
148.748061
 20
350.682720
 42
0.015396
  0
VERTEX
  8
0
 10
166.561112
 20
372.461642
 42
-0.004159
  0
VERTEX
  8
0
 10
174.632745
 20
382.795683
 42
-0.006100
  0
VERTEX
  8
0
 10
181.917294
 20
391.737608
 42
-0.001791
  0
VERTEX
  8
0
 10
188.426111
 20
399.474684
 42
-0.220425
  0
VERTEX
  8
0
 10
189.559815
 20
400.000000
 42
-0.578351
  0
VERTEX
  8
0
 10
189.636061
 20
399.867478
 42
-0.001914
  0
VERTEX
  8
0
 10
188.466941
 20
397.874062
 42
-0.006330
  0
VERTEX
  8
0
 10
187.044927
 20
395.538562
 42
-0.003654
  0
SEQEND
  0
POLYLINE
  8
0
 66
1
 70
1
  0
VERTEX
  8
0
 10
260.000000
 20
392.468455
 42
0.040042
  0
VERTEX
  8
0
 10
260.440908
 20
386.971689
 42
0.027856
  0
VERTEX
  8
0
 10
261.774796
 20
380.886222
 42
0.027951
  0
VERTEX
  8
0
 10
263.766373
 20
375.021447
 42
0.041940
  0
VERTEX
  8
0
 10
266.199143
 20
370.197401
 42
-0.010478
  0
VERTEX
  8
0
 10
266.950845
 20
368.914328
 42
-0.017261
  0
VERTEX
  8
0
 10
267.525174
 20
367.796132
 42
-0.011346
  0
VERTEX
  8
0
 10
267.931998
 20
366.878428
 42
-0.363233
  0
VERTEX
  8
0
 10
267.864068
 20
366.660563
 42
0.004282
  0
VERTEX
  8
0
 10
267.599421
 20
366.487068
 42
0.000098
  0
VERTEX
  8
0
 10
266.347875
 20
365.650821
 42
0.000219
  0
VERTEX
  8
0
 10
264.882610
 20
364.670431
 42
0.000148
  0
VERTEX
  8
0
 10
263.213804
 20
363.552077
 42
0.000000
  0
VERTEX
  8
0
 10
258.927609
 20
360.677831
 42
0.000000
  0
VERTEX
  8
0
 10
255.574205
 20
363.928078
 42
-0.044565
  0
VERTEX
  8
0
 10
252.468865
 20
367.526721
 42
-0.032013
  0
VERTEX
  8
0
 10
249.651997
 20
372.030989
 42
-0.030436
  0
VERTEX
  8
0
 10
247.286537
 20
377.134605
 42
-0.029597
  0
VERTEX
  8
0
 10
245.532909
 20
382.534962
 42
-0.015673
  0
VERTEX
  8
0
 10
244.182633
 20
388.476597
 42
-0.152286
  0
VERTEX
  8
0
 10
244.462937
 20
391.011428
 42
-0.161139
  0
VERTEX
  8
0
 10
246.131502
 20
392.868746
 42
-0.018114
  0
VERTEX
  8
0
 10
251.221788
 20
395.539051
 42
-0.003911
  0
VERTEX
  8
0
 10
254.045423
 20
396.865183
 42
-0.005737
  0
VERTEX
  8
0
 10
256.550776
 20
397.983346
 42
-0.002910
  0
VERTEX
  8
0
 10
258.685789
 20
398.892278
 42
-0.099493
  0
VERTEX
  8
0
 10
259.221788
 20
399.000000
 42
-0.365215
  0
VERTEX
  8
0
 10
259.530277
 20
398.739990
 42
-0.012889
  0
VERTEX
  8
0
 10
259.771400
 20
397.081359
 42
-0.018466
  0
VERTEX
  8
0
 10
259.943981
 20
394.972650
 42
-0.011184
  0
SEQEND
  0
POLYLINE
  8
0
 66
1
 70
1
  0
VERTEX
  8
0
 10
243.799880
 20
384.379028
 42
0.029756
  0
VERTEX
  8
0
 10
245.294694
 20
378.449855
 42
0.031270
  0
VERTEX
  8
0
 10
247.463749
 20
372.840565
 42
0.032253
  0
VERTEX
  8
0
 10
250.238124
 20
367.713256
 42
0.036887
  0
VERTEX
  8
0
 10
253.540640
 20
363.223556
 42
0.000000
  0
VERTEX
  8
0
 10
257.137311
 20
359.021655
 42
0.000000
  0
VERTEX
  8
0
 10
252.832260
 20
353.760827
 42
0.000924
  0
VERTEX
  8
0
 10
251.167091
 20
351.718283
 42
0.001408
  0
VERTEX
  8
0
 10
249.729836
 20
349.938423
 42
0.000489
  0
VERTEX
  8
0
 10
248.494879
 20
348.397157
 42
0.037333
  0
VERTEX
  8
0
 10
248.316204
 20
348.135932
 42
-0.380832
  0
VERTEX
  8
0
 10
248.108373
 20
348.067571
 42
-0.010035
  0
VERTEX
  8
0
 10
247.151992
 20
348.506231
 42
-0.016153
  0
VERTEX
  8
0
 10
245.989508
 20
349.115000
 42
-0.009715
  0
VERTEX
  8
0
 10
244.649234
 20
349.907768
 42
-0.066218
  0
VERTEX
  8
0
 10
238.806698
 20
354.688882
 42
-0.049603
  0
VERTEX
  8
0
 10
233.745177
 20
361.297302
 42
-0.049372
  0
VERTEX
  8
0
 10
230.060541
 20
368.813006
 42
-0.063664
  0
VERTEX
  8
0
 10
228.309268
 20
376.292426
 42
0.000000
  0
VERTEX
  8
0
 10
227.762428
 20
381.590798
 42
0.000000
  0
VERTEX
  8
0
 10
234.576242
 20
386.295399
 42
-0.003696
  0
VERTEX
  8
0
 10
237.229404
 20
388.098458
 42
-0.005660
  0
VERTEX
  8
0
 10
239.557969
 20
389.618023
 42
-0.002212
  0
VERTEX
  8
0
 10
241.569869
 20
390.886236
 42
-0.140417
  0
VERTEX
  8
0
 10
241.966975
 20
391.000000
 42
-0.329978
  0
VERTEX
  8
0
 10
242.235696
 20
390.800986
 42
-0.006454
  0
VERTEX
  8
0
 10
242.743369
 20
389.055090
 42
-0.012770
  0
VERTEX
  8
0
 10
243.276800
 20
386.917303
 42
-0.007881
  0
SEQEND
  0
POLYLINE
  8
0
 66
1
 70
1
  0
VERTEX
  8
0
 10
336.500000
 20
378.404507
 42
-0.034664
  0
VERTEX
  8
0
 10
338.146163
 20
377.391971
 42
-0.035236
  0
VERTEX
  8
0
 10
339.627103
 20
376.166748
 42
-0.037854
  0
VERTEX
  8
0
 10
340.782796
 20
374.884405
 42
-0.079300
  0
VERTEX
  8
0
 10
341.424275
 20
373.708948
 42
-0.106521
  0
VERTEX
  8
0
 10
341.820974
 20
370.651959
 42
-0.060608
  0
VERTEX
  8
0
 10
341.061470
 20
366.985545
 42
-0.053406
  0
VERTEX
  8
0
 10
339.275451
 20
363.112114
 42
-0.044278
  0
VERTEX
  8
0
 10
336.609076
 20
359.433918
 42
0.000000
  0
VERTEX
  8
0
 10
333.188228
 20
355.500000
 42
0.000000
  0
VERTEX
  8
0
 10
332.521596
 20
358.500000
 42
0.032824
  0
VERTEX
  8
0
 10
331.279694
 20
362.750212
 42
0.039775
  0
VERTEX
  8
0
 10
329.551128
 20
366.525071
 42
0.042119
  0
VERTEX
  8
0
 10
327.348568
 20
369.792614
 42
0.046421
  0
VERTEX
  8
0
 10
324.693292
 20
372.530535
 42
0.045286
  0
VERTEX
  8
0
 10
321.396322
 20
374.871526
 42
0.029156
  0
VERTEX
  8
0
 10
317.211227
 20
376.990193
 42
0.029236
  0
VERTEX
  8
0
 10
313.027424
 20
378.526306
 42
0.073487
  0
VERTEX
  8
0
 10
309.821861
 20
379.000000
 42
-0.058620
  0
VERTEX
  8
0
 10
309.125086
 20
379.081971
 42
-0.077685
  0
VERTEX
  8
0
 10
308.535172
 20
379.323955
 42
-0.096302
  0
VERTEX
  8
0
 10
308.139974
 20
379.682164
 42
-0.162006
  0
VERTEX
  8
0
 10
308.000000
 20
380.102827
 42
-0.376474
  0
VERTEX
  8
0
 10
308.449557
 20
380.615266
 42
-0.017373
  0
VERTEX
  8
0
 10
310.946727
 20
380.855239
 42
-0.017197
  0
VERTEX
  8
0
 10
314.654843
 20
380.954158
 42
-0.005291
  0
VERTEX
  8
0
 10
320.250000
 20
380.851749
 42
-0.006275
  0
VERTEX
  8
0
 10
326.823347
 20
380.579249
 42
-0.023878
  0
VERTEX
  8
0
 10
330.908310
 20
380.162252
 42
-0.037400
  0
VERTEX
  8
0
 10
333.873209
 20
379.486025
 42
-0.045815
  0
SEQEND
  0
POLYLINE
  8
0
 66
1
 70
1
  0
VERTEX
  8
0
 10
230.632206
 20
363.498436
 42
0.048552
  0
VERTEX
  8
0
 10
233.190480
 20
359.347821
 42
0.022057
  0
VERTEX
  8
0
 10
237.272400
 20
354.437124
 42
0.021787
  0
VERTEX
  8
0
 10
241.691450
 20
349.980548
 42
0.059461
  0
VERTEX
  8
0
 10
245.279843
 20
347.379144
 42
-0.062650
  0
VERTEX
  8
0
 10
246.234163
 20
346.678018
 42
-0.195770
  0
VERTEX
  8
0
 10
246.556617
 20
345.966263
 42
-0.098730
  0
VERTEX
  8
0
 10
246.389126
 20
344.915655
 42
-0.010216
  0
VERTEX
  8
0
 10
245.466077
 20
342.573053
 42
-0.019212
  0
VERTEX
  8
0
 10
244.410316
 20
340.296297
 42
-0.133995
  0
VERTEX
  8
0
 10
243.591922
 20
339.398245
 42
-0.154631
  0
VERTEX
  8
0
 10
242.487062
 20
339.106056
 42
-0.028153
  0
VERTEX
  8
0
 10
240.354399
 20
339.329915
 42
-0.076126
  0
VERTEX
  8
0
 10
233.982026
 20
341.391092
 42
-0.035953
  0
VERTEX
  8
0
 10
226.535464
 20
345.821120
 42
-0.035150
  0
VERTEX
  8
0
 10
219.409955
 20
351.569280
 42
-0.047948
  0
VERTEX
  8
0
 10
213.935595
 20
357.737277
 42
0.000000
  0
VERTEX
  8
0
 10
210.845692
 20
361.974554
 42
0.000000
  0
VERTEX
  8
0
 10
213.074973
 20
365.237277
 42
-0.021745
  0
VERTEX
  8
0
 10
214.302597
 20
366.876213
 42
-0.006676
  0
VERTEX
  8
0
 10
216.293777
 20
369.241563
 42
-0.006667
  0
VERTEX
  8
0
 10
218.595477
 20
371.832205
 42
-0.007258
  0
VERTEX
  8
0
 10
220.902127
 20
374.287194
 42
0.000000
  0
VERTEX
  8
0
 10
226.500000
 20
380.074389
 42
0.000000
  0
VERTEX
  8
0
 10
227.212278
 20
374.551284
 42
0.027666
  0
VERTEX
  8
0
 10
227.679016
 20
372.037385
 42
0.015297
  0
VERTEX
  8
0
 10
228.510696
 20
369.026229
 42
0.015215
  0
VERTEX
  8
0
 10
229.542971
 20
366.017415
 42
0.023606
  0
SEQEND
  0
POLYLINE
  8
0
 66
1
 70
1
  0
VERTEX
  8
0
 10
404.244303
 20
375.740608
 42
0.000000
  0
VERTEX
  8
0
 10
414.988605
 20
375.981216
 42
0.000000
  0
VERTEX
  8
0
 10
417.931587
 20
369.490608
 42
0.009714
  0
VERTEX
  8
0
 10
419.118296
 20
367.003034
 42
0.015003
  0
VERTEX
  8
0
 10
420.248804
 20
364.906603
 42
0.009295
  0
VERTEX
  8
0
 10
421.256143
 20
363.238046
 42
0.257741
  0
VERTEX
  8
0
 10
421.687285
 20
362.999956
 42
0.177908
  0
VERTEX
  8
0
 10
422.150236
 20
363.170036
 42
0.013109
  0
VERTEX
  8
0
 10
423.173789
 20
364.086812
 42
0.016950
  0
VERTEX
  8
0
 10
424.357292
 20
365.282537
 42
0.011989
  0
VERTEX
  8
0
 10
425.606464
 20
366.699955
 42
0.000000
  0
VERTEX
  8
0
 10
428.712929
 20
370.399999
 42
0.000000
  0
VERTEX
  8
0
 10
429.414242
 20
365.723308
 42
0.019548
  0
VERTEX
  8
0
 10
429.764401
 20
363.882176
 42
0.024833
  0
VERTEX
  8
0
 10
430.236973
 20
362.218033
 42
0.024146
  0
VERTEX
  8
0
 10
430.755781
 20
360.898574
 42
0.149681
  0
VERTEX
  8
0
 10
431.230207
 20
360.357724
 42
0.255605
  0
VERTEX
  8
0
 10
431.869173
 20
360.323776
 42
0.044634
  0
VERTEX
  8
0
 10
432.943199
 20
360.962658
 42
0.038091
  0
VERTEX
  8
0
 10
434.211314
 20
362.035073
 42
0.023573
  0
VERTEX
  8
0
 10
435.535781
 20
363.469582
 42
0.000000
  0
VERTEX
  8
0
 10
438.726704
 20
367.270332
 42
0.000000
  0
VERTEX
  8
0
 10
439.452111
 20
363.403576
 42
0.043054
  0
VERTEX
  8
0
 10
440.834650
 20
358.437121
 42
0.189876
  0
VERTEX
  8
0
 10
442.829231
 20
356.221036
 42
0.262939
  0
VERTEX
  8
0
 10
445.322923
 20
356.349740
 42
0.076521
  0
VERTEX
  8
0
 10
448.327111
 20
358.976902
 42
0.000000
  0
VERTEX
  8
0
 10
450.832009
 20
361.953805
 42
0.000000
  0
VERTEX
  8
0
 10
451.528607
 20
357.726902
 42
0.011417
  0
VERTEX
  8
0
 10
451.853525
 20
356.001799
 42
0.011828
  0
VERTEX
  8
0
 10
452.253524
 20
354.313653
 42
0.011600
  0
VERTEX
  8
0
 10
452.667650
 20
352.870815
 42
0.048969
  0
VERTEX
  8
0
 10
453.018209
 20
352.042979
 42
-0.165820
  0
VERTEX
  8
0
 10
453.173605
 20
351.136507
 42
-0.053007
  0
VERTEX
  8
0
 10
452.810763
 20
349.798351
 42
-0.039435
  0
VERTEX
  8
0
 10
451.992049
 20
348.101440
 42
-0.018573
  0
VERTEX
  8
0
 10
450.687042
 20
346.045131
 42
0.000000
  0
VERTEX
  8
0
 10
447.562871
 20
341.504304
 42
0.000000
  0
VERTEX
  8
0
 10
446.358287
 20
345.502152
 42
-0.009193
  0
VERTEX
  8
0
 10
445.891524
 20
347.161097
 42
-0.009133
  0
VERTEX
  8
0
 10
445.484975
 20
348.839695
 42
-0.009021
  0
VERTEX
  8
0
 10
445.183010
 20
350.319357
 42
-0.034860
  0
VERTEX
  8
0
 10
445.076852
 20
351.250000
 42
0.225892
  0
VERTEX
  8
0
 10
444.376811
 20
352.568106
 42
0.248594
  0
VERTEX
  8
0
 10
442.957779
 20
352.783945
 42
0.095085
  0
VERTEX
  8
0
 10
440.711533
 20
351.479980
 42
0.029970
  0
VERTEX
  8
0
 10
437.926883
 20
348.750000
 42
0.000000
  0
VERTEX
  8
0
 10
434.082026
 20
344.500000
 42
0.000000
  0
VERTEX
  8
0
 10
434.041013
 20
350.750000
 42
0.017137
  0
VERTEX
  8
0
 10
433.858130
 20
355.226363
 42
0.213507
  0
VERTEX
  8
0
 10
433.068952
 20
356.685472
 42
0.288478
  0
VERTEX
  8
0
 10
431.626469
 20
356.819418
 42
0.028969
  0
VERTEX
  8
0
 10
428.500000
 20
355.000000
 42
-0.008701
  0
VERTEX
  8
0
 10
427.305561
 20
354.238519
 42
-0.011764
  0
VERTEX
  8
0
 10
426.198481
 20
353.594872
 42
-0.008864
  0
VERTEX
  8
0
 10
425.259635
 20
353.099671
 42
-0.114763
  0
VERTEX
  8
0
 10
424.877808
 20
353.006589
 42
-0.307140
  0
VERTEX
  8
0
 10
424.603659
 20
353.188326
 42
-0.019652
  0
VERTEX
  8
0
 10
424.256596
 20
354.138786
 42
-0.023332
  0
VERTEX
  8
0
 10
423.918921
 20
355.387237
 42
-0.014735
  0
VERTEX
  8
0
 10
423.636758
 20
356.870128
 42
0.046170
  0
VERTEX
  8
0
 10
422.659476
 20
360.684143
 42
0.220788
  0
VERTEX
  8
0
 10
421.123263
 20
362.244146
 42
0.195254
  0
VERTEX
  8
0
 10
418.796360
 20
362.180889
 42
0.035851
  0
VERTEX
  8
0
 10
414.914932
 20
360.137900
 42
-0.004396
  0
VERTEX
  8
0
 10
412.942135
 20
358.935456
 42
-0.006553
  0
VERTEX
  8
0
 10
411.193989
 20
357.921758
 42
-0.003133
  0
VERTEX
  8
0
 10
409.697133
 20
357.092100
 42
-0.125616
  0
VERTEX
  8
0
 10
409.336324
 20
357.000000
 42
-0.181238
  0
VERTEX
  8
0
 10
408.983657
 20
357.132175
 42
-0.001951
  0
VERTEX
  8
0
 10
407.007206
 20
358.869403
 42
-0.005835
  0
VERTEX
  8
0
 10
404.741127
 20
360.924620
 42
-0.003725
  0
VERTEX
  8
0
 10
402.152769
 20
363.363927
 42
0.006648
  0
VERTEX
  8
0
 10
399.244829
 20
366.072499
 42
0.005134
  0
VERTEX
  8
0
 10
396.005986
 20
368.949791
 42
0.005193
  0
VERTEX
  8
0
 10
392.925104
 20
371.574935
 42
0.012386
  0
VERTEX
  8
0
 10
390.569737
 20
373.443057
 42
0.000000
  0
VERTEX
  8
0
 10
385.639474
 20
377.158261
 42
0.000000
  0
VERTEX
  8
0
 10
389.569737
 20
376.329131
 42
0.034248
  0
VERTEX
  8
0
 10
391.754197
 20
376.022536
 42
0.007722
  0
VERTEX
  8
0
 10
395.501624
 20
375.814236
 42
0.007969
  0
VERTEX
  8
0
 10
399.842624
 20
375.709397
 42
0.007650
  0
SEQEND
  0
POLYLINE
  8
0
 66
1
 70
1
  0
VERTEX
  8
0
 10
423.694672
 20
372.384183
 42
-0.032093
  0
VERTEX
  8
0
 10
424.851255
 20
371.992989
 42
-0.201360
  0
VERTEX
  8
0
 10
425.281885
 20
371.560352
 42
-0.205342
  0
VERTEX
  8
0
 10
425.270161
 20
370.955621
 42
-0.033465
  0
VERTEX
  8
0
 10
424.704125
 20
369.897837
 42
-0.034052
  0
VERTEX
  8
0
 10
423.634916
 20
368.420011
 42
-0.267553
  0
VERTEX
  8
0
 10
422.870318
 20
368.137845
 42
-0.222437
  0
VERTEX
  8
0
 10
422.139982
 20
368.645114
 42
-0.024618
  0
VERTEX
  8
0
 10
421.181954
 20
370.500000
 42
-0.022728
  0
VERTEX
  8
0
 10
420.499443
 20
372.198527
 42
-0.326961
  0
VERTEX
  8
0
 10
420.678011
 20
372.785385
 42
-0.217750
  0
VERTEX
  8
0
 10
421.396414
 20
372.941969
 42
-0.011947
  0
SEQEND
  0
POLYLINE
  8
0
 66
1
 70
1
  0
VERTEX
  8
0
 10
436.384046
 20
371.187617
 42
-0.194672
  0
VERTEX
  8
0
 10
436.466898
 20
370.702164
 42
-0.034314
  0
VERTEX
  8
0
 10
436.202444
 20
369.796486
 42
-0.032732
  0
VERTEX
  8
0
 10
435.723054
 20
368.717612
 42
-0.024254
  0
VERTEX
  8
0
 10
435.060775
 20
367.592647
 42
-0.027571
  0
VERTEX
  8
0
 10
433.763582
 20
365.834664
 42
-0.344973
  0
VERTEX
  8
0
 10
433.007399
 20
365.669069
 42
-0.211719
  0
VERTEX
  8
0
 10
432.378109
 20
366.409061
 42
-0.013209
  0
VERTEX
  8
0
 10
431.619206
 20
369.250000
 42
-0.024111
  0
VERTEX
  8
0
 10
431.324054
 20
370.814980
 42
-0.181570
  0
VERTEX
  8
0
 10
431.486368
 20
371.537331
 42
-0.215708
  0
VERTEX
  8
0
 10
432.064475
 20
371.904327
 42
-0.035196
  0
VERTEX
  8
0
 10
433.421931
 20
372.000000
 42
-0.030513
  0
VERTEX
  8
0
 10
434.400467
 20
371.940229
 42
-0.036432
  0
VERTEX
  8
0
 10
435.306817
 20
371.761362
 42
-0.039472
  0
VERTEX
  8
0
 10
436.027700
 20
371.501010
 42
-0.149023
  0
SEQEND
  0
POLYLINE
  8
0
 66
1
 70
1
  0
VERTEX
  8
0
 10
446.823061
 20
367.911837
 42
0.000000
  0
VERTEX
  8
0
 10
449.944569
 20
366.823673
 42
0.000000
  0
VERTEX
  8
0
 10
447.244428
 20
363.439693
 42
-0.024528
  0
VERTEX
  8
0
 10
445.216005
 20
361.138670
 42
-0.303266
  0
VERTEX
  8
0
 10
444.130158
 20
360.906853
 42
-0.247349
  0
VERTEX
  8
0
 10
443.336463
 20
361.835388
 42
-0.018037
  0
VERTEX
  8
0
 10
442.693107
 20
365.250000
 42
-0.020127
  0
VERTEX
  8
0
 10
442.401965
 20
367.888213
 42
-0.273517
  0
VERTEX
  8
0
 10
442.818333
 20
368.719571
 42
-0.217130
  0
VERTEX
  8
0
 10
443.830803
 20
368.867304
 42
-0.013175
  0
SEQEND
  0
POLYLINE
  8
0
 66
1
 70
1
  0
VERTEX
  8
0
 10
460.722707
 20
364.376851
 42
-0.055108
  0
VERTEX
  8
0
 10
461.980034
 20
363.886261
 42
-0.325410
  0
VERTEX
  8
0
 10
462.275437
 20
363.289231
 42
-0.103814
  0
VERTEX
  8
0
 10
461.884219
 20
362.300059
 42
-0.004783
  0
VERTEX
  8
0
 10
459.849365
 20
359.281060
 42
-0.028227
  0
VERTEX
  8
0
 10
457.520908
 20
356.275158
 42
-0.320898
  0
VERTEX
  8
0
 10
456.140023
 20
355.945644
 42
-0.278105
  0
VERTEX
  8
0
 10
455.225819
 20
357.169661
 42
-0.023735
  0
VERTEX
  8
0
 10
455.015313
 20
361.250000
 42
-0.047580
  0
VERTEX
  8
0
 10
455.237346
 20
363.683059
 42
-0.224540
  0
VERTEX
  8
0
 10
456.038886
 20
364.787382
 42
-0.167394
  0
VERTEX
  8
0
 10
457.586184
 20
365.052166
 42
-0.024926
  0
SEQEND
  0
POLYLINE
  8
0
 66
1
 70
1
  0
VERTEX
  8
0
 10
472.741370
 20
360.683999
 42
0.000000
  0
VERTEX
  8
0
 10
474.982741
 20
359.438869
 42
0.000000
  0
VERTEX
  8
0
 10
472.455319
 20
355.719435
 42
-0.016495
  0
VERTEX
  8
0
 10
471.416971
 20
354.294814
 42
-0.022744
  0
VERTEX
  8
0
 10
470.387168
 20
353.092584
 42
-0.020418
  0
VERTEX
  8
0
 10
469.474640
 20
352.196715
 42
-0.185939
  0
VERTEX
  8
0
 10
468.963949
 20
352.000000
 42
-0.326321
  0
VERTEX
  8
0
 10
468.587736
 20
352.274794
 42
-0.029668
  0
VERTEX
  8
0
 10
468.283160
 20
353.468750
 42
-0.029478
  0
VERTEX
  8
0
 10
468.069579
 20
355.083398
 42
-0.018146
  0
VERTEX
  8
0
 10
468.000000
 20
357.000000
 42
-0.023606
  0
VERTEX
  8
0
 10
468.160142
 20
360.390132
 42
-0.206836
  0
VERTEX
  8
0
 10
468.868106
 20
361.678920
 42
-0.261178
  0
VERTEX
  8
0
 10
470.171990
 20
361.875464
 42
-0.036451
  0
SEQEND
  0
POLYLINE
  8
0
 66
1
 70
1
  0
VERTEX
  8
0
 10
215.959359
 20
352.924607
 42
0.191689
  0
VERTEX
  8
0
 10
216.132297
 20
352.565956
 42
0.002993
  0
VERTEX
  8
0
 10
217.852595
 20
351.005457
 42
0.007465
  0
VERTEX
  8
0
 10
219.911607
 20
349.214761
 42
0.004816
  0
VERTEX
  8
0
 10
222.347346
 20
347.199328
 42
0.024709
  0
VERTEX
  8
0
 10
227.439775
 20
343.469086
 42
0.022693
  0
VERTEX
  8
0
 10
233.018827
 20
340.144336
 42
0.021797
  0
VERTEX
  8
0
 10
238.145009
 20
337.677832
 42
0.100237
  0
VERTEX
  8
0
 10
241.356989
 20
337.009769
 42
-0.055624
  0
VERTEX
  8
0
 10
242.188343
 20
336.912564
 42
-0.184947
  0
VERTEX
  8
0
 10
242.636611
 20
336.610284
 42
-0.188661
  0
VERTEX
  8
0
 10
242.763122
 20
336.090634
 42
-0.058135
  0
VERTEX
  8
0
 10
242.559789
 20
335.295212
 42
0.032189
  0
VERTEX
  8
0
 10
242.269354
 20
334.363094
 42
0.008359
  0
VERTEX
  8
0
 10
241.924831
 20
332.829487
 42
0.008465
  0
VERTEX
  8
0
 10
241.590298
 20
331.064668
 42
0.008547
  0
VERTEX
  8
0
 10
241.316876
 20
329.295212
 42
-0.017504
  0
VERTEX
  8
0
 10
240.897721
 20
326.871130
 42
-0.106238
  0
VERTEX
  8
0
 10
240.383623
 20
325.713417
 42
-0.166478
  0
VERTEX
  8
0
 10
239.552371
 20
325.130857
 42
-0.060726
  0
VERTEX
  8
0
 10
238.114076
 20
324.898683
 42
-0.058317
  0
VERTEX
  8
0
 10
229.190750
 20
325.593994
 42
-0.039165
  0
VERTEX
  8
0
 10
219.329701
 20
328.350280
 42
-0.039765
  0
VERTEX
  8
0
 10
210.339334
 20
332.477109
 42
-0.077575
  0
VERTEX
  8
0
 10
204.145094
 20
337.330957
 42
0.000000
  0
VERTEX
  8
0
 10
201.790188
 20
339.852237
 42
0.000000
  0
VERTEX
  8
0
 10
203.533372
 20
345.176119
 42
-0.011383
  0
VERTEX
  8
0
 10
204.377151
 20
347.567608
 42
-0.006849
  0
VERTEX
  8
0
 10
205.480989
 20
350.366528
 42
-0.006858
  0
VERTEX
  8
0
 10
206.655303
 20
353.120468
 42
-0.011897
  0
VERTEX
  8
0
 10
207.715683
 20
355.369507
 42
0.000000
  0
VERTEX
  8
0
 10
210.154810
 20
360.239015
 42
0.000000
  0
VERTEX
  8
0
 10
213.036764
 20
356.869507
 42
-0.007197
  0
VERTEX
  8
0
 10
214.143844
 20
355.536769
 42
-0.010289
  0
VERTEX
  8
0
 10
215.084083
 20
354.320771
 42
-0.006545
  0
VERTEX
  8
0
 10
215.832293
 20
353.282705
 42
-0.136062
  0
SEQEND
  0
POLYLINE
  8
0
 66
1
 70
1
  0
VERTEX
  8
0
 10
361.343470
 20
356.611644
 42
-0.013256
  0
VERTEX
  8
0
 10
363.469308
 20
355.603302
 42
-0.016396
  0
VERTEX
  8
0
 10
365.390239
 20
354.548403
 42
-0.014825
  0
VERTEX
  8
0
 10
366.929612
 20
353.573324
 42
-0.106131
  0
VERTEX
  8
0
 10
367.536028
 20
352.941705
 42
-0.045023
  0
VERTEX
  8
0
 10
367.827771
 20
352.358134
 42
-0.399419
  0
VERTEX
  8
0
 10
367.728989
 20
352.115345
 42
-0.187603
  0
VERTEX
  8
0
 10
367.342858
 20
352.094675
 42
-0.016789
  0
VERTEX
  8
0
 10
366.414045
 20
352.434757
 42
0.076790
  0
VERTEX
  8
0
 10
362.818466
 20
353.281496
 42
0.011246
  0
VERTEX
  8
0
 10
355.315751
 20
353.698393
 42
0.012636
  0
VERTEX
  8
0
 10
347.760369
 20
353.756924
 42
0.052730
  0
VERTEX
  8
0
 10
343.250000
 20
353.199855
 42
-0.007826
  0
VERTEX
  8
0
 10
341.620127
 20
352.848033
 42
-0.013380
  0
VERTEX
  8
0
 10
340.248438
 20
352.612310
 42
-0.007214
  0
VERTEX
  8
0
 10
339.132884
 20
352.467600
 42
-0.448183
  0
VERTEX
  8
0
 10
339.000000
 20
352.586069
 42
-0.251789
  0
VERTEX
  8
0
 10
339.117140
 20
352.803938
 42
-0.002890
  0
VERTEX
  8
0
 10
340.542188
 20
353.734271
 42
-0.007964
  0
VERTEX
  8
0
 10
342.237500
 20
354.789285
 42
-0.005009
  0
VERTEX
  8
0
 10
344.250000
 20
355.970388
 42
-0.040416
  0
VERTEX
  8
0
 10
348.706329
 20
358.067872
 42
-0.080581
  0
VERTEX
  8
0
 10
352.517639
 20
358.833765
 42
-0.077905
  0
VERTEX
  8
0
 10
356.459647
 20
358.366438
 42
-0.035738
  0
SEQEND
  0
POLYLINE
  8
0
 66
1
 70
1
  0
VERTEX
  8
0
 10
464.524253
 20
352.250000
 42
-0.036252
  0
VERTEX
  8
0
 10
463.604303
 20
347.109550
 42
-0.046130
  0
VERTEX
  8
0
 10
461.990238
 20
342.571994
 42
-0.079622
  0
VERTEX
  8
0
 10
460.262110
 20
340.006873
 42
-0.494282
  0
VERTEX
  8
0
 10
458.912845
 20
340.141019
 42
-0.055107
  0
VERTEX
  8
0
 10
458.557388
 20
340.889305
 42
-0.013854
  0
VERTEX
  8
0
 10
458.150552
 20
342.178590
 42
-0.013974
  0
VERTEX
  8
0
 10
457.765244
 20
343.687517
 42
-0.013675
  0
VERTEX
  8
0
 10
457.461729
 20
345.226523
 42
-0.042288
  0
VERTEX
  8
0
 10
457.276495
 20
347.457371
 42
-0.083084
  0
VERTEX
  8
0
 10
457.572483
 20
349.208226
 42
-0.060698
  0
VERTEX
  8
0
 10
458.497178
 20
351.100682
 42
-0.014370
  0
VERTEX
  8
0
 10
460.497781
 20
353.996978
 42
-0.006449
  0
VERTEX
  8
0
 10
461.943768
 20
355.914460
 42
-0.009949
  0
VERTEX
  8
0
 10
463.247602
 20
357.530362
 42
-0.004752
  0
VERTEX
  8
0
 10
464.382156
 20
358.854824
 42
-0.216534
  0
VERTEX
  8
0
 10
464.701666
 20
359.000000
 42
-0.414923
  0
VERTEX
  8
0
 10
464.894404
 20
358.806794
 42
-0.005964
  0
VERTEX
  8
0
 10
464.868724
 20
357.017187
 42
-0.012282
  0
VERTEX
  8
0
 10
464.757857
 20
354.838352
 42
-0.007304
  0
SEQEND
  0
POLYLINE
  8
0
 66
1
 70
1
  0
VERTEX
  8
0
 10
420.000000
 20
357.081787
 42
0.046750
  0
VERTEX
  8
0
 10
420.043917
 20
356.613114
 42
0.014708
  0
VERTEX
  8
0
 10
420.195175
 20
355.924682
 42
0.014550
  0
VERTEX
  8
0
 10
420.410084
 20
355.162376
 42
0.015632
  0
VERTEX
  8
0
 10
420.664425
 20
354.432111
 42
-0.053296
  0
VERTEX
  8
0
 10
420.904354
 20
353.529892
 42
-0.338471
  0
VERTEX
  8
0
 10
420.691420
 20
353.139482
 42
-0.154203
  0
VERTEX
  8
0
 10
420.050601
 20
353.066919
 42
-0.013167
  0
VERTEX
  8
0
 10
418.416475
 20
353.431608
 42
-0.014725
  0
VERTEX
  8
0
 10
415.886865
 20
354.146298
 42
-0.178426
  0
VERTEX
  8
0
 10
415.101228
 20
354.753442
 42
-0.344286
  0
VERTEX
  8
0
 10
415.176216
 20
355.475897
 42
-0.043239
  0
VERTEX
  8
0
 10
416.442702
 20
356.581761
 42
-0.028091
  0
VERTEX
  8
0
 10
417.952372
 20
357.560533
 42
-0.095132
  0
VERTEX
  8
0
 10
419.058723
 20
357.938673
 42
-0.225517
  0
VERTEX
  8
0
 10
419.715927
 20
357.732517
 42
-0.208760
  0
SEQEND
  0
POLYLINE
  8
0
 66
1
 70
1
  0
VERTEX
  8
0
 10
430.576660
 20
346.243326
 42
-0.267143
  0
VERTEX
  8
0
 10
430.223385
 20
346.148097
 42
-0.050341
  0
VERTEX
  8
0
 10
429.572694
 20
346.392563
 42
-0.041828
  0
VERTEX
  8
0
 10
428.782023
 20
346.870383
 42
-0.027098
  0
VERTEX
  8
0
 10
427.951462
 20
347.543926
 42
0.000000
  0
VERTEX
  8
0
 10
425.890663
 20
349.408924
 42
0.000000
  0
VERTEX
  8
0
 10
428.195331
 20
351.158169
 42
-0.012700
  0
VERTEX
  8
0
 10
429.712349
 20
352.249993
 42
-0.270959
  0
VERTEX
  8
0
 10
430.243420
 20
352.286816
 42
-0.245589
  0
VERTEX
  8
0
 10
430.569295
 20
351.839085
 42
-0.010702
  0
VERTEX
  8
0
 10
430.820529
 20
349.857569
 42
-0.018730
  0
VERTEX
  8
0
 10
430.901976
 20
348.648417
 42
-0.024298
  0
VERTEX
  8
0
 10
430.881110
 20
347.537824
 42
-0.023232
  0
VERTEX
  8
0
 10
430.778152
 20
346.637216
 42
-0.157564
  0
SEQEND
  0
POLYLINE
  8
0
 66
1
 70
1
  0
VERTEX
  8
0
 10
443.355460
 20
342.186517
 42
-0.011581
  0
VERTEX
  8
0
 10
443.685151
 20
340.166629
 42
-0.174299
  0
VERTEX
  8
0
 10
443.541368
 20
339.480251
 42
-0.304843
  0
VERTEX
  8
0
 10
443.039716
 20
339.251770
 42
-0.033119
  0
VERTEX
  8
0
 10
441.737697
 20
339.557480
 42
-0.016605
  0
VERTEX
  8
0
 10
438.741902
 20
340.583751
 42
-0.178205
  0
VERTEX
  8
0
 10
437.789204
 20
341.412537
 42
-0.261770
  0
VERTEX
  8
0
 10
437.799775
 20
342.478392
 42
-0.036153
  0
VERTEX
  8
0
 10
439.087505
 20
344.384115
 42
-0.043751
  0
VERTEX
  8
0
 10
440.714149
 20
346.116380
 42
-0.310675
  0
VERTEX
  8
0
 10
441.797618
 20
346.254661
 42
-0.207558
  0
VERTEX
  8
0
 10
442.641742
 20
345.223501
 42
-0.022936
  0
SEQEND
  0
POLYLINE
  8
0
 66
1
 70
1
  0
VERTEX
  8
0
 10
455.211511
 20
340.012240
 42
-0.049639
  0
VERTEX
  8
0
 10
455.300178
 20
338.108132
 42
-0.237264
  0
VERTEX
  8
0
 10
454.776925
 20
337.191225
 42
-0.203854
  0
VERTEX
  8
0
 10
453.656006
 20
336.982487
 42
-0.037098
  0
VERTEX
  8
0
 10
451.587220
 20
337.604904
 42
-0.070519
  0
VERTEX
  8
0
 10
450.785468
 20
338.050442
 42
-0.242673
  0
VERTEX
  8
0
 10
450.536276
 20
338.570771
 42
-0.114604
  0
VERTEX
  8
0
 10
450.744684
 20
339.361456
 42
-0.011909
  0
VERTEX
  8
0
 10
451.688916
 20
341.050522
 42
-0.032222
  0
VERTEX
  8
0
 10
453.040773
 20
343.035094
 42
-0.307973
  0
VERTEX
  8
0
 10
453.966631
 20
343.332568
 42
-0.264239
  0
VERTEX
  8
0
 10
454.696364
 20
342.576226
 42
-0.026280
  0
SEQEND
  0
POLYLINE
  8
0
 66
1
 70
1
  0
VERTEX
  8
0
 10
465.929715
 20
334.843620
 42
-0.080768
  0
VERTEX
  8
0
 10
465.843147
 20
334.118237
 42
-0.192264
  0
VERTEX
  8
0
 10
465.516067
 20
333.696676
 42
-0.151816
  0
VERTEX
  8
0
 10
464.922506
 20
333.557876
 42
-0.046073
  0
VERTEX
  8
0
 10
464.000000
 20
333.710251
 42
-0.068958
  0
VERTEX
  8
0
 10
462.649153
 20
334.271019
 42
-0.219494
  0
VERTEX
  8
0
 10
462.104978
 20
335.053792
 42
-0.153695
  0
VERTEX
  8
0
 10
462.253339
 20
336.191713
 42
-0.030909
  0
VERTEX
  8
0
 10
463.238221
 20
338.009844
 42
-0.011682
  0
VERTEX
  8
0
 10
464.016475
 20
339.193552
 42
-0.214165
  0
VERTEX
  8
0
 10
464.392647
 20
339.421023
 42
-0.316623
  0
VERTEX
  8
0
 10
464.719519
 20
339.246102
 42
-0.022285
  0
VERTEX
  8
0
 10
465.167935
 20
338.246275
 42
-0.023667
  0
VERTEX
  8
0
 10
465.438011
 20
337.457052
 42
-0.015537
  0
VERTEX
  8
0
 10
465.676949
 20
336.526407
 42
-0.015641
  0
VERTEX
  8
0
 10
465.853418
 20
335.603687
 42
-0.028828
  0
SEQEND
  0
POLYLINE
  8
0
 66
1
 70
1
  0
VERTEX
  8
0
 10
212.786915
 20
329.612017
 42
0.027347
  0
VERTEX
  8
0
 10
218.353443
 20
327.168357
 42
0.019237
  0
VERTEX
  8
0
 10
224.845684
 20
325.013206
 42
0.019222
  0
VERTEX
  8
0
 10
231.065426
 20
323.467355
 42
0.051336
  0
VERTEX
  8
0
 10
235.605335
 20
323.000000
 42
0.000000
  0
VERTEX
  8
0
 10
240.000000
 20
323.000000
 42
0.000000
  0
VERTEX
  8
0
 10
240.000000
 20
318.038544
 42
0.000000
  0
VERTEX
  8
0
 10
240.000000
 20
313.077088
 42
0.000000
  0
VERTEX
  8
0
 10
235.750000
 20
311.927829
 42
-0.072509
  0
VERTEX
  8
0
 10
228.786082
 20
311.092832
 42
-0.034955
  0
VERTEX
  8
0
 10
219.820712
 20
311.949938
 42
-0.034640
  0
VERTEX
  8
0
 10
210.779830
 20
314.109243
 42
-0.054997
  0
VERTEX
  8
0
 10
203.500000
 20
317.304331
 42
-0.060731
  0
VERTEX
  8
0
 10
200.887172
 20
319.269175
 42
-0.151703
  0
VERTEX
  8
0
 10
199.747160
 20
321.338243
 42
-0.074518
  0
VERTEX
  8
0
 10
199.572486
 20
324.586414
 42
-0.007564
  0
VERTEX
  8
0
 10
200.424201
 20
332.286419
 42
0.000000
  0
VERTEX
  8
0
 10
201.153013
 20
338.072837
 42
0.000000
  0
VERTEX
  8
0
 10
204.613422
 20
335.034558
 42
0.021989
  0
VERTEX
  8
0
 10
206.276619
 20
333.699026
 42
0.011709
  0
VERTEX
  8
0
 10
208.441804
 20
332.188397
 42
0.011633
  0
VERTEX
  8
0
 10
210.730136
 20
330.745768
 42
0.017723
  0
SEQEND
  0
POLYLINE
  8
0
 66
1
 70
1
  0
VERTEX
  8
0
 10
473.612428
 20
331.432386
 42
-0.105041
  0
VERTEX
  8
0
 10
473.294273
 20
330.942217
 42
-0.099165
  0
VERTEX
  8
0
 10
472.798311
 20
330.611524
 42
-0.096423
  0
VERTEX
  8
0
 10
472.200871
 20
330.491574
 42
-0.093343
  0
VERTEX
  8
0
 10
471.594658
 20
330.602050
 42
-0.111580
  0
VERTEX
  8
0
 10
470.898241
 20
331.066978
 42
-0.205571
  0
VERTEX
  8
0
 10
470.665974
 20
331.694664
 42
-0.086632
  0
VERTEX
  8
0
 10
470.897350
 20
332.710663
 42
-0.011228
  0
VERTEX
  8
0
 10
471.806804
 20
334.751565
 42
0.000000
  0
VERTEX
  8
0
 10
473.500000
 20
338.332747
 42
0.000000
  0
VERTEX
  8
0
 10
473.824574
 20
335.581901
 42
-0.022113
  0
VERTEX
  8
0
 10
473.909362
 20
334.426108
 42
-0.020025
  0
VERTEX
  8
0
 10
473.896142
 20
333.228257
 42
-0.020494
  0
VERTEX
  8
0
 10
473.797238
 20
332.156985
 42
-0.058407
  0
SEQEND
  0
POLYLINE
  8
0
 66
1
 70
1
  0
VERTEX
  8
0
 10
216.529460
 20
310.996219
 42
0.035521
  0
VERTEX
  8
0
 10
222.013421
 20
310.331645
 42
0.016874
  0
VERTEX
  8
0
 10
229.130557
 20
310.218908
 42
0.014303
  0
VERTEX
  8
0
 10
235.911112
 20
310.534507
 42
0.089937
  0
VERTEX
  8
0
 10
239.250000
 20
311.403116
 42
-0.045243
  0
VERTEX
  8
0
 10
240.117362
 20
311.713329
 42
-0.210598
  0
VERTEX
  8
0
 10
240.629625
 20
311.629568
 42
-0.207447
  0
VERTEX
  8
0
 10
240.918246
 20
311.193330
 42
-0.043879
  0
VERTEX
  8
0
 10
241.000000
 20
310.263539
 42
0.052892
  0
VERTEX
  8
0
 10
241.116256
 20
309.167613
 42
0.009960
  0
VERTEX
  8
0
 10
241.578662
 20
307.204133
 42
0.010549
  0
VERTEX
  8
0
 10
242.215774
 20
304.922551
 42
0.009491
  0
VERTEX
  8
0
 10
242.969912
 20
302.587452
 42
0.000000
  0
VERTEX
  8
0
 10
244.939824
 20
296.861803
 42
0.000000
  0
VERTEX
  8
0
 10
239.219912
 20
294.180902
 42
-0.023381
  0
VERTEX
  8
0
 10
235.720423
 20
292.736120
 42
-0.043996
  0
VERTEX
  8
0
 10
232.765573
 20
291.960020
 42
-0.033586
  0
VERTEX
  8
0
 10
229.232967
 20
291.599259
 42
-0.008656
  0
VERTEX
  8
0
 10
223.500000
 20
291.500000
 42
-0.008781
  0
VERTEX
  8
0
 10
217.694052
 20
291.601968
 42
-0.034747
  0
VERTEX
  8
0
 10
214.144871
 20
291.974527
 42
-0.044058
  0
VERTEX
  8
0
 10
211.113238
 20
292.787868
 42
-0.020673
  0
VERTEX
  8
0
 10
207.357320
 20
294.338401
 42
-0.029704
  0
VERTEX
  8
0
 10
203.100528
 20
296.621210
 42
-0.140901
  0
VERTEX
  8
0
 10
201.256377
 20
298.644137
 42
-0.085353
  0
VERTEX
  8
0
 10
200.313236
 20
301.816832
 42
-0.007071
  0
VERTEX
  8
0
 10
199.412390
 20
310.404862
 42
0.000000
  0
VERTEX
  8
0
 10
198.713708
 20
318.115086
 42
0.000000
  0
VERTEX
  8
0
 10
204.606854
 20
315.140479
 42
0.020415
  0
VERTEX
  8
0
 10
207.301129
 20
313.915825
 42
0.012817
  0
VERTEX
  8
0
 10
210.540042
 20
312.696077
 42
0.012863
  0
VERTEX
  8
0
 10
213.795086
 20
311.657678
 42
0.022872
  0
SEQEND
  0
POLYLINE
  8
0
 66
1
 70
1
  0
VERTEX
  8
0
 10
205.298818
 20
293.539862
 42
0.047423
  0
VERTEX
  8
0
 10
206.568718
 20
292.870217
 42
0.011598
  0
VERTEX
  8
0
 10
208.778032
 20
292.020173
 42
0.011779
  0
VERTEX
  8
0
 10
211.366936
 20
291.160682
 42
0.011507
  0
VERTEX
  8
0
 10
214.013635
 20
290.416859
 42
0.042437
  0
VERTEX
  8
0
 10
220.498793
 20
289.329423
 42
0.040080
  0
VERTEX
  8
0
 10
227.201720
 20
289.321411
 42
0.040655
  0
VERTEX
  8
0
 10
233.721498
 20
290.374821
 42
0.047005
  0
VERTEX
  8
0
 10
239.661286
 20
292.445208
 42
-0.001562
  0
VERTEX
  8
0
 10
241.818155
 20
293.424518
 42
-0.002467
  0
VERTEX
  8
0
 10
243.674785
 20
294.249530
 42
-0.000585
  0
VERTEX
  8
0
 10
245.304242
 20
294.961718
 42
-0.103083
  0
VERTEX
  8
0
 10
245.487957
 20
295.000000
 42
-0.238136
  0
VERTEX
  8
0
 10
245.637610
 20
294.924439
 42
-0.002063
  0
VERTEX
  8
0
 10
246.416971
 20
293.858989
 42
-0.006579
  0
VERTEX
  8
0
 10
247.301587
 20
292.604718
 42
-0.004125
  0
VERTEX
  8
0
 10
248.304730
 20
291.115708
 42
0.000000
  0
VERTEX
  8
0
 10
250.875233
 20
287.231416
 42
0.000000
  0
VERTEX
  8
0
 10
248.687617
 20
285.224767
 42
-0.053282
  0
VERTEX
  8
0
 10
242.327055
 20
280.530304
 42
-0.045125
  0
VERTEX
  8
0
 10
234.760520
 20
276.975878
 42
-0.043801
  0
VERTEX
  8
0
 10
226.439745
 20
274.749658
 42
-0.043498
  0
VERTEX
  8
0
 10
217.838823
 20
274.000000
 42
0.000000
  0
VERTEX
  8
0
 10
210.040648
 20
274.000000
 42
0.000000
  0
VERTEX
  8
0
 10
207.897000
 20
278.201897
 42
-0.020634
  0
VERTEX
  8
0
 10
206.164197
 20
281.975392
 42
-0.008796
  0
VERTEX
  8
0
 10
204.145760
 20
287.154368
 42
-0.005551
  0
VERTEX
  8
0
 10
202.312958
 20
292.287652
 42
-0.083149
  0
VERTEX
  8
0
 10
202.000000
 20
294.156550
 42
-0.171812
  0
VERTEX
  8
0
 10
202.208135
 20
294.744375
 42
-0.275413
  0
VERTEX
  8
0
 10
202.692929
 20
294.922819
 42
-0.085865
  0
VERTEX
  8
0
 10
203.619314
 20
294.578224
 42
-0.013153
  0
SEQEND
  0
POLYLINE
  8
0
 66
1
 70
1
  0
VERTEX
  8
0
 10
255.702393
 20
281.803833
 42
-0.018330
  0
VERTEX
  8
0
 10
256.965004
 20
280.486952
 42
-0.022958
  0
VERTEX
  8
0
 10
258.031328
 20
279.173163
 42
-0.022027
  0
VERTEX
  8
0
 10
258.809049
 20
278.016235
 42
-0.137812
  0
VERTEX
  8
0
 10
259.000000
 20
277.336596
 42
-0.169570
  0
VERTEX
  8
0
 10
258.727796
 20
276.557044
 42
-0.007380
  0
VERTEX
  8
0
 10
256.870313
 20
274.291040
 42
-0.011838
  0
VERTEX
  8
0
 10
254.527870
 20
271.647500
 42
-0.008098
  0
VERTEX
  8
0
 10
251.750000
 20
268.753656
 42
-0.015504
  0
VERTEX
  8
0
 10
247.909202
 20
265.113082
 42
-0.021718
  0
VERTEX
  8
0
 10
244.246297
 20
262.125463
 42
-0.022423
  0
VERTEX
  8
0
 10
240.433074
 20
259.539377
 42
-0.018332
  0
VERTEX
  8
0
 10
236.142518
 20
257.114351
 42
0.000000
  0
VERTEX
  8
0
 10
227.785035
 20
252.786916
 42
0.000000
  0
VERTEX
  8
0
 10
222.820114
 20
257.643458
 42
-0.018209
  0
VERTEX
  8
0
 10
219.324282
 20
261.321394
 42
-0.009884
  0
VERTEX
  8
0
 10
215.287156
 20
266.077272
 42
-0.004133
  0
VERTEX
  8
0
 10
211.426676
 20
270.892356
 42
-0.171469
  0
VERTEX
  8
0
 10
211.004293
 20
272.133977
 42
-0.394545
  0
VERTEX
  8
0
 10
211.146860
 20
272.282982
 42
-0.001917
  0
VERTEX
  8
0
 10
213.429502
 20
272.401906
 42
-0.006922
  0
VERTEX
  8
0
 10
216.092241
 20
272.493473
 42
-0.004160
  0
VERTEX
  8
0
 10
219.254293
 20
272.532087
 42
0.032187
  0
VERTEX
  8
0
 10
226.630071
 20
273.036211
 42
0.041806
  0
VERTEX
  8
0
 10
233.244218
 20
274.488591
 42
0.042608
  0
VERTEX
  8
0
 10
239.424726
 20
276.992229
 42
0.035525
  0
VERTEX
  8
0
 10
245.500000
 20
280.642749
 42
-0.002555
  0
VERTEX
  8
0
 10
247.832283
 20
282.262358
 42
-0.003920
  0
VERTEX
  8
0
 10
249.870390
 20
283.638910
 42
-0.001385
  0
VERTEX
  8
0
 10
251.637782
 20
284.805506
 42
-0.105809
  0
VERTEX
  8
0
 10
251.952393
 20
284.927465
 42
-0.210258
  0
VERTEX
  8
0
 10
252.240592
 20
284.852187
 42
-0.006137
  0
VERTEX
  8
0
 10
253.240567
 20
284.039819
 42
-0.011352
  0
VERTEX
  8
0
 10
254.405888
 20
283.023459
 42
-0.007463
  0
SEQEND
  0
POLYLINE
  8
0
 66
1
 70
1
  0
VERTEX
  8
0
 10
272.722798
 20
269.130399
 42
-0.012784
  0
VERTEX
  8
0
 10
275.272242
 20
267.753353
 42
-0.118527
  0
VERTEX
  8
0
 10
276.176659
 20
266.899311
 42
-0.192417
  0
VERTEX
  8
0
 10
276.374987
 20
265.910265
 42
-0.044598
  0
VERTEX
  8
0
 10
275.911153
 20
264.243553
 42
-0.064297
  0
VERTEX
  8
0
 10
271.494566
 20
255.942917
 42
-0.060521
  0
VERTEX
  8
0
 10
265.035768
 20
248.845029
 42
-0.064216
  0
VERTEX
  8
0
 10
257.508498
 20
243.877233
 42
-0.097268
  0
VERTEX
  8
0
 10
249.951091
 20
241.857318
 42
-0.097655
  0
VERTEX
  8
0
 10
246.747837
 20
242.267789
 42
-0.025032
  0
VERTEX
  8
0
 10
241.859119
 20
244.176288
 42
-0.025703
  0
VERTEX
  8
0
 10
236.662966
 20
246.839598
 42
-0.032218
  0
VERTEX
  8
0
 10
232.163026
 20
249.848957
 42
0.000000
  0
VERTEX
  8
0
 10
229.826053
 20
251.639812
 42
0.000000
  0
VERTEX
  8
0
 10
236.248271
 20
254.801459
 42
0.042119
  0
VERTEX
  8
0
 10
241.917404
 20
258.212480
 42
0.021139
  0
VERTEX
  8
0
 10
248.483128
 20
263.394094
 42
0.020868
  0
VERTEX
  8
0
 10
254.437106
 20
268.964382
 42
0.055902
  0
VERTEX
  8
0
 10
258.016247
 20
273.526287
 42
0.000000
  0
VERTEX
  8
0
 10
260.156117
 20
276.988670
 42
0.000000
  0
VERTEX
  8
0
 10
264.328058
 20
274.131181
 42
0.009778
  0
VERTEX
  8
0
 10
266.231742
 20
272.881263
 42
0.006044
  0
VERTEX
  8
0
 10
268.514939
 20
271.483487
 42
0.006061
  0
VERTEX
  8
0
 10
270.804827
 20
270.156730
 42
0.010836
  0
SEQEND
  0
POLYLINE
  8
0
 66
1
 70
1
  0
VERTEX
  8
0
 10
285.000000
 20
264.042276
 42
-0.012156
  0
VERTEX
  8
0
 10
288.463973
 20
262.755406
 42
-0.107046
  0
VERTEX
  8
0
 10
289.810886
 20
261.847140
 42
-0.145012
  0
VERTEX
  8
0
 10
290.469570
 20
260.570132
 42
-0.028379
  0
VERTEX
  8
0
 10
290.812205
 20
257.978591
 42
-0.044371
  0
VERTEX
  8
0
 10
290.750573
 20
253.568892
 42
-0.028880
  0
VERTEX
  8
0
 10
289.936513
 20
248.537369
 42
-0.026847
  0
VERTEX
  8
0
 10
288.447509
 20
243.195182
 42
-0.024086
  0
VERTEX
  8
0
 10
286.348330
 20
237.841384
 42
0.000000
  0
VERTEX
  8
0
 10
283.758875
 20
232.071311
 42
0.000000
  0
VERTEX
  8
0
 10
279.129438
 20
232.669535
 42
-0.022204
  0
VERTEX
  8
0
 10
273.893241
 20
233.584059
 42
-0.006296
  0
VERTEX
  8
0
 10
265.839480
 20
235.468965
 42
-0.005915
  0
VERTEX
  8
0
 10
257.904292
 20
237.531734
 42
-0.028771
  0
VERTEX
  8
0
 10
253.500000
 20
239.009273
 42
0.000000
  0
VERTEX
  8
0
 10
250.500000
 20
240.211705
 42
0.000000
  0
VERTEX
  8
0
 10
254.500000
 20
241.437781
 42
0.012474
  0
VERTEX
  8
0
 10
256.257837
 20
242.024946
 42
0.008380
  0
VERTEX
  8
0
 10
258.236870
 20
242.779096
 42
0.008443
  0
VERTEX
  8
0
 10
260.129372
 20
243.574164
 42
0.016493
  0
VERTEX
  8
0
 10
261.604238
 20
244.282233
 42
0.069370
  0
VERTEX
  8
0
 10
265.411977
 20
246.995408
 42
0.024487
  0
VERTEX
  8
0
 10
270.059382
 20
251.843955
 42
0.024680
  0
VERTEX
  8
0
 10
274.239863
 20
257.165283
 42
0.063019
  0
VERTEX
  8
0
 10
276.546650
 20
261.482980
 42
-0.011335
  0
VERTEX
  8
0
 10
277.252222
 20
263.211856
 42
-0.017666
  0
VERTEX
  8
0
 10
277.945382
 20
264.663536
 42
-0.012160
  0
VERTEX
  8
0
 10
278.573235
 20
265.798946
 42
-0.280654
  0
VERTEX
  8
0
 10
278.885858
 20
265.967354
 42
-0.060972
  0
VERTEX
  8
0
 10
279.311996
 20
265.892053
 42
-0.002084
  0
VERTEX
  8
0
 10
280.935221
 20
265.388396
 42
-0.003889
  0
VERTEX
  8
0
 10
282.848137
 20
264.769709
 42
-0.002701
  0
SEQEND
  0
POLYLINE
  8
0
 66
1
 70
1
  0
VERTEX
  8
0
 10
305.976957
 20
259.124975
 42
-0.039229
  0
VERTEX
  8
0
 10
307.877681
 20
258.590588
 42
-0.108214
  0
VERTEX
  8
0
 10
309.043802
 20
257.846292
 42
-0.096516
  0
VERTEX
  8
0
 10
309.867508
 20
256.628454
 42
-0.027370
  0
VERTEX
  8
0
 10
310.650106
 20
254.467935
 42
-0.054195
  0
VERTEX
  8
0
 10
311.508396
 20
249.869254
 42
-0.013949
  0
VERTEX
  8
0
 10
311.873896
 20
242.313397
 42
-0.009729
  0
VERTEX
  8
0
 10
311.881349
 20
234.719355
 42
-0.137421
  0
VERTEX
  8
0
 10
311.106577
 20
232.138204
 42
-0.197468
  0
VERTEX
  8
0
 10
310.161867
 20
231.469265
 42
-0.036555
  0
VERTEX
  8
0
 10
308.012314
 20
231.137489
 42
-0.022754
  0
VERTEX
  8
0
 10
304.554171
 20
231.017925
 42
-0.005199
  0
VERTEX
  8
0
 10
298.700588
 20
231.142839
 42
-0.004258
  0
VERTEX
  8
0
 10
294.237011
 20
231.322596
 42
-0.006601
  0
VERTEX
  8
0
 10
290.388453
 20
231.561387
 42
-0.002505
  0
VERTEX
  8
0
 10
287.103339
 20
231.825347
 42
-0.176863
  0
VERTEX
  8
0
 10
286.613545
 20
232.053121
 42
-0.263451
  0
VERTEX
  8
0
 10
286.490062
 20
232.498946
 42
-0.009555
  0
VERTEX
  8
0
 10
286.967455
 20
234.264334
 42
-0.015295
  0
VERTEX
  8
0
 10
287.658492
 20
236.393728
 42
-0.009873
  0
VERTEX
  8
0
 10
288.582052
 20
238.816946
 42
0.023307
  0
VERTEX
  8
0
 10
289.625160
 20
241.791546
 42
0.011550
  0
VERTEX
  8
0
 10
290.682879
 20
245.649841
 42
0.011437
  0
VERTEX
  8
0
 10
291.597380
 20
249.708937
 42
0.016430
  0
VERTEX
  8
0
 10
292.205811
 20
253.343434
 42
0.000000
  0
VERTEX
  8
0
 10
293.317212
 20
261.649950
 42
0.000000
  0
VERTEX
  8
0
 10
297.908606
 20
260.732015
 42
0.000105
  0
VERTEX
  8
0
 10
299.920470
 20
260.330232
 42
0.000075
  0
VERTEX
  8
0
 10
302.172634
 20
259.881299
 42
0.000075
  0
VERTEX
  8
0
 10
304.319704
 20
259.453987
 42
0.000162
  0
SEQEND
  0
POLYLINE
  8
0
 66
1
 70
1
  0
VERTEX
  8
0
 10
326.657265
 20
256.636724
 42
-0.104128
  0
VERTEX
  8
0
 10
327.954391
 20
254.686143
 42
-0.018245
  0
VERTEX
  8
0
 10
329.445037
 20
250.510034
 42
-0.020595
  0
VERTEX
  8
0
 10
330.639781
 20
246.110721
 42
-0.056058
  0
VERTEX
  8
0
 10
331.000000
 20
242.907873
 42
-0.026265
  0
VERTEX
  8
0
 10
330.922778
 20
241.438860
 42
-0.010929
  0
VERTEX
  8
0
 10
330.671377
 20
239.468343
 42
-0.010778
  0
VERTEX
  8
0
 10
330.309682
 20
237.365155
 42
-0.013703
  0
VERTEX
  8
0
 10
329.881285
 20
235.442820
 42
0.000000
  0
VERTEX
  8
0
 10
328.762570
 20
231.000000
 42
0.000000
  0
VERTEX
  8
0
 10
320.874303
 20
231.000000
 42
0.000000
  0
VERTEX
  8
0
 10
312.986036
 20
231.000000
 42
0.000000
  0
VERTEX
  8
0
 10
313.601795
 20
237.750000
 42
0.029245
  0
VERTEX
  8
0
 10
313.759947
 20
242.614831
 42
0.020332
  0
VERTEX
  8
0
 10
313.393793
 20
248.101608
 42
0.020528
  0
VERTEX
  8
0
 10
312.619569
 20
253.282377
 42
0.045387
  0
VERTEX
  8
0
 10
311.515436
 20
257.120582
 42
-0.224724
  0
VERTEX
  8
0
 10
311.572735
 20
257.922992
 42
-0.225926
  0
VERTEX
  8
0
 10
312.229313
 20
258.384839
 42
-0.053515
  0
VERTEX
  8
0
 10
313.972458
 20
258.492517
 42
-0.005221
  0
VERTEX
  8
0
 10
318.192674
 20
258.257306
 42
-0.013351
  0
VERTEX
  8
0
 10
321.075644
 20
257.988941
 42
-0.017413
  0
VERTEX
  8
0
 10
323.693419
 20
257.581669
 42
-0.015113
  0
VERTEX
  8
0
 10
325.822658
 20
257.106894
 42
-0.132474
  0
SEQEND
  0
POLYLINE
  8
0
 66
1
 70
1
  0
VERTEX
  8
0
 10
348.536236
 20
252.750000
 42
-0.043847
  0
VERTEX
  8
0
 10
350.107939
 20
248.418568
 42
-0.045583
  0
VERTEX
  8
0
 10
350.874454
 20
243.935503
 42
-0.045264
  0
VERTEX
  8
0
 10
350.818489
 20
239.358965
 42
-0.042073
  0
VERTEX
  8
0
 10
349.947419
 20
234.750000
 42
0.000000
  0
VERTEX
  8
0
 10
348.905992
 20
231.000000
 42
0.000000
  0
VERTEX
  8
0
 10
339.873541
 20
231.000000
 42
0.000000
  0
VERTEX
  8
0
 10
330.841089
 20
231.000000
 42
0.000000
  0
VERTEX
  8
0
 10
331.491973
 20
233.963455
 42
0.041274
  0
VERTEX
  8
0
 10
332.114687
 20
238.593100
 42
0.031860
  0
VERTEX
  8
0
 10
332.051021
 20
243.688095
 42
0.032484
  0
VERTEX
  8
0
 10
331.356254
 20
248.578010
 42
0.052646
  0
VERTEX
  8
0
 10
330.071429
 20
252.571429
 42
-0.002748
  0
VERTEX
  8
0
 10
329.277596
 20
254.393018
 42
-0.004155
  0
VERTEX
  8
0
 10
328.608482
 20
255.988196
 42
-0.001669
  0
VERTEX
  8
0
 10
328.051592
 20
257.360427
 42
-0.095837
  0
VERTEX
  8
0
 10
328.000000
 20
257.627118
 42
-0.400272
  0
VERTEX
  8
0
 10
328.144334
 20
257.778527
 42
-0.001659
  0
VERTEX
  8
0
 10
330.657264
 20
257.890466
 42
-0.006436
  0
VERTEX
  8
0
 10
333.577362
 20
257.973200
 42
-0.003863
  0
VERTEX
  8
0
 10
337.046005
 20
258.000000
 42
0.000000
  0
VERTEX
  8
0
 10
346.092010
 20
258.000000
 42
0.000000
  0
SEQEND
  0
POLYLINE
  8
0
 66
1
 70
1
  0
VERTEX
  8
0
 10
358.788535
 20
257.364314
 42
0.000000
  0
VERTEX
  8
0
 10
364.870453
 20
256.728628
 42
0.000000
  0
VERTEX
  8
0
 10
366.935227
 20
251.928932
 42
-0.031147
  0
VERTEX
  8
0
 10
367.902719
 20
249.228130
 42
-0.030469
  0
VERTEX
  8
0
 10
368.535635
 20
246.408233
 42
-0.026024
  0
VERTEX
  8
0
 10
368.887407
 20
243.158625
 42
-0.013949
  0
VERTEX
  8
0
 10
369.000000
 20
239.123636
 42
-0.011069
  0
VERTEX
  8
0
 10
368.931140
 20
236.013540
 42
-0.016440
  0
VERTEX
  8
0
 10
368.721167
 20
233.297351
 42
-0.011556
  0
VERTEX
  8
0
 10
368.426380
 20
231.096333
 42
-0.218630
  0
VERTEX
  8
0
 10
368.050780
 20
230.531384
 42
-0.134207
  0
VERTEX
  8
0
 10
367.353322
 20
230.325715
 42
-0.007229
  0
VERTEX
  8
0
 10
365.031008
 20
230.312993
 42
-0.010872
  0
VERTEX
  8
0
 10
362.236675
 20
230.398874
 42
-0.007684
  0
VERTEX
  8
0
 10
359.103653
 20
230.611733
 42
0.000000
  0
VERTEX
  8
0
 10
351.105747
 20
231.278733
 42
0.000000
  0
VERTEX
  8
0
 10
351.802873
 20
234.389367
 42
0.043680
  0
VERTEX
  8
0
 10
352.420781
 20
239.002123
 42
0.032211
  0
VERTEX
  8
0
 10
352.325196
 20
244.156777
 42
0.032636
  0
VERTEX
  8
0
 10
351.580240
 20
249.146923
 42
0.051741
  0
VERTEX
  8
0
 10
350.234941
 20
253.250000
 42
0.000000
  0
VERTEX
  8
0
 10
348.112461
 20
258.000000
 42
0.000000
  0
VERTEX
  8
0
 10
350.409539
 20
258.000000
 42
-0.015444
  0
VERTEX
  8
0
 10
351.673718
 20
257.960942
 42
-0.003487
  0
VERTEX
  8
0
 10
353.818414
 20
257.813267
 42
-0.003610
  0
VERTEX
  8
0
 10
356.291609
 20
257.607663
 42
-0.003495
  0
SEQEND
  0
POLYLINE
  8
0
 66
1
 70
1
  0
VERTEX
  8
0
 10
381.037145
 20
255.341081
 42
-0.192494
  0
VERTEX
  8
0
 10
385.340389
 20
252.539129
 42
-0.075597
  0
VERTEX
  8
0
 10
388.555117
 20
246.089374
 42
-0.068962
  0
VERTEX
  8
0
 10
389.941650
 20
238.190947
 42
-0.093142
  0
VERTEX
  8
0
 10
388.862568
 20
231.035606
 42
0.000000
  0
VERTEX
  8
0
 10
387.725135
 20
227.772765
 42
0.000000
  0
VERTEX
  8
0
 10
381.612568
 20
228.462872
 42
-0.005616
  0
VERTEX
  8
0
 10
373.580403
 20
229.461193
 42
-0.140629
  0
VERTEX
  8
0
 10
371.565922
 20
230.347100
 42
-0.218972
  0
VERTEX
  8
0
 10
370.740608
 20
232.073589
 42
-0.016310
  0
VERTEX
  8
0
 10
370.836082
 20
237.425043
 42
0.015741
  0
VERTEX
  8
0
 10
370.913009
 20
241.478452
 42
0.036562
  0
VERTEX
  8
0
 10
370.653279
 20
244.505474
 42
0.038005
  0
VERTEX
  8
0
 10
369.963397
 20
247.391251
 42
0.018314
  0
VERTEX
  8
0
 10
368.668708
 20
250.968515
 42
0.000000
  0
VERTEX
  8
0
 10
366.134274
 20
257.243141
 42
0.000000
  0
VERTEX
  8
0
 10
372.317137
 20
256.545081
 42
-0.003115
  0
VERTEX
  8
0
 10
374.870336
 20
256.240699
 42
-0.003080
  0
VERTEX
  8
0
 10
377.429070
 20
255.903456
 42
-0.003023
  0
VERTEX
  8
0
 10
379.665163
 20
255.580922
 42
-0.011884
  0
SEQEND
  0
POLYLINE
  8
0
 66
1
 70
1
  0
VERTEX
  8
0
 10
397.000000
 20
251.588811
 42
-0.003279
  0
VERTEX
  8
0
 10
404.312659
 20
249.483981
 42
-0.035557
  0
VERTEX
  8
0
 10
407.187303
 20
248.408843
 42
-0.097070
  0
VERTEX
  8
0
 10
408.669382
 20
247.345130
 42
-0.112322
  0
VERTEX
  8
0
 10
409.547747
 20
245.849564
 42
-0.114602
  0
VERTEX
  8
0
 10
409.776221
 20
242.968026
 42
-0.031704
  0
VERTEX
  8
0
 10
408.812595
 20
238.501144
 42
-0.031900
  0
VERTEX
  8
0
 10
407.120557
 20
233.712274
 42
-0.040462
  0
VERTEX
  8
0
 10
404.937141
 20
229.561934
 42
-0.039468
  0
VERTEX
  8
0
 10
402.683713
 20
226.560916
 42
-0.137602
  0
VERTEX
  8
0
 10
400.668945
 20
225.257124
 42
-0.118009
  0
VERTEX
  8
0
 10
398.086410
 20
225.086612
 42
-0.025471
  0
VERTEX
  8
0
 10
393.684821
 20
226.070578
 42
-0.016205
  0
VERTEX
  8
0
 10
391.338289
 20
226.804857
 42
-0.156212
  0
VERTEX
  8
0
 10
390.513983
 20
227.425787
 42
-0.192032
  0
VERTEX
  8
0
 10
390.292196
 20
228.348715
 42
-0.026745
  0
VERTEX
  8
0
 10
390.684821
 20
230.315001
 42
0.049242
  0
VERTEX
  8
0
 10
391.421898
 20
235.121621
 42
0.039507
  0
VERTEX
  8
0
 10
391.289873
 20
240.356447
 42
0.040355
  0
VERTEX
  8
0
 10
390.354863
 20
245.356838
 42
0.061111
  0
VERTEX
  8
0
 10
388.683979
 20
249.449746
 42
-0.015984
  0
VERTEX
  8
0
 10
387.725950
 20
251.300360
 42
-0.038473
  0
VERTEX
  8
0
 10
387.170128
 20
252.738440
 42
-0.065938
  0
VERTEX
  8
0
 10
387.018013
 20
253.679699
 42
-0.425703
  0
VERTEX
  8
0
 10
387.320396
 20
253.987577
 42
-0.055338
  0
VERTEX
  8
0
 10
388.115851
 20
253.890778
 42
-0.002816
  0
VERTEX
  8
0
 10
390.650366
 20
253.277815
 42
-0.004471
  0
VERTEX
  8
0
 10
393.658007
 20
252.503861
 42
-0.003223
  0
SEQEND
  0
POLYLINE
  8
0
 66
1
 70
1
  0
VERTEX
  8
0
 10
419.565406
 20
242.776874
 42
-0.005746
  0
VERTEX
  8
0
 10
424.384546
 20
240.638649
 42
-0.077890
  0
VERTEX
  8
0
 10
425.984942
 20
239.579668
 42
-0.193699
  0
VERTEX
  8
0
 10
426.547951
 20
238.408523
 42
-0.069428
  0
VERTEX
  8
0
 10
426.410010
 20
236.526874
 42
-0.035381
  0
VERTEX
  8
0
 10
425.530547
 20
233.497484
 42
-0.038192
  0
VERTEX
  8
0
 10
424.249834
 20
230.702185
 42
-0.033710
  0
VERTEX
  8
0
 10
422.414297
 20
227.859600
 42
-0.019118
  0
VERTEX
  8
0
 10
419.840350
 20
224.670054
 42
0.000000
  0
VERTEX
  8
0
 10
416.500000
 20
220.840108
 42
0.000000
  0
VERTEX
  8
0
 10
409.765671
 20
222.537691
 42
0.000000
  0
VERTEX
  8
0
 10
403.031341
 20
224.235274
 42
0.000000
  0
VERTEX
  8
0
 10
405.032041
 20
227.044998
 42
0.032377
  0
VERTEX
  8
0
 10
407.351611
 20
230.794195
 42
0.029144
  0
VERTEX
  8
0
 10
409.259642
 20
234.943141
 42
0.030498
  0
VERTEX
  8
0
 10
410.552924
 20
238.955714
 42
0.061317
  0
VERTEX
  8
0
 10
410.978038
 20
242.250000
 42
-0.013399
  0
VERTEX
  8
0
 10
411.024998
 20
243.687658
 42
-0.022000
  0
VERTEX
  8
0
 10
411.150692
 20
244.898438
 42
-0.017780
  0
VERTEX
  8
0
 10
411.323094
 20
245.830028
 42
-0.351558
  0
VERTEX
  8
0
 10
411.534957
 20
246.000000
 42
-0.094343
  0
VERTEX
  8
0
 10
411.922072
 20
245.926301
 42
-0.001356
  0
VERTEX
  8
0
 10
414.114571
 20
245.053207
 42
-0.003689
  0
VERTEX
  8
0
 10
416.654060
 20
244.012132
 42
-0.002418
  0
SEQEND
  0
POLYLINE
  8
0
 66
1
 70
1
  0
VERTEX
  8
0
 10
436.219155
 20
234.466867
 42
-0.006007
  0
VERTEX
  8
0
 10
440.553311
 20
232.098237
 42
-0.088237
  0
VERTEX
  8
0
 10
441.890894
 20
230.998352
 42
-0.206610
  0
VERTEX
  8
0
 10
442.251478
 20
229.828967
 42
-0.056822
  0
VERTEX
  8
0
 10
441.818034
 20
227.907857
 42
-0.054477
  0
VERTEX
  8
0
 10
441.107062
 20
226.414263
 42
-0.016349
  0
VERTEX
  8
0
 10
439.712529
 20
224.312528
 42
-0.016178
  0
VERTEX
  8
0
 10
437.982047
 20
222.040276
 42
-0.016879
  0
VERTEX
  8
0
 10
436.131604
 20
219.917544
 42
0.000000
  0
VERTEX
  8
0
 10
431.500000
 20
214.953108
 42
0.000000
  0
VERTEX
  8
0
 10
425.000000
 20
217.596177
 42
-0.002763
  0
VERTEX
  8
0
 10
422.477369
 20
218.638227
 42
-0.004101
  0
VERTEX
  8
0
 10
420.280223
 20
219.581337
 42
-0.001865
  0
VERTEX
  8
0
 10
418.419217
 20
220.406595
 42
-0.080487
  0
VERTEX
  8
0
 10
418.060332
 20
220.642624
 42
-0.363707
  0
VERTEX
  8
0
 10
418.027150
 20
220.894961
 42
-0.042496
  0
VERTEX
  8
0
 10
418.398984
 20
221.382204
 42
-0.035361
  0
VERTEX
  8
0
 10
419.014770
 20
221.971366
 42
-0.020403
  0
VERTEX
  8
0
 10
419.830595
 20
222.593897
 42
0.085849
  0
VERTEX
  8
0
 10
422.017665
 20
224.767419
 42
0.019658
  0
VERTEX
  8
0
 10
424.875282
 20
229.148960
 42
0.018085
  0
VERTEX
  8
0
 10
427.379360
 20
233.706172
 42
0.115741
  0
VERTEX
  8
0
 10
427.990616
 20
236.250000
 42
-0.153828
  0
VERTEX
  8
0
 10
428.369494
 20
237.430245
 42
-0.300677
  0
VERTEX
  8
0
 10
429.251765
 20
237.773210
 42
-0.064262
  0
VERTEX
  8
0
 10
431.163747
 20
237.093107
 42
-0.004511
  0
SEQEND
  0
POLYLINE
  8
0
 66
1
 70
1
  0
VERTEX
  8
0
 10
194.711747
 20
214.432107
 42
-0.001123
  0
VERTEX
  8
0
 10
196.987531
 20
212.905432
 42
-0.001521
  0
VERTEX
  8
0
 10
199.036130
 20
211.515396
 42
-0.001015
  0
VERTEX
  8
0
 10
200.749888
 20
210.339819
 42
-0.016910
  0
VERTEX
  8
0
 10
201.304865
 20
209.929118
 42
-0.186238
  0
VERTEX
  8
0
 10
202.159633
 20
208.475700
 42
-0.007689
  0
VERTEX
  8
0
 10
203.066934
 20
202.389911
 42
-0.010802
  0
VERTEX
  8
0
 10
203.732386
 20
196.420332
 42
-0.099513
  0
VERTEX
  8
0
 10
203.450591
 20
193.844326
 42
-0.116490
  0
VERTEX
  8
0
 10
202.672197
 20
192.543602
 42
-0.209588
  0
VERTEX
  8
0
 10
201.541155
 20
192.083430
 42
-0.148585
  0
VERTEX
  8
0
 10
200.119874
 20
192.557272
 42
-0.054659
  0
VERTEX
  8
0
 10
198.521341
 20
193.976419
 42
0.067717
  0
VERTEX
  8
0
 10
197.098233
 20
195.175097
 42
0.237096
  0
VERTEX
  8
0
 10
195.939617
 20
195.290389
 42
0.143463
  0
VERTEX
  8
0
 10
194.750779
 20
194.384010
 42
0.022013
  0
VERTEX
  8
0
 10
193.077774
 20
191.887491
 42
0.000000
  0
VERTEX
  8
0
 10
191.317652
 20
188.993203
 42
0.000000
  0
VERTEX
  8
0
 10
187.908826
 20
194.027240
 42
0.036291
  0
VERTEX
  8
0
 10
184.866179
 20
197.885305
 42
0.126459
  0
VERTEX
  8
0
 10
182.231584
 20
199.607210
 42
0.198583
  0
VERTEX
  8
0
 10
179.812516
 20
199.450324
 42
0.110656
  0
VERTEX
  8
0
 10
177.474088
 20
197.569963
 42
0.000000
  0
VERTEX
  8
0
 10
175.294294
 20
194.836241
 42
0.000000
  0
VERTEX
  8
0
 10
174.647147
 20
199.557692
 42
-0.028232
  0
VERTEX
  8
0
 10
174.148343
 20
205.797602
 42
-0.005733
  0
VERTEX
  8
0
 10
174.016726
 20
216.899589
 42
-0.001651
  0
VERTEX
  8
0
 10
174.051701
 20
228.905519
 42
-0.197297
  0
VERTEX
  8
0
 10
174.635162
 20
230.301828
 42
-0.365627
  0
VERTEX
  8
0
 10
175.118095
 20
230.342657
 42
-0.008593
  0
VERTEX
  8
0
 10
177.089054
 20
228.893802
 42
-0.014910
  0
VERTEX
  8
0
 10
179.433853
 20
226.994159
 42
-0.009049
  0
VERTEX
  8
0
 10
182.096908
 20
224.616618
 42
0.009826
  0
VERTEX
  8
0
 10
185.133407
 20
221.914140
 42
0.007102
  0
VERTEX
  8
0
 10
188.618484
 20
219.017765
 42
0.007177
  0
VERTEX
  8
0
 10
192.010102
 20
216.359064
 42
0.015466
  0
SEQEND
  0
POLYLINE
  8
0
 66
1
 70
1
  0
VERTEX
  8
0
 10
452.213863
 20
224.715993
 42
-0.006725
  0
VERTEX
  8
0
 10
455.849738
 20
222.126259
 42
-0.089037
  0
VERTEX
  8
0
 10
456.981017
 20
220.937971
 42
-0.206647
  0
VERTEX
  8
0
 10
457.181840
 20
219.806524
 42
-0.062061
  0
VERTEX
  8
0
 10
456.558877
 20
218.130458
 42
-0.048802
  0
VERTEX
  8
0
 10
455.002682
 20
215.741403
 42
-0.037118
  0
VERTEX
  8
0
 10
452.873959
 20
213.452145
 42
-0.035471
  0
VERTEX
  8
0
 10
450.314253
 20
211.396547
 42
-0.034609
  0
VERTEX
  8
0
 10
447.469257
 20
209.704675
 42
-0.042973
  0
VERTEX
  8
0
 10
445.515248
 20
208.921008
 42
-0.122588
  0
VERTEX
  8
0
 10
444.062593
 20
208.846036
 42
-0.072295
  0
VERTEX
  8
0
 10
442.325331
 20
209.454189
 42
-0.008641
  0
VERTEX
  8
0
 10
438.740126
 20
211.405132
 42
0.000000
  0
VERTEX
  8
0
 10
433.041738
 20
214.634861
 42
0.000000
  0
VERTEX
  8
0
 10
437.051075
 20
218.549873
 42
0.022844
  0
VERTEX
  8
0
 10
438.706436
 20
220.321017
 42
0.017208
  0
VERTEX
  8
0
 10
440.364850
 20
222.407740
 42
0.017490
  0
VERTEX
  8
0
 10
441.790200
 20
224.481627
 42
0.037932
  0
VERTEX
  8
0
 10
442.701880
 20
226.185359
 42
-0.027940
  0
VERTEX
  8
0
 10
443.416249
 20
227.586908
 42
-0.048143
  0
VERTEX
  8
0
 10
444.180218
 20
228.649247
 42
-0.065608
  0
VERTEX
  8
0
 10
444.887835
 20
229.270002
 42
-0.284594
  0
VERTEX
  8
0
 10
445.421675
 20
229.288452
 42
-0.016771
  0
VERTEX
  8
0
 10
446.106681
 20
228.865146
 42
-0.001362
  0
VERTEX
  8
0
 10
447.861689
 20
227.690622
 42
-0.001832
  0
VERTEX
  8
0
 10
449.946814
 20
226.275800
 42
-0.001407
  0
SEQEND
  0
POLYLINE
  8
0
 66
1
 70
1
  0
VERTEX
  8
0
 10
466.632245
 20
213.421454
 42
-0.023373
  0
VERTEX
  8
0
 10
471.276473
 20
208.942937
 42
-0.233664
  0
VERTEX
  8
0
 10
472.045542
 20
206.436634
 42
-0.220601
  0
VERTEX
  8
0
 10
470.537921
 20
204.212034
 42
-0.020872
  0
VERTEX
  8
0
 10
464.606773
 20
200.977949
 42
0.000000
  0
VERTEX
  8
0
 10
458.218021
 20
197.832777
 42
0.000000
  0
VERTEX
  8
0
 10
452.099893
 20
202.583932
 42
0.000000
  0
VERTEX
  8
0
 10
445.981764
 20
207.335088
 42
0.000000
  0
VERTEX
  8
0
 10
449.058072
 20
208.824988
 42
0.046510
  0
VERTEX
  8
0
 10
450.494187
 20
209.693613
 42
0.018058
  0
VERTEX
  8
0
 10
452.312540
 20
211.143223
 42
0.017693
  0
VERTEX
  8
0
 10
454.181550
 20
212.865389
 42
0.020945
  0
VERTEX
  8
0
 10
455.817190
 20
214.624650
 42
-0.004524
  0
VERTEX
  8
0
 10
457.256854
 20
216.278854
 42
-0.007008
  0
VERTEX
  8
0
 10
458.532472
 20
217.678052
 42
-0.002743
  0
VERTEX
  8
0
 10
459.643507
 20
218.849983
 42
-0.182614
  0
VERTEX
  8
0
 10
459.889098
 20
218.967206
 42
-0.194118
  0
VERTEX
  8
0
 10
460.155828
 20
218.884877
 42
-0.001354
  0
VERTEX
  8
0
 10
462.030400
 20
217.351669
 42
-0.004945
  0
VERTEX
  8
0
 10
464.168445
 20
215.557539
 42
-0.003112
  0
SEQEND
  0
POLYLINE
  8
0
 66
1
 70
1
  0
VERTEX
  8
0
 10
476.675665
 20
202.750000
 42
-0.026033
  0
VERTEX
  8
0
 10
479.447596
 20
199.326318
 42
-0.018336
  0
VERTEX
  8
0
 10
482.211833
 20
195.214484
 42
-0.010132
  0
VERTEX
  8
0
 10
484.564926
 20
191.243479
 42
-0.273598
  0
VERTEX
  8
0
 10
484.542061
 20
190.068056
 42
-0.181384
  0
VERTEX
  8
0
 10
482.657784
 20
188.610620
 42
-0.011635
  0
VERTEX
  8
0
 10
475.851631
 20
186.681320
 42
-0.009343
  0
VERTEX
  8
0
 10
468.943683
 20
185.032779
 42
-0.478860
  0
VERTEX
  8
0
 10
468.000000
 20
185.792176
 42
0.159002
  0
VERTEX
  8
0
 10
467.846040
 20
186.264080
 42
0.005526
  0
VERTEX
  8
0
 10
466.675310
 20
187.830657
 42
0.009818
  0
VERTEX
  8
0
 10
465.218385
 20
189.660321
 42
0.006650
  0
VERTEX
  8
0
 10
463.490417
 20
191.689482
 42
0.000000
  0
VERTEX
  8
0
 10
458.980835
 20
196.844612
 42
0.000000
  0
VERTEX
  8
0
 10
464.240417
 20
199.308387
 42
0.008920
  0
VERTEX
  8
0
 10
466.400724
 20
200.367749
 42
0.008672
  0
VERTEX
  8
0
 10
468.542498
 20
201.513175
 42
0.008608
  0
VERTEX
  8
0
 10
470.389645
 20
202.584708
 42
0.031608
  0
VERTEX
  8
0
 10
471.500000
 20
203.354278
 42
-0.022626
  0
VERTEX
  8
0
 10
473.223377
 20
204.595100
 42
-0.175520
  0
VERTEX
  8
0
 10
474.173350
 20
204.818806
 42
-0.163041
  0
VERTEX
  8
0
 10
475.083227
 20
204.391046
 42
-0.018865
  0
SEQEND
  0
POLYLINE
  8
0
 66
1
 70
1
  0
VERTEX
  8
0
 10
356.000000
 20
195.557160
 42
-0.117623
  0
VERTEX
  8
0
 10
355.929221
 20
195.260449
 42
-0.003935
  0
VERTEX
  8
0
 10
355.371490
 20
194.179160
 42
-0.007266
  0
VERTEX
  8
0
 10
354.680204
 20
192.909573
 42
-0.004976
  0
VERTEX
  8
0
 10
353.860393
 20
191.487956
 42
0.045409
  0
VERTEX
  8
0
 10
352.906709
 20
189.474185
 42
0.024588
  0
VERTEX
  8
0
 10
352.089733
 20
186.855128
 42
0.021984
  0
VERTEX
  8
0
 10
351.438233
 20
183.787123
 42
0.016923
  0
VERTEX
  8
0
 10
350.989552
 20
180.393288
 42
-0.007311
  0
VERTEX
  8
0
 10
350.661713
 20
177.484220
 42
-0.010579
  0
VERTEX
  8
0
 10
350.280303
 20
174.925983
 42
-0.006535
  0
VERTEX
  8
0
 10
349.890088
 20
172.808390
 42
-0.148605
  0
VERTEX
  8
0
 10
349.601925
 20
172.268592
 42
-0.156785
  0
VERTEX
  8
0
 10
349.127372
 20
172.024926
 42
-0.018833
  0
VERTEX
  8
0
 10
347.944272
 20
171.875470
 42
-0.020945
  0
VERTEX
  8
0
 10
346.485288
 20
171.808143
 42
-0.015793
  0
VERTEX
  8
0
 10
344.880593
 20
171.852048
 42
0.027439
  0
VERTEX
  8
0
 10
343.222369
 20
171.858798
 42
0.028838
  0
VERTEX
  8
0
 10
341.601050
 20
171.682266
 42
0.030086
  0
VERTEX
  8
0
 10
340.230389
 20
171.366722
 42
0.101926
  0
VERTEX
  8
0
 10
339.424401
 20
170.937258
 42
-0.087859
  0
VERTEX
  8
0
 10
338.674717
 20
170.510547
 42
-0.238506
  0
VERTEX
  8
0
 10
338.085383
 20
170.585244
 42
-0.129020
  0
VERTEX
  8
0
 10
337.546521
 20
171.199841
 42
-0.021693
  0
VERTEX
  8
0
 10
336.903089
 20
172.641310
 42
-0.058737
  0
VERTEX
  8
0
 10
335.927057
 20
176.323424
 42
-0.016692
  0
VERTEX
  8
0
 10
335.285402
 20
182.219840
 42
-0.017166
  0
VERTEX
  8
0
 10
335.041118
 20
188.220991
 42
-0.047987
  0
VERTEX
  8
0
 10
335.417317
 20
192.410953
 42
0.000000
  0
VERTEX
  8
0
 10
336.090626
 20
196.000000
 42
0.000000
  0
VERTEX
  8
0
 10
346.045313
 20
196.000000
 42
-0.004169
  0
VERTEX
  8
0
 10
349.862376
 20
195.968170
 42
-0.006945
  0
VERTEX
  8
0
 10
353.075811
 20
195.869916
 42
-0.001929
  0
VERTEX
  8
0
 10
355.829529
 20
195.736766
 42
-0.399013
  0
SEQEND
  0
POLYLINE
  8
0
 66
1
 70
1
  0
VERTEX
  8
0
 10
287.286321
 20
188.220973
 42
0.026825
  0
VERTEX
  8
0
 10
287.179939
 20
185.330857
 42
0.015862
  0
VERTEX
  8
0
 10
287.347553
 20
181.882354
 42
0.015137
  0
VERTEX
  8
0
 10
287.755548
 20
178.207154
 42
0.015775
  0
VERTEX
  8
0
 10
288.381148
 20
174.614009
 42
-0.002102
  0
VERTEX
  8
0
 10
289.001362
 20
171.550068
 42
-0.002995
  0
VERTEX
  8
0
 10
289.524462
 20
168.823199
 42
-0.001666
  0
VERTEX
  8
0
 10
289.944734
 20
166.516327
 42
-0.044247
  0
VERTEX
  8
0
 10
290.000000
 20
165.893036
 42
-0.354307
  0
VERTEX
  8
0
 10
289.432357
 20
165.192534
 42
-0.117500
  0
VERTEX
  8
0
 10
288.013320
 20
165.228242
 42
-0.043980
  0
VERTEX
  8
0
 10
285.437499
 20
166.159709
 42
-0.009741
  0
VERTEX
  8
0
 10
281.218524
 20
168.220503
 42
0.009514
  0
VERTEX
  8
0
 10
277.755707
 20
169.913888
 42
0.048891
  0
VERTEX
  8
0
 10
275.741933
 20
170.621915
 42
0.093334
  0
VERTEX
  8
0
 10
274.299914
 20
170.700234
 42
0.107000
  0
VERTEX
  8
0
 10
273.003472
 20
170.234241
 42
-0.055029
  0
VERTEX
  8
0
 10
271.888216
 20
169.697849
 42
-0.271389
  0
VERTEX
  8
0
 10
271.230370
 20
169.825498
 42
-0.138556
  0
VERTEX
  8
0
 10
270.737291
 20
170.588428
 42
-0.012971
  0
VERTEX
  8
0
 10
270.129577
 20
172.763352
 42
-0.012270
  0
VERTEX
  8
0
 10
269.010645
 20
177.720748
 42
-0.024409
  0
VERTEX
  8
0
 10
268.414656
 20
181.700727
 42
-0.029524
  0
VERTEX
  8
0
 10
268.273243
 20
185.164471
 42
-0.032668
  0
VERTEX
  8
0
 10
268.552875
 20
188.504030
 42
0.000000
  0
VERTEX
  8
0
 10
269.214116
 20
192.913501
 42
0.000000
  0
VERTEX
  8
0
 10
275.857058
 20
193.260890
 42
0.000762
  0
VERTEX
  8
0
 10
278.595049
 20
193.408259
 42
0.000766
  0
VERTEX
  8
0
 10
281.328593
 20
193.563768
 42
0.000747
  0
VERTEX
  8
0
 10
283.712022
 20
193.706594
 42
0.003071
  0
VERTEX
  8
0
 10
285.155172
 20
193.804140
 42
-0.050835
  0
VERTEX
  8
0
 10
286.754578
 20
193.759423
 42
-0.275849
  0
VERTEX
  8
0
 10
287.408070
 20
193.243978
 42
-0.108293
  0
VERTEX
  8
0
 10
287.587752
 20
192.046146
 42
-0.005895
  0
SEQEND
  0
POLYLINE
  8
0
 66
1
 70
1
  0
VERTEX
  8
0
 10
488.800734
 20
183.473249
 42
-0.015053
  0
VERTEX
  8
0
 10
490.702757
 20
179.238570
 42
-0.196414
  0
VERTEX
  8
0
 10
490.709783
 20
177.548728
 42
-0.261895
  0
VERTEX
  8
0
 10
489.541049
 20
176.613668
 42
-0.026478
  0
VERTEX
  8
0
 10
485.868093
 20
176.209681
 42
0.022025
  0
VERTEX
  8
0
 10
483.697683
 20
175.990491
 42
0.018253
  0
VERTEX
  8
0
 10
481.412918
 20
175.571913
 42
0.018638
  0
VERTEX
  8
0
 10
479.344785
 20
175.032872
 42
0.046286
  0
VERTEX
  8
0
 10
477.896031
 20
174.446236
 42
0.000000
  0
VERTEX
  8
0
 10
475.047318
 20
172.973109
 42
0.000000
  0
VERTEX
  8
0
 10
472.523659
 20
177.953311
 42
-0.003046
  0
VERTEX
  8
0
 10
471.556504
 20
179.891084
 42
-0.004618
  0
VERTEX
  8
0
 10
470.741325
 20
181.589000
 42
-0.001847
  0
VERTEX
  8
0
 10
470.062525
 20
183.051008
 42
-0.108165
  0
VERTEX
  8
0
 10
470.000000
 20
183.336651
 42
-0.334315
  0
VERTEX
  8
0
 10
470.143679
 20
183.527519
 42
-0.004257
  0
VERTEX
  8
0
 10
471.689062
 20
183.958124
 42
-0.010293
  0
VERTEX
  8
0
 10
473.545529
 20
184.417646
 42
-0.006317
  0
VERTEX
  8
0
 10
475.750000
 20
184.886196
 42
0.010174
  0
VERTEX
  8
0
 10
478.061384
 20
185.396136
 42
0.011583
  0
VERTEX
  8
0
 10
480.251563
 20
185.980309
 42
0.010815
  0
VERTEX
  8
0
 10
482.082775
 20
186.557722
 42
0.061626
  0
VERTEX
  8
0
 10
483.000000
 20
187.000988
 42
-0.074480
  0
VERTEX
  8
0
 10
484.737401
 20
187.786435
 42
-0.208518
  0
VERTEX
  8
0
 10
486.032894
 20
187.610145
 42
-0.123354
  0
VERTEX
  8
0
 10
487.230504
 20
186.396955
 42
-0.020306
  0
SEQEND
  0
POLYLINE
  8
0
 66
1
 70
1
  0
VERTEX
  8
0
 10
404.789838
 20
185.049496
 42
-0.007765
  0
VERTEX
  8
0
 10
406.426366
 20
184.156433
 42
-0.005120
  0
VERTEX
  8
0
 10
408.281155
 20
183.081331
 42
-0.005152
  0
VERTEX
  8
0
 10
410.064004
 20
181.998395
 42
-0.009926
  0
VERTEX
  8
0
 10
411.465156
 20
181.088367
 42
0.000000
  0
VERTEX
  8
0
 10
414.430312
 20
179.077743
 42
0.000000
  0
VERTEX
  8
0
 10
410.965156
 20
177.581638
 42
0.026087
  0
VERTEX
  8
0
 10
407.164087
 20
175.699624
 42
0.038526
  0
VERTEX
  8
0
 10
404.070578
 20
173.633194
 42
0.039240
  0
VERTEX
  8
0
 10
401.371829
 20
171.147282
 42
0.028480
  0
VERTEX
  8
0
 10
398.767558
 20
167.998566
 42
0.000000
  0
VERTEX
  8
0
 10
395.583399
 20
163.668783
 42
0.000000
  0
VERTEX
  8
0
 10
394.698730
 20
167.082833
 42
0.036597
  0
VERTEX
  8
0
 10
393.817272
 20
169.684125
 42
0.139982
  0
VERTEX
  8
0
 10
392.754510
 20
171.003662
 42
0.178463
  0
VERTEX
  8
0
 10
391.319784
 20
171.387490
 42
0.067984
  0
VERTEX
  8
0
 10
389.271763
 20
170.913224
 42
0.000000
  0
VERTEX
  8
0
 10
386.876578
 20
170.002577
 42
0.000000
  0
VERTEX
  8
0
 10
389.626365
 20
175.054842
 42
-0.040353
  0
VERTEX
  8
0
 10
391.932770
 20
178.582123
 42
-0.020170
  0
VERTEX
  8
0
 10
395.370095
 20
182.662293
 42
-0.013470
  0
VERTEX
  8
0
 10
398.909974
 20
186.332198
 42
-0.196599
  0
VERTEX
  8
0
 10
400.542719
 20
187.000000
 42
-0.103130
  0
VERTEX
  8
0
 10
400.896181
 20
186.926311
 42
-0.004864
  0
VERTEX
  8
0
 10
402.011805
 20
186.427039
 42
-0.007834
  0
VERTEX
  8
0
 10
403.329417
 20
185.796739
 42
-0.005538
  0
SEQEND
  0
POLYLINE
  8
0
 66
1
 70
1
  0
VERTEX
  8
0
 10
494.320622
 20
167.153955
 42
-0.004684
  0
VERTEX
  8
0
 10
494.995439
 20
164.317588
 42
-0.007503
  0
VERTEX
  8
0
 10
495.512253
 20
161.883292
 42
-0.002514
  0
VERTEX
  8
0
 10
495.912574
 20
159.792340
 42
-0.264803
  0
VERTEX
  8
0
 10
495.820622
 20
159.526994
 42
-0.158280
  0
VERTEX
  8
0
 10
495.535644
 20
159.404644
 42
-0.001404
  0
VERTEX
  8
0
 10
493.170745
 20
159.194157
 42
-0.004664
  0
VERTEX
  8
0
 10
490.435438
 20
158.984124
 42
-0.002972
  0
VERTEX
  8
0
 10
487.250000
 20
158.788411
 42
-0.005664
  0
VERTEX
  8
0
 10
482.659592
 20
158.585891
 42
-0.042023
  0
VERTEX
  8
0
 10
480.476952
 20
158.697818
 42
-0.119424
  0
VERTEX
  8
0
 10
479.390385
 20
159.122955
 42
-0.239297
  0
VERTEX
  8
0
 10
478.967354
 20
159.915373
 42
0.052293
  0
VERTEX
  8
0
 10
478.852586
 20
160.828067
 42
0.008472
  0
VERTEX
  8
0
 10
478.415528
 20
162.564885
 42
0.009268
  0
VERTEX
  8
0
 10
477.826198
 20
164.598979
 42
0.008034
  0
VERTEX
  8
0
 10
477.134640
 20
166.709769
 42
0.000000
  0
VERTEX
  8
0
 10
475.334572
 20
171.919537
 42
0.000000
  0
VERTEX
  8
0
 10
478.917286
 20
173.431595
 42
-0.041865
  0
VERTEX
  8
0
 10
480.646499
 20
173.996363
 42
-0.020700
  0
VERTEX
  8
0
 10
482.916328
 20
174.434324
 42
-0.020384
  0
VERTEX
  8
0
 10
485.323524
 20
174.696412
 42
-0.028013
  0
VERTEX
  8
0
 10
487.500000
 20
174.721826
 42
0.000000
  0
VERTEX
  8
0
 10
492.500000
 20
174.500000
 42
0.000000
  0
SEQEND
  0
POLYLINE
  8
0
 66
1
 70
1
  0
VERTEX
  8
0
 10
116.000000
 20
164.899228
 42
0.038589
  0
VERTEX
  8
0
 10
130.042157
 20
160.746185
 42
0.027087
  0
VERTEX
  8
0
 10
146.334067
 20
158.179506
 42
0.024384
  0
VERTEX
  8
0
 10
164.648676
 20
157.201679
 42
0.018369
  0
VERTEX
  8
0
 10
184.803728
 20
157.849936
 42
-0.015441
  0
VERTEX
  8
0
 10
198.090104
 20
158.355134
 42
-0.019403
  0
VERTEX
  8
0
 10
210.402606
 20
157.964993
 42
-0.020736
  0
VERTEX
  8
0
 10
221.898727
 20
156.672684
 42
-0.023760
  0
VERTEX
  8
0
 10
232.730483
 20
154.466607
 42
-0.026991
  0
VERTEX
  8
0
 10
240.835045
 20
151.938251
 42
-0.017017
  0
VERTEX
  8
0
 10
250.004110
 20
148.164989
 42
-0.016539
  0
VERTEX
  8
0
 10
258.368012
 20
144.047070
 42
-0.053037
  0
VERTEX
  8
0
 10
263.500000
 20
140.561991
 42
-0.007223
  0
VERTEX
  8
0
 10
265.366048
 20
138.935301
 42
-0.731103
  0
VERTEX
  8
0
 10
265.269968
 20
138.721998
 42
-0.074810
  0
VERTEX
  8
0
 10
264.453585
 20
138.942989
 42
-0.001074
  0
VERTEX
  8
0
 10
259.826365
 20
140.986396
 42
0.036221
  0
VERTEX
  8
0
 10
246.233210
 20
145.880440
 42
0.038845
  0
VERTEX
  8
0
 10
232.389273
 20
148.622332
 42
0.029953
  0
VERTEX
  8
0
 10
215.530471
 20
149.601042
 42
0.011422
  0
VERTEX
  8
0
 10
192.000000
 20
149.018729
 42
-0.012039
  0
VERTEX
  8
0
 10
167.380891
 20
148.439898
 42
-0.030778
  0
VERTEX
  8
0
 10
149.583532
 20
149.546673
 42
-0.041248
  0
VERTEX
  8
0
 10
135.515752
 20
152.487706
 42
-0.048860
  0
VERTEX
  8
0
 10
122.938649
 20
157.601579
 42
-0.020502
  0
VERTEX
  8
0
 10
118.493419
 20
160.175308
 42
-0.015078
  0
VERTEX
  8
0
 10
113.781704
 20
163.371011
 42
-0.010390
  0
VERTEX
  8
0
 10
109.819884
 20
166.363526
 42
-0.681865
  0
VERTEX
  8
0
 10
110.000000
 20
166.958855
 42
-0.100702
  0
VERTEX
  8
0
 10
110.355633
 20
166.915747
 42
-0.002329
  0
VERTEX
  8
0
 10
111.968750
 20
166.370396
 42
-0.005090
  0
VERTEX
  8
0
 10
113.856162
 20
165.700947
 42
-0.003417
  0
SEQEND
  0
POLYLINE
  8
0
 66
1
 70
1
  0
VERTEX
  8
0
 10
495.428571
 20
156.428571
 42
-0.098965
  0
VERTEX
  8
0
 10
496.131756
 20
155.374043
 42
-0.046105
  0
VERTEX
  8
0
 10
496.617470
 20
153.796491
 42
-0.035002
  0
VERTEX
  8
0
 10
496.908385
 20
151.679433
 42
-0.016647
  0
VERTEX
  8
0
 10
497.000000
 20
148.928571
 42
0.000000
  0
VERTEX
  8
0
 10
497.000000
 20
143.000000
 42
0.000000
  0
VERTEX
  8
0
 10
489.129166
 20
143.000000
 42
0.000000
  0
VERTEX
  8
0
 10
481.258333
 20
143.000000
 42
0.000000
  0
VERTEX
  8
0
 10
480.564229
 20
149.135063
 42
-0.013528
  0
VERTEX
  8
0
 10
480.357679
 20
151.542006
 42
-0.019008
  0
VERTEX
  8
0
 10
480.313406
 20
153.697153
 42
-0.015545
  0
VERTEX
  8
0
 10
480.398438
 20
155.446875
 42
-0.183904
  0
VERTEX
  8
0
 10
480.685063
 20
156.050387
 42
-0.151065
  0
VERTEX
  8
0
 10
483.250074
 20
157.333382
 42
-0.034587
  0
VERTEX
  8
0
 10
488.133229
 20
157.797653
 42
-0.033928
  0
VERTEX
  8
0
 10
493.005957
 20
157.591980
 42
-0.170469
  0
SEQEND
  0
POLYLINE
  8
0
 66
1
 70
1
  0
VERTEX
  8
0
 10
140.198651
 20
148.056778
 42
0.019457
  0
VERTEX
  8
0
 10
149.848554
 20
146.205535
 42
0.022601
  0
VERTEX
  8
0
 10
159.142857
 20
145.221947
 42
0.012143
  0
VERTEX
  8
0
 10
172.238546
 20
144.750877
 42
0.001830
  0
VERTEX
  8
0
 10
198.500000
 20
144.540452
 42
-0.001413
  0
VERTEX
  8
0
 10
219.172960
 20
144.392025
 42
-0.007746
  0
VERTEX
  8
0
 10
230.334782
 20
144.107365
 42
-0.013385
  0
VERTEX
  8
0
 10
237.315356
 20
143.633657
 42
-0.053760
  0
VERTEX
  8
0
 10
241.500000
 20
142.776928
 42
0.000000
  0
VERTEX
  8
0
 10
246.500000
 20
141.178835
 42
0.000000
  0
VERTEX
  8
0
 10
230.473766
 20
141.089417
 42
0.014619
  0
VERTEX
  8
0
 10
211.456643
 20
140.427052
 42
0.027871
  0
VERTEX
  8
0
 10
196.273861
 20
138.599721
 42
0.024963
  0
VERTEX
  8
0
 10
180.338946
 20
134.945527
 42
0.009478
  0
VERTEX
  8
0
 10
158.500000
 20
128.326254
 42
-0.002040
  0
VERTEX
  8
0
 10
149.022476
 20
125.299013
 42
-0.002068
  0
VERTEX
  8
0
 10
139.564902
 20
122.363553
 42
-0.002011
  0
VERTEX
  8
0
 10
131.315917
 20
119.876817
 42
-0.008482
  0
VERTEX
  8
0
 10
126.337965
 20
118.489419
 42
-0.017079
  0
VERTEX
  8
0
 10
117.002362
 20
116.395009
 42
-0.011549
  0
VERTEX
  8
0
 10
106.238333
 20
114.619901
 42
-0.011627
  0
VERTEX
  8
0
 10
95.828327
 20
113.395398
 42
-0.024613
  0
VERTEX
  8
0
 10
87.715618
 20
113.033175
 42
0.000000
  0
VERTEX
  8
0
 10
80.500000
 20
113.066350
 42
0.000000
  0
VERTEX
  8
0
 10
89.000000
 20
116.302702
 42
0.016366
  0
VERTEX
  8
0
 10
96.642855
 20
119.502828
 42
0.016136
  0
VERTEX
  8
0
 10
104.096879
 20
123.210112
 42
0.017013
  0
VERTEX
  8
0
 10
110.736432
 20
127.080920
 42
0.030508
  0
VERTEX
  8
0
 10
115.860455
 20
130.761022
 42
0.060256
  0
VERTEX
  8
0
 10
121.542811
 20
136.661238
 42
0.127469
  0
VERTEX
  8
0
 10
123.955253
 20
142.486135
 42
0.141613
  0
VERTEX
  8
0
 10
123.117868
 20
148.332172
 42
0.081969
  0
VERTEX
  8
0
 10
119.153983
 20
154.288348
 42
0.000000
  0
VERTEX
  8
0
 10
116.552338
 20
157.076696
 42
0.000000
  0
VERTEX
  8
0
 10
124.224820
 20
153.531791
 42
0.016161
  0
VERTEX
  8
0
 10
127.762955
 20
152.033839
 42
0.009493
  0
VERTEX
  8
0
 10
132.082032
 20
150.461233
 42
0.009490
  0
VERTEX
  8
0
 10
136.464157
 20
149.051612
 42
0.015950
  0
SEQEND
  0
POLYLINE
  8
0
 66
1
 70
1
  0
VERTEX
  8
0
 10
416.084399
 20
131.480125
 42
-0.021400
  0
VERTEX
  8
0
 10
417.273220
 20
128.779490
 42
-0.018862
  0
VERTEX
  8
0
 10
418.282653
 20
125.871987
 42
-0.019541
  0
VERTEX
  8
0
 10
419.004140
 20
123.130802
 42
-0.042775
  0
VERTEX
  8
0
 10
419.291326
 20
120.980836
 42
0.000000
  0
VERTEX
  8
0
 10
419.500000
 20
116.571864
 42
0.000000
  0
VERTEX
  8
0
 10
413.293856
 20
113.449815
 42
-0.033629
  0
VERTEX
  8
0
 10
408.345623
 20
111.364393
 42
-0.014050
  0
VERTEX
  8
0
 10
401.434491
 20
109.199798
 42
-0.013029
  0
VERTEX
  8
0
 10
394.625621
 20
107.465767
 42
-0.055887
  0
VERTEX
  8
0
 10
390.471579
 20
107.000000
 42
-0.420411
  0
VERTEX
  8
0
 10
389.213018
 20
108.285416
 42
-0.090611
  0
VERTEX
  8
0
 10
389.908212
 20
111.682772
 42
-0.050158
  0
VERTEX
  8
0
 10
392.487160
 20
116.602760
 42
-0.028250
  0
VERTEX
  8
0
 10
396.514534
 20
122.017396
 42
0.042327
  0
VERTEX
  8
0
 10
398.705092
 20
125.142299
 42
0.088954
  0
VERTEX
  8
0
 10
399.716521
 20
127.918708
 42
0.094421
  0
VERTEX
  8
0
 10
399.669932
 20
130.763929
 42
0.052346
  0
VERTEX
  8
0
 10
398.609436
 20
134.083110
 42
-0.072917
  0
VERTEX
  8
0
 10
398.395597
 20
134.860986
 42
-0.304529
  0
VERTEX
  8
0
 10
398.603956
 20
135.272682
 42
-0.146773
  0
VERTEX
  8
0
 10
399.252560
 20
135.417451
 42
-0.018199
  0
VERTEX
  8
0
 10
400.707053
 20
135.259373
 42
0.042063
  0
VERTEX
  8
0
 10
401.983884
 20
135.181934
 42
0.024266
  0
VERTEX
  8
0
 10
403.520604
 20
135.292806
 42
0.024117
  0
VERTEX
  8
0
 10
405.063294
 20
135.555667
 42
0.036861
  0
VERTEX
  8
0
 10
406.363089
 20
135.944508
 42
0.034075
  0
VERTEX
  8
0
 10
407.830283
 20
136.621827
 42
0.123072
  0
VERTEX
  8
0
 10
408.580795
 20
137.314760
 42
0.142029
  0
VERTEX
  8
0
 10
408.858727
 20
138.219049
 42
0.051269
  0
VERTEX
  8
0
 10
408.741500
 20
139.571924
 42
0.000000
  0
VERTEX
  8
0
 10
408.256821
 20
142.107357
 42
0.000000
  0
VERTEX
  8
0
 10
410.671484
 20
139.838899
 42
-0.046215
  0
VERTEX
  8
0
 10
411.800766
 20
138.562301
 42
-0.014304
  0
VERTEX
  8
0
 10
413.257576
 20
136.447771
 42
-0.014170
  0
VERTEX
  8
0
 10
414.759260
 20
133.978157
 42
-0.015132
  0
SEQEND
  0
POLYLINE
  8
0
 66
1
 70
1
  0
VERTEX
  8
0
 10
494.750000
 20
141.369714
 42
-0.088943
  0
VERTEX
  8
0
 10
495.957230
 20
140.802469
 42
-0.153643
  0
VERTEX
  8
0
 10
496.621959
 20
139.926638
 42
-0.075999
  0
VERTEX
  8
0
 10
496.923908
 20
138.378387
 42
-0.010832
  0
VERTEX
  8
0
 10
496.986345
 20
135.133369
 42
-0.008953
  0
VERTEX
  8
0
 10
496.939333
 20
132.821200
 42
-0.009189
  0
VERTEX
  8
0
 10
496.809605
 20
130.532210
 42
-0.008982
  0
VERTEX
  8
0
 10
496.625027
 20
128.552274
 42
-0.037841
  0
VERTEX
  8
0
 10
496.403850
 20
127.380536
 42
0.000000
  0
VERTEX
  8
0
 10
495.835009
 20
125.261072
 42
0.000000
  0
VERTEX
  8
0
 10
489.828410
 20
127.130536
 42
0.008727
  0
VERTEX
  8
0
 10
487.379054
 20
127.846218
 42
0.009648
  0
VERTEX
  8
0
 10
484.986486
 20
128.450845
 42
0.009109
  0
VERTEX
  8
0
 10
482.928443
 20
128.889533
 42
0.047986
  0
VERTEX
  8
0
 10
481.780063
 20
129.000000
 42
-0.072030
  0
VERTEX
  8
0
 10
480.702039
 20
129.156111
 42
-0.234340
  0
VERTEX
  8
0
 10
480.187782
 20
129.633270
 42
-0.118071
  0
VERTEX
  8
0
 10
480.064228
 20
130.598029
 42
-0.014033
  0
VERTEX
  8
0
 10
480.358152
 20
132.750000
 42
0.009644
  0
VERTEX
  8
0
 10
480.596371
 20
134.386835
 42
0.007121
  0
VERTEX
  8
0
 10
480.799145
 20
136.206250
 42
0.007202
  0
VERTEX
  8
0
 10
480.941550
 20
137.931686
 42
0.015987
  0
VERTEX
  8
0
 10
480.988994
 20
139.250000
 42
-0.054442
  0
VERTEX
  8
0
 10
481.173809
 20
140.881800
 42
-0.230405
  0
VERTEX
  8
0
 10
481.771001
 20
141.628719
 42
-0.104246
  0
VERTEX
  8
0
 10
483.063933
 20
141.939217
 42
-0.007580
  0
VERTEX
  8
0
 10
486.750000
 20
141.986345
 42
-0.009275
  0
VERTEX
  8
0
 10
489.116404
 20
141.936822
 42
-0.009363
  0
VERTEX
  8
0
 10
491.471875
 20
141.799577
 42
-0.009208
  0
VERTEX
  8
0
 10
493.517339
 20
141.603965
 42
-0.037037
  0
SEQEND
  0
POLYLINE
  8
0
 66
1
 70
1
  0
VERTEX
  8
0
 10
334.565217
 20
132.449766
 42
-0.021880
  0
VERTEX
  8
0
 10
337.186399
 20
127.240034
 42
-0.010693
  0
VERTEX
  8
0
 10
340.089667
 20
120.392457
 42
-0.003485
  0
VERTEX
  8
0
 10
342.841448
 20
113.353208
 42
-0.295986
  0
VERTEX
  8
0
 10
342.612734
 20
112.279401
 42
-0.270149
  0
VERTEX
  8
0
 10
341.958029
 20
112.106848
 42
-0.000415
  0
VERTEX
  8
0
 10
329.720663
 20
115.504624
 42
-0.003225
  0
VERTEX
  8
0
 10
318.764534
 20
118.632744
 42
-0.014473
  0
VERTEX
  8
0
 10
312.420937
 20
120.689331
 42
-0.009588
  0
VERTEX
  8
0
 10
309.157293
 20
121.923836
 42
-0.123380
  0
VERTEX
  8
0
 10
308.108817
 20
122.682402
 42
-0.207116
  0
VERTEX
  8
0
 10
307.806373
 20
123.694063
 42
-0.035038
  0
VERTEX
  8
0
 10
308.191961
 20
125.720795
 42
-0.025337
  0
VERTEX
  8
0
 10
308.765479
 20
127.519151
 42
-0.144976
  0
VERTEX
  8
0
 10
309.362983
 20
128.309509
 42
-0.171139
  0
VERTEX
  8
0
 10
310.239648
 20
128.577366
 42
-0.038753
  0
VERTEX
  8
0
 10
311.808390
 20
128.388322
 42
0.116333
  0
VERTEX
  8
0
 10
314.421379
 20
128.477799
 42
0.103488
  0
VERTEX
  8
0
 10
316.846507
 20
129.716082
 42
0.094168
  0
VERTEX
  8
0
 10
318.743545
 20
131.947065
 42
0.078952
  0
VERTEX
  8
0
 10
319.837316
 20
134.858948
 42
0.000000
  0
VERTEX
  8
0
 10
320.514452
 20
138.169772
 42
0.000000
  0
VERTEX
  8
0
 10
323.164955
 20
136.084886
 42
0.040706
  0
VERTEX
  8
0
 10
325.544968
 20
134.508004
 42
0.143510
  0
VERTEX
  8
0
 10
327.318054
 20
134.113914
 42
0.215947
  0
VERTEX
  8
0
 10
328.586671
 20
134.793398
 42
0.102305
  0
VERTEX
  8
0
 10
329.410644
 20
136.500000
 42
-0.015237
  0
VERTEX
  8
0
 10
329.682386
 20
137.458070
 42
-0.023503
  0
VERTEX
  8
0
 10
329.980690
 20
138.265625
 42
-0.020008
  0
VERTEX
  8
0
 10
330.269928
 20
138.878649
 42
-0.279434
  0
VERTEX
  8
0
 10
330.470111
 20
139.000000
 42
-0.255829
  0
VERTEX
  8
0
 10
330.721659
 20
138.862279
 42
-0.002559
  0
VERTEX
  8
0
 10
331.851251
 20
137.075869
 42
-0.007506
  0
VERTEX
  8
0
 10
333.129835
 20
134.960753
 42
-0.004701
  0
SEQEND
  0
POLYLINE
  8
0
 66
1
 70
1
  0
VERTEX
  8
0
 10
493.123249
 20
124.436265
 42
-0.037438
  0
VERTEX
  8
0
 10
494.413666
 20
123.641388
 42
-0.101481
  0
VERTEX
  8
0
 10
495.136081
 20
122.852743
 42
-0.122269
  0
VERTEX
  8
0
 10
495.415025
 20
121.938044
 42
-0.068069
  0
VERTEX
  8
0
 10
495.317552
 20
120.770025
 42
-0.015627
  0
VERTEX
  8
0
 10
494.601004
 20
117.968902
 42
-0.004128
  0
VERTEX
  8
0
 10
493.279452
 20
113.539383
 42
-0.002321
  0
VERTEX
  8
0
 10
491.869888
 20
109.028102
 42
-0.051951
  0
VERTEX
  8
0
 10
491.323408
 20
107.775198
 42
-0.367325
  0
VERTEX
  8
0
 10
490.956825
 20
107.640702
 42
-0.025827
  0
VERTEX
  8
0
 10
489.872823
 20
108.104196
 42
-0.026846
  0
VERTEX
  8
0
 10
488.506074
 20
108.867573
 42
-0.015966
  0
VERTEX
  8
0
 10
486.961406
 20
109.912997
 42
0.026994
  0
VERTEX
  8
0
 10
485.185841
 20
111.058450
 42
0.020122
  0
VERTEX
  8
0
 10
483.116412
 20
112.132460
 42
0.020469
  0
VERTEX
  8
0
 10
481.077802
 20
112.988492
 42
0.042819
  0
VERTEX
  8
0
 10
479.421267
 20
113.448793
 42
-0.024688
  0
VERTEX
  8
0
 10
477.849880
 20
113.824706
 42
-0.073673
  0
VERTEX
  8
0
 10
476.847859
 20
114.285781
 42
-0.137615
  0
VERTEX
  8
0
 10
476.369795
 20
114.832010
 42
-0.205794
  0
VERTEX
  8
0
 10
476.345090
 20
115.456906
 42
0.016148
  0
VERTEX
  8
0
 10
476.613460
 20
116.230022
 42
0.002950
  0
VERTEX
  8
0
 10
477.055121
 20
117.678706
 42
0.003171
  0
VERTEX
  8
0
 10
477.551425
 20
119.381057
 42
0.002875
  0
VERTEX
  8
0
 10
478.042879
 20
121.145913
 42
-0.000008
  0
VERTEX
  8
0
 10
478.519325
 20
122.895632
 42
-0.000010
  0
VERTEX
  8
0
 10
478.970485
 20
124.552254
 42
-0.000009
  0
VERTEX
  8
0
 10
479.351626
 20
125.951565
 42
-0.000062
  0
VERTEX
  8
0
 10
479.535897
 20
126.627718
 42
-0.361121
  0
VERTEX
  8
0
 10
480.594129
 20
127.369718
 42
-0.019584
  0
VERTEX
  8
0
 10
484.944784
 20
126.841821
 42
-0.027637
  0
VERTEX
  8
0
 10
489.565344
 20
125.831985
 42
-0.051751
  0
SEQEND
  0
POLYLINE
  8
0
 66
1
 70
1
  0
VERTEX
  8
0
 10
129.990391
 20
106.932117
 42
-0.003558
  0
VERTEX
  8
0
 10
101.230683
 20
91.205719
 42
-0.007546
  0
VERTEX
  8
0
 10
78.694933
 20
79.525112
 42
-0.002959
  0
VERTEX
  8
0
 10
60.474394
 20
70.561657
 42
-0.553485
  0
VERTEX
  8
0
 10
59.000000
 20
71.485549
 42
-0.243283
  0
VERTEX
  8
0
 10
59.068447
 20
71.617897
 42
-0.000214
  0
VERTEX
  8
0
 10
62.057293
 20
73.732671
 42
-0.002093
  0
VERTEX
  8
0
 10
65.417286
 20
76.086857
 42
-0.001273
  0
VERTEX
  8
0
 10
69.407805
 20
78.842953
 42
0.010894
  0
VERTEX
  8
0
 10
77.591038
 20
84.730528
 42
0.047673
  0
VERTEX
  8
0
 10
81.984240
 20
88.747840
 42
0.083930
  0
VERTEX
  8
0
 10
84.222047
 20
92.259823
 42
0.100297
  0
VERTEX
  8
0
 10
85.000000
 20
96.099068
 42
0.044277
  0
VERTEX
  8
0
 10
84.802798
 20
98.321636
 42
0.069475
  0
VERTEX
  8
0
 10
84.208202
 20
100.141963
 42
0.054663
  0
VERTEX
  8
0
 10
83.024327
 20
102.015007
 42
0.017961
  0
VERTEX
  8
0
 10
80.898593
 20
104.494187
 42
0.000000
  0
VERTEX
  8
0
 10
76.797186
 20
108.943688
 42
0.000000
  0
VERTEX
  8
0
 10
83.212284
 20
108.344637
 42
0.048918
  0
VERTEX
  8
0
 10
95.396508
 20
108.401256
 42
0.020624
  0
VERTEX
  8
0
 10
111.616949
 20
110.747424
 42
0.019271
  0
VERTEX
  8
0
 10
129.726976
 20
114.862363
 42
0.017686
  0
VERTEX
  8
0
 10
148.000000
 20
120.461469
 42
-0.001550
  0
VERTEX
  8
0
 10
152.861904
 20
122.124612
 42
-0.002321
  0
VERTEX
  8
0
 10
157.119052
 20
123.544163
 42
-0.000953
  0
VERTEX
  8
0
 10
160.773509
 20
124.736211
 42
-0.050834
  0
VERTEX
  8
0
 10
161.490391
 20
124.890375
 42
-0.813845
  0
VERTEX
  8
0
 10
161.540021
 20
124.737954
 42
-0.000296
  0
VERTEX
  8
0
 10
152.645802
 20
119.660357
 42
-0.001685
  0
VERTEX
  8
0
 10
142.381068
 20
113.854157
 42
-0.000973
  0
SEQEND
  0
POLYLINE
  8
0
 66
1
 70
1
  0
VERTEX
  8
0
 10
170.000000
 20
123.928274
 42
-0.002674
  0
VERTEX
  8
0
 10
169.012106
 20
123.307295
 42
-0.000197
  0
VERTEX
  8
0
 10
166.296875
 20
121.622203
 42
-0.000274
  0
VERTEX
  8
0
 10
163.056466
 20
119.615414
 42
-0.000208
  0
VERTEX
  8
0
 10
159.500000
 20
117.417636
 42
0.014087
  0
VERTEX
  8
0
 10
150.408299
 20
111.444377
 42
0.011338
  0
VERTEX
  8
0
 10
140.971923
 20
104.533358
 42
0.009992
  0
VERTEX
  8
0
 10
130.735164
 20
96.343155
 42
0.006457
  0
VERTEX
  8
0
 10
119.200572
 20
86.475172
 42
0.006301
  0
VERTEX
  8
0
 10
111.386017
 20
79.436610
 42
0.037853
  0
VERTEX
  8
0
 10
107.662607
 20
75.434374
 42
0.189137
  0
VERTEX
  8
0
 10
107.068867
 20
73.513572
 42
0.413293
  0
VERTEX
  8
0
 10
108.125318
 20
72.600170
 42
0.121253
  0
VERTEX
  8
0
 10
109.006363
 20
72.884579
 42
0.006706
  0
VERTEX
  8
0
 10
111.465977
 20
74.450681
 42
0.010052
  0
VERTEX
  8
0
 10
114.357179
 20
76.430793
 42
0.007162
  0
VERTEX
  8
0
 10
117.517690
 20
78.759115
 42
-0.044195
  0
VERTEX
  8
0
 10
139.527526
 20
92.586390
 42
-0.041065
  0
VERTEX
  8
0
 10
164.163084
 20
102.727452
 42
-0.039965
  0
VERTEX
  8
0
 10
190.788668
 20
108.920421
 42
-0.037178
  0
VERTEX
  8
0
 10
218.717883
 20
111.000000
 42
-0.003703
  0
VERTEX
  8
0
 10
223.521642
 20
110.964425
 42
-0.006559
  0
VERTEX
  8
0
 10
227.481347
 20
110.853802
 42
-0.002443
  0
VERTEX
  8
0
 10
230.758355
 20
110.703168
 42
-0.649955
  0
VERTEX
  8
0
 10
230.835637
 20
110.502304
 42
-0.121484
  0
VERTEX
  8
0
 10
230.410172
 20
110.245172
 42
-0.002844
  0
VERTEX
  8
0
 10
228.157942
 20
109.557977
 42
-0.006130
  0
VERTEX
  8
0
 10
225.489631
 20
108.795894
 42
-0.004100
  0
VERTEX
  8
0
 10
222.418971
 20
107.986465
 42
0.021344
  0
VERTEX
  8
0
 10
210.095904
 20
104.279307
 42
0.025056
  0
VERTEX
  8
0
 10
198.791721
 20
99.698569
 42
0.021611
  0
VERTEX
  8
0
 10
186.736068
 20
93.447985
 42
0.010651
  0
VERTEX
  8
0
 10
171.950841
 20
84.528178
 42
-0.008085
  0
VERTEX
  8
0
 10
153.693799
 20
73.385659
 42
-0.029465
  0
VERTEX
  8
0
 10
141.612179
 20
67.204680
 42
-0.035035
  0
VERTEX
  8
0
 10
129.977991
 20
63.037724
 42
-0.015150
  0
VERTEX
  8
0
 10
114.000000
 20
59.066780
 42
0.020800
  0
VERTEX
  8
0
 10
92.538109
 20
53.474750
 42
0.039539
  0
VERTEX
  8
0
 10
75.944786
 20
46.933192
 42
0.045523
  0
VERTEX
  8
0
 10
62.202410
 20
38.591753
 42
0.040172
  0
VERTEX
  8
0
 10
49.563506
 20
27.577387
 42
-0.015834
  0
VERTEX
  8
0
 10
45.919600
 20
24.075968
 42
-0.826244
  0
VERTEX
  8
0
 10
45.495349
 20
24.396672
 42
-0.046087
  0
VERTEX
  8
0
 10
47.345434
 20
27.416410
 42
-0.003092
  0
VERTEX
  8
0
 10
53.464801
 20
35.500000
 42
0.004517
  0
VERTEX
  8
0
 10
58.408874
 20
42.069864
 42
0.018672
  0
VERTEX
  8
0
 10
61.210098
 20
46.175394
 42
0.028797
  0
VERTEX
  8
0
 10
63.046011
 20
49.505605
 42
0.026774
  0
VERTEX
  8
0
 10
64.537213
 20
53.105473
 42
0.054381
  0
VERTEX
  8
0
 10
65.362621
 20
56.622285
 42
0.073970
  0
VERTEX
  8
0
 10
65.278682
 20
59.875740
 42
0.079172
  0
VERTEX
  8
0
 10
64.273905
 20
62.795099
 42
0.074112
  0
VERTEX
  8
0
 10
62.394711
 20
65.332562
 42
0.000000
  0
VERTEX
  8
0
 10
60.033739
 20
67.693533
 42
0.000000
  0
VERTEX
  8
0
 10
63.922107
 20
68.858517
 42
0.040023
  0
VERTEX
  8
0
 10
70.706683
 20
71.498595
 42
0.005011
  0
VERTEX
  8
0
 10
84.852031
 20
78.526731
 42
0.005411
  0
VERTEX
  8
0
 10
102.576130
 20
87.798484
 42
0.003215
  0
VERTEX
  8
0
 10
123.500000
 20
99.208091
 42
-0.000491
  0
VERTEX
  8
0
 10
145.775750
 20
111.512824
 42
-0.001865
  0
VERTEX
  8
0
 10
159.726429
 20
119.133378
 42
-0.000452
  0
VERTEX
  8
0
 10
170.103695
 20
124.739693
 42
-0.146087
  0
VERTEX
  8
0
 10
171.000000
 20
124.925401
 42
-0.516039
  0
VERTEX
  8
0
 10
171.058371
 20
124.826275
 42
-0.091814
  0
VERTEX
  8
0
 10
170.912500
 20
124.614751
 42
-0.038310
  0
VERTEX
  8
0
 10
170.542167
 20
124.298124
 42
-0.016069
  0
SEQEND
  0
POLYLINE
  8
0
 66
1
 70
1
  0
VERTEX
  8
0
 10
483.659085
 20
110.304242
 42
-0.023855
  0
VERTEX
  8
0
 10
484.990195
 20
109.616452
 42
-0.018249
  0
VERTEX
  8
0
 10
486.377751
 20
108.744367
 42
-0.018575
  0
VERTEX
  8
0
 10
487.619081
 20
107.830224
 42
-0.040856
  0
VERTEX
  8
0
 10
488.477955
 20
107.024359
 42
-0.048491
  0
VERTEX
  8
0
 10
489.356168
 20
105.841518
 42
-0.151153
  0
VERTEX
  8
0
 10
489.590965
 20
104.889143
 42
-0.093059
  0
VERTEX
  8
0
 10
489.295517
 20
103.701923
 42
-0.012093
  0
VERTEX
  8
0
 10
488.146381
 20
101.345159
 42
-0.012245
  0
VERTEX
  8
0
 10
487.209073
 20
99.638942
 42
-0.007628
  0
VERTEX
  8
0
 10
486.031506
 20
97.683722
 42
-0.007652
  0
VERTEX
  8
0
 10
484.810647
 20
95.790055
 42
-0.013742
  0
VERTEX
  8
0
 10
483.743184
 20
94.280278
 42
0.000000
  0
VERTEX
  8
0
 10
481.331346
 20
91.060555
 42
0.000000
  0
VERTEX
  8
0
 10
479.309374
 20
93.795419
 42
0.058977
  0
VERTEX
  8
0
 10
477.728371
 20
95.477420
 42
0.026006
  0
VERTEX
  8
0
 10
475.288291
 20
97.319024
 42
0.024327
  0
VERTEX
  8
0
 10
472.352486
 20
99.102364
 42
0.023132
  0
VERTEX
  8
0
 10
469.208437
 20
100.624896
 42
-0.425332
  0
VERTEX
  8
0
 10
469.148568
 20
100.783100
 42
-0.002074
  0
VERTEX
  8
0
 10
469.969418
 20
102.496896
 42
-0.007186
  0
VERTEX
  8
0
 10
470.967203
 20
104.484754
 42
-0.004287
  0
VERTEX
  8
0
 10
472.208437
 20
106.822276
 42
-0.024469
  0
VERTEX
  8
0
 10
474.701544
 20
110.928665
 42
-0.171920
  0
VERTEX
  8
0
 10
476.555665
 20
112.296818
 42
-0.161533
  0
VERTEX
  8
0
 10
478.919759
 20
112.237470
 42
-0.020959
  0
SEQEND
  0
POLYLINE
  8
0
 66
1
 70
1
  0
VERTEX
  8
0
 10
298.496591
 20
102.363919
 42
-0.002094
  0
VERTEX
  8
0
 10
304.018860
 20
100.519384
 42
-0.024909
  0
VERTEX
  8
0
 10
306.114970
 20
99.691002
 42
-0.104501
  0
VERTEX
  8
0
 10
306.903666
 20
99.110601
 42
-0.397539
  0
VERTEX
  8
0
 10
306.887736
 20
98.554403
 42
-0.275880
  0
VERTEX
  8
0
 10
306.495928
 20
98.455597
 42
-0.003469
  0
VERTEX
  8
0
 10
303.937782
 20
99.242099
 42
-0.008960
  0
VERTEX
  8
0
 10
300.942210
 20
100.245236
 42
-0.005606
  0
VERTEX
  8
0
 10
297.471070
 20
101.521228
 42
-0.001103
  0
VERTEX
  8
0
 10
289.842639
 20
104.442222
 42
-0.574507
  0
VERTEX
  8
0
 10
289.776757
 20
104.850523
 42
-0.255871
  0
VERTEX
  8
0
 10
290.485698
 20
104.984553
 42
-0.001009
  0
SEQEND
  0
POLYLINE
  8
0
 66
1
 70
1
  0
VERTEX
  8
0
 10
210.331327
 20
99.534884
 42
0.045813
  0
VERTEX
  8
0
 10
199.763167
 20
93.508208
 42
0.040796
  0
VERTEX
  8
0
 10
190.019087
 20
85.443454
 42
0.040857
  0
VERTEX
  8
0
 10
181.727966
 20
75.917488
 42
0.046313
  0
VERTEX
  8
0
 10
175.482057
 20
65.544230
 42
0.011223
  0
VERTEX
  8
0
 10
173.691516
 20
61.608604
 42
0.008763
  0
VERTEX
  8
0
 10
171.918986
 20
57.259358
 42
0.008876
  0
VERTEX
  8
0
 10
170.410652
 20
53.149220
 42
0.021281
  0
VERTEX
  8
0
 10
169.478280
 20
50.040820
 42
0.037116
  0
VERTEX
  8
0
 10
168.446519
 20
44.193738
 42
0.015126
  0
VERTEX
  8
0
 10
167.879614
 20
36.132847
 42
0.013294
  0
VERTEX
  8
0
 10
167.775030
 20
28.314925
 42
0.073663
  0
VERTEX
  8
0
 10
168.444094
 20
24.176145
 42
-0.107305
  0
VERTEX
  8
0
 10
168.536627
 20
23.189795
 42
-0.433321
  0
VERTEX
  8
0
 10
168.102677
 20
22.871564
 42
-0.069059
  0
VERTEX
  8
0
 10
166.843158
 20
23.293075
 42
-0.003829
  0
VERTEX
  8
0
 10
163.134296
 20
25.170066
 42
0.018660
  0
VERTEX
  8
0
 10
159.781242
 20
26.743884
 42
0.039728
  0
VERTEX
  8
0
 10
157.065738
 20
27.650147
 42
0.040518
  0
VERTEX
  8
0
 10
154.275046
 20
28.105401
 42
0.020182
  0
VERTEX
  8
0
 10
150.694124
 20
28.250000
 42
0.050449
  0
VERTEX
  8
0
 10
144.113038
 20
27.584290
 42
0.065498
  0
VERTEX
  8
0
 10
138.388471
 20
25.607901
 42
0.060470
  0
VERTEX
  8
0
 10
133.036967
 20
22.070806
 42
0.035614
  0
VERTEX
  8
0
 10
127.558046
 20
16.693626
 42
-0.045960
  0
VERTEX
  8
0
 10
120.100848
 20
9.671362
 42
-0.148182
  0
VERTEX
  8
0
 10
113.818065
 20
7.239613
 42
-0.132855
  0
VERTEX
  8
0
 10
106.816207
 20
8.579623
 42
-0.034032
  0
VERTEX
  8
0
 10
96.725318
 20
14.374636
 42
0.012015
  0
VERTEX
  8
0
 10
92.790710
 20
16.870602
 42
0.011825
  0
VERTEX
  8
0
 10
88.719985
 20
19.188521
 42
0.011774
  0
VERTEX
  8
0
 10
85.059941
 20
21.049677
 42
0.043500
  0
VERTEX
  8
0
 10
82.635592
 20
21.962037
 42
0.073214
  0
VERTEX
  8
0
 10
74.662757
 20
22.978648
 42
0.042883
  0
VERTEX
  8
0
 10
65.073051
 20
21.967472
 42
0.041390
  0
VERTEX
  8
0
 10
55.304562
 20
19.227115
 42
0.049896
  0
VERTEX
  8
0
 10
46.750000
 20
15.031920
 42
-0.011027
  0
VERTEX
  8
0
 10
44.927418
 20
13.955209
 42
-0.020407
  0
VERTEX
  8
0
 10
43.395313
 20
13.175530
 42
-0.018914
  0
VERTEX
  8
0
 10
42.230062
 20
12.693678
 42
-0.522225
  0
VERTEX
  8
0
 10
42.000000
 20
12.853877
 42
-0.194358
  0
VERTEX
  8
0
 10
42.846747
 20
14.949906
 42
-0.004485
  0
VERTEX
  8
0
 10
50.496073
 20
22.731444
 42
-0.010719
  0
VERTEX
  8
0
 10
58.264564
 20
30.167823
 42
-0.025959
  0
VERTEX
  8
0
 10
64.388395
 20
35.224264
 42
-0.022375
  0
VERTEX
  8
0
 10
70.920906
 20
39.631965
 42
-0.016357
  0
VERTEX
  8
0
 10
78.533217
 20
43.951270
 42
-0.016434
  0
VERTEX
  8
0
 10
86.350685
 20
47.732700
 42
-0.023810
  0
VERTEX
  8
0
 10
93.500000
 20
50.506134
 42
-0.016255
  0
VERTEX
  8
0
 10
96.347238
 20
51.355597
 42
-0.003234
  0
VERTEX
  8
0
 10
101.492581
 20
52.674698
 42
-0.003420
  0
VERTEX
  8
0
 10
107.506319
 20
54.131422
 42
-0.003179
  0
VERTEX
  8
0
 10
113.687508
 20
55.542622
 42
0.011953
  0
VERTEX
  8
0
 10
131.186395
 20
59.862104
 42
0.032735
  0
VERTEX
  8
0
 10
143.221175
 20
64.002575
 42
0.030859
  0
VERTEX
  8
0
 10
155.001287
 20
69.817068
 42
0.009661
  0
VERTEX
  8
0
 10
171.899183
 20
79.935176
 42
-0.004724
  0
VERTEX
  8
0
 10
183.242038
 20
86.880097
 42
-0.009772
  0
VERTEX
  8
0
 10
192.256790
 20
92.046443
 42
-0.012069
  0
VERTEX
  8
0
 10
200.043241
 20
96.067798
 42
-0.014791
  0
VERTEX
  8
0
 10
207.509358
 20
99.428939
 42
-0.005180
  0
VERTEX
  8
0
 10
212.556527
 20
101.462825
 42
-0.083993
  0
VERTEX
  8
0
 10
214.342324
 20
101.834348
 42
-0.808879
  0
VERTEX
  8
0
 10
214.432359
 20
101.478866
 42
-0.007971
  0
SEQEND
  0
POLYLINE
  8
0
 66
1
 70
1
  0
VERTEX
  8
0
 10
221.307000
 20
95.619851
 42
0.051333
  0
VERTEX
  8
0
 10
213.909315
 20
87.201589
 42
0.051838
  0
VERTEX
  8
0
 10
208.409661
 20
77.479338
 42
0.051097
  0
VERTEX
  8
0
 10
204.967651
 20
66.701113
 42
0.047234
  0
VERTEX
  8
0
 10
203.662197
 20
55.157335
 42
0.000000
  0
VERTEX
  8
0
 10
203.500000
 20
46.251473
 42
0.000000
  0
VERTEX
  8
0
 10
196.824828
 20
45.764610
 42
0.064696
  0
VERTEX
  8
0
 10
189.356841
 20
44.235066
 42
0.075786
  0
VERTEX
  8
0
 10
182.956948
 20
40.882735
 42
0.076618
  0
VERTEX
  8
0
 10
177.899211
 20
35.811465
 42
0.068097
  0
VERTEX
  8
0
 10
174.357053
 20
29.252031
 42
-0.806416
  0
VERTEX
  8
0
 10
173.218545
 20
29.419028
 42
-0.030875
  0
VERTEX
  8
0
 10
173.171571
 20
37.066133
 42
-0.016222
  0
VERTEX
  8
0
 10
174.171039
 20
48.390647
 42
-0.048098
  0
VERTEX
  8
0
 10
175.845439
 20
56.000000
 42
-0.046431
  0
VERTEX
  8
0
 10
180.102642
 20
65.916517
 42
-0.039663
  0
VERTEX
  8
0
 10
186.315011
 20
75.448645
 42
-0.039615
  0
VERTEX
  8
0
 10
193.963961
 20
83.892162
 42
-0.046000
  0
VERTEX
  8
0
 10
202.500000
 20
90.566539
 42
-0.030701
  0
VERTEX
  8
0
 10
207.458996
 20
93.342302
 42
-0.009260
  0
VERTEX
  8
0
 10
215.311481
 20
96.947330
 42
-0.006235
  0
VERTEX
  8
0
 10
223.271218
 20
100.307039
 42
-0.086677
  0
VERTEX
  8
0
 10
226.307000
 20
100.966825
 42
-0.658735
  0
VERTEX
  8
0
 10
226.401083
 20
100.770506
 42
-0.008448
  0
VERTEX
  8
0
 10
225.171137
 20
99.409836
 42
-0.011695
  0
VERTEX
  8
0
 10
223.478182
 20
97.682220
 42
-0.006220
  0
SEQEND
  0
POLYLINE
  8
0
 66
1
 70
1
  0
VERTEX
  8
0
 10
319.000000
 20
94.241738
 42
-0.327858
  0
VERTEX
  8
0
 10
318.479328
 20
93.533040
 42
-0.124565
  0
VERTEX
  8
0
 10
317.181295
 20
93.460685
 42
-0.053653
  0
VERTEX
  8
0
 10
314.962504
 20
94.145512
 42
-0.016008
  0
VERTEX
  8
0
 10
311.750000
 20
95.652365
 42
-0.028442
  0
VERTEX
  8
0
 10
309.176731
 20
97.151364
 42
-0.530042
  0
VERTEX
  8
0
 10
309.167517
 20
97.940810
 42
-0.214356
  0
VERTEX
  8
0
 10
310.515751
 20
98.193625
 42
-0.018140
  0
VERTEX
  8
0
 10
314.000000
 20
97.217188
 42
-0.022706
  0
VERTEX
  8
0
 10
315.941110
 20
96.497800
 42
-0.034134
  0
VERTEX
  8
0
 10
317.551513
 20
95.682687
 42
-0.037177
  0
VERTEX
  8
0
 10
318.697520
 20
94.879807
 42
-0.225026
  0
SEQEND
  0
POLYLINE
  8
0
 66
1
 70
1
  0
VERTEX
  8
0
 10
473.019231
 20
96.990189
 42
-0.036384
  0
VERTEX
  8
0
 10
474.635697
 20
96.011361
 42
-0.028639
  0
VERTEX
  8
0
 10
476.234944
 20
94.732654
 42
-0.029416
  0
VERTEX
  8
0
 10
477.588714
 20
93.364847
 42
-0.061120
  0
VERTEX
  8
0
 10
478.434196
 20
92.127250
 42
-0.035397
  0
VERTEX
  8
0
 10
479.219957
 20
90.301852
 42
-0.195357
  0
VERTEX
  8
0
 10
479.167395
 20
89.254230
 42
-0.119152
  0
VERTEX
  8
0
 10
478.371763
 20
88.256482
 42
-0.009972
  0
VERTEX
  8
0
 10
475.704803
 20
86.268747
 42
-0.020628
  0
VERTEX
  8
0
 10
470.857532
 20
83.097771
 42
-0.023157
  0
VERTEX
  8
0
 10
465.945086
 20
80.466474
 42
-0.019027
  0
VERTEX
  8
0
 10
461.819774
 20
78.686252
 42
-0.527028
  0
VERTEX
  8
0
 10
461.000000
 20
79.247963
 42
0.082194
  0
VERTEX
  8
0
 10
460.880544
 20
79.969729
 42
0.013715
  0
VERTEX
  8
0
 10
460.389826
 20
81.291585
 42
0.014712
  0
VERTEX
  8
0
 10
459.718066
 20
82.827432
 42
0.012568
  0
VERTEX
  8
0
 10
458.922811
 20
84.405203
 42
0.000000
  0
VERTEX
  8
0
 10
456.845621
 20
88.280789
 42
0.000000
  0
VERTEX
  8
0
 10
462.138650
 20
93.640394
 42
-0.007258
  0
VERTEX
  8
0
 10
464.226618
 20
95.694123
 42
-0.010780
  0
VERTEX
  8
0
 10
466.118902
 20
97.425616
 42
-0.006159
  0
VERTEX
  8
0
 10
467.744462
 20
98.814879
 42
-0.175484
  0
VERTEX
  8
0
 10
468.255678
 20
99.000000
 42
-0.092079
  0
VERTEX
  8
0
 10
468.765487
 20
98.905312
 42
-0.007994
  0
VERTEX
  8
0
 10
469.994871
 20
98.409618
 42
-0.010302
  0
VERTEX
  8
0
 10
471.450271
 20
97.759926
 42
-0.007821
  0
SEQEND
  0
POLYLINE
  8
0
 66
1
 70
1
  0
VERTEX
  8
0
 10
332.400000
 20
89.091534
 42
-0.004143
  0
VERTEX
  8
0
 10
332.350857
 20
88.599992
 42
-0.002557
  0
VERTEX
  8
0
 10
332.285313
 20
88.022660
 42
-0.002564
  0
VERTEX
  8
0
 10
332.214685
 20
87.452693
 42
-0.004599
  0
VERTEX
  8
0
 10
332.150000
 20
86.985605
 42
-0.436946
  0
VERTEX
  8
0
 10
331.790500
 20
86.739606
 42
-0.022987
  0
VERTEX
  8
0
 10
330.290645
 20
87.154311
 42
-0.024242
  0
VERTEX
  8
0
 10
328.331164
 20
87.901269
 42
-0.013703
  0
VERTEX
  8
0
 10
326.030919
 20
88.984392
 42
-0.014068
  0
VERTEX
  8
0
 10
323.388897
 20
90.412724
 42
-0.039795
  0
VERTEX
  8
0
 10
321.663555
 20
91.601463
 42
-0.062725
  0
VERTEX
  8
0
 10
320.709820
 20
92.599578
 42
-0.256350
  0
VERTEX
  8
0
 10
320.600521
 20
93.401358
 42
-0.210628
  0
VERTEX
  8
0
 10
321.171404
 20
93.976600
 42
-0.130451
  0
VERTEX
  8
0
 10
322.132850
 20
94.087245
 42
-0.051746
  0
VERTEX
  8
0
 10
323.779534
 20
93.669829
 42
-0.008684
  0
VERTEX
  8
0
 10
326.819602
 20
92.494105
 42
-0.016018
  0
VERTEX
  8
0
 10
328.989012
 20
91.529398
 42
-0.024277
  0
VERTEX
  8
0
 10
330.802008
 20
90.541298
 42
-0.021252
  0
VERTEX
  8
0
 10
332.154876
 20
89.635390
 42
-0.263243
  0
SEQEND
  0
POLYLINE
  8
0
 66
1
 70
1
  0
VERTEX
  8
0
 10
341.033244
 20
86.483154
 42
-0.021969
  0
VERTEX
  8
0
 10
344.084829
 20
84.764364
 42
-0.104926
  0
VERTEX
  8
0
 10
345.518013
 20
83.385801
 42
-0.188165
  0
VERTEX
  8
0
 10
345.837649
 20
81.981206
 42
-0.104922
  0
VERTEX
  8
0
 10
345.215245
 20
80.314033
 42
-0.360745
  0
VERTEX
  8
0
 10
343.507113
 20
79.763133
 42
-0.036907
  0
VERTEX
  8
0
 10
339.398530
 20
81.769264
 42
-0.037740
  0
VERTEX
  8
0
 10
335.472269
 20
84.475307
 42
-0.189941
  0
VERTEX
  8
0
 10
334.180449
 20
86.750000
 42
-0.118113
  0
VERTEX
  8
0
 10
334.324995
 20
88.282243
 42
-0.331534
  0
VERTEX
  8
0
 10
335.161631
 20
88.856264
 42
-0.097487
  0
VERTEX
  8
0
 10
337.015166
 20
88.415851
 42
-0.010346
  0
SEQEND
  0
POLYLINE
  8
0
 66
1
 70
1
  0
VERTEX
  8
0
 10
457.474320
 20
84.049660
 42
-0.050487
  0
VERTEX
  8
0
 10
458.923724
 20
80.382138
 42
-0.200577
  0
VERTEX
  8
0
 10
458.638899
 20
78.028471
 42
-0.136640
  0
VERTEX
  8
0
 10
456.626950
 20
76.026671
 42
-0.019617
  0
VERTEX
  8
0
 10
451.406715
 20
73.361550
 42
-0.004551
  0
VERTEX
  8
0
 10
448.476109
 20
72.039761
 42
-0.007432
  0
VERTEX
  8
0
 10
445.964901
 20
70.978797
 42
-0.002278
  0
VERTEX
  8
0
 10
443.796806
 20
70.112017
 42
-0.323770
  0
VERTEX
  8
0
 10
443.544302
 20
70.176618
 42
-0.126359
  0
VERTEX
  8
0
 10
443.420594
 20
70.437558
 42
-0.004160
  0
VERTEX
  8
0
 10
443.209165
 20
71.580007
 42
-0.007703
  0
VERTEX
  8
0
 10
442.990087
 20
72.943871
 42
-0.005257
  0
VERTEX
  8
0
 10
442.781338
 20
74.500000
 42
-0.038905
  0
VERTEX
  8
0
 10
442.666067
 20
77.056081
 42
-0.152781
  0
VERTEX
  8
0
 10
443.180067
 20
78.528203
 42
-0.083828
  0
VERTEX
  8
0
 10
444.609782
 20
79.899075
 42
-0.007051
  0
VERTEX
  8
0
 10
448.893751
 20
82.724345
 42
-0.001184
  0
VERTEX
  8
0
 10
451.442482
 20
84.345632
 42
-0.001900
  0
VERTEX
  8
0
 10
453.625308
 20
85.715324
 42
-0.000330
  0
VERTEX
  8
0
 10
455.559626
 20
86.917091
 42
-0.110797
  0
VERTEX
  8
0
 10
455.724320
 20
86.974345
 42
-0.290296
  0
VERTEX
  8
0
 10
455.851954
 20
86.912503
 42
-0.003835
  0
VERTEX
  8
0
 10
456.330914
 20
86.125801
 42
-0.009542
  0
VERTEX
  8
0
 10
456.873274
 20
85.178827
 42
-0.005948
  0
SEQEND
  0
POLYLINE
  8
0
 66
1
 70
1
  0
VERTEX
  8
0
 10
357.251521
 20
78.661401
 42
-0.014701
  0
VERTEX
  8
0
 10
359.475469
 20
77.658574
 42
-0.134981
  0
VERTEX
  8
0
 10
360.263518
 20
76.965502
 42
-0.211492
  0
VERTEX
  8
0
 10
360.404544
 20
76.114651
 42
-0.043763
  0
VERTEX
  8
0
 10
359.886208
 20
74.649599
 42
-0.032311
  0
VERTEX
  8
0
 10
359.118134
 20
73.216949
 42
-0.199262
  0
VERTEX
  8
0
 10
358.451953
 20
72.740651
 42
-0.142529
  0
VERTEX
  8
0
 10
357.513643
 20
72.793083
 42
-0.014203
  0
VERTEX
  8
0
 10
355.391404
 20
73.609821
 42
-0.015375
  0
VERTEX
  8
0
 10
350.751639
 20
75.718243
 42
-0.064488
  0
VERTEX
  8
0
 10
348.204658
 20
77.409138
 42
-0.130296
  0
VERTEX
  8
0
 10
347.103739
 20
79.029470
 42
-0.174740
  0
VERTEX
  8
0
 10
347.118406
 20
80.791044
 42
-0.032518
  0
VERTEX
  8
0
 10
347.699858
 20
82.095438
 42
-0.216784
  0
VERTEX
  8
0
 10
348.248064
 20
82.520461
 42
-0.161722
  0
VERTEX
  8
0
 10
349.030108
 20
82.451358
 42
-0.016586
  0
VERTEX
  8
0
 10
350.730925
 20
81.646554
 42
0.007778
  0
VERTEX
  8
0
 10
352.057715
 20
80.989890
 42
0.003675
  0
VERTEX
  8
0
 10
353.788593
 20
80.182045
 42
0.003641
  0
VERTEX
  8
0
 10
355.612930
 20
79.362874
 42
0.005135
  0
SEQEND
  0
POLYLINE
  8
0
 66
1
 70
1
  0
VERTEX
  8
0
 10
439.814871
 20
68.864184
 42
-0.059354
  0
VERTEX
  8
0
 10
438.294180
 20
68.135793
 42
-0.006086
  0
VERTEX
  8
0
 10
434.498265
 20
66.894883
 42
-0.007915
  0
VERTEX
  8
0
 10
430.124527
 20
65.599449
 42
-0.008126
  0
VERTEX
  8
0
 10
425.750000
 20
64.455048
 42
-0.031067
  0
VERTEX
  8
0
 10
424.067638
 20
64.153243
 42
-0.258356
  0
VERTEX
  8
0
 10
423.376456
 20
64.437571
 42
-0.159106
  0
VERTEX
  8
0
 10
423.056950
 20
65.288193
 42
-0.010936
  0
VERTEX
  8
0
 10
423.000000
 20
67.891592
 42
-0.018001
  0
VERTEX
  8
0
 10
423.075378
 20
69.984577
 42
-0.081992
  0
VERTEX
  8
0
 10
423.358899
 20
71.165549
 42
-0.158051
  0
VERTEX
  8
0
 10
423.900317
 20
71.791967
 42
-0.131226
  0
VERTEX
  8
0
 10
424.750000
 20
72.039599
 42
0.063720
  0
VERTEX
  8
0
 10
425.800008
 20
72.198175
 42
0.007705
  0
VERTEX
  8
0
 10
428.042187
 20
72.873546
 42
0.009055
  0
VERTEX
  8
0
 10
430.691528
 20
73.769439
 42
0.007342
  0
VERTEX
  8
0
 10
433.500000
 20
74.822959
 42
0.000000
  0
VERTEX
  8
0
 10
440.500000
 20
77.566721
 42
0.000000
  0
VERTEX
  8
0
 10
440.814871
 20
73.632470
 42
-0.026291
  0
VERTEX
  8
0
 10
440.861394
 20
71.928343
 42
-0.045393
  0
VERTEX
  8
0
 10
440.697373
 20
70.520703
 42
-0.057695
  0
VERTEX
  8
0
 10
440.346353
 20
69.468465
 42
-0.143035
  0
SEQEND
  0
POLYLINE
  8
0
 66
1
 70
1
  0
VERTEX
  8
0
 10
368.204030
 20
74.211822
 42
-0.008872
  0
VERTEX
  8
0
 10
372.036387
 20
72.677985
 42
-0.104242
  0
VERTEX
  8
0
 10
373.350055
 20
71.767278
 42
-0.246492
  0
VERTEX
  8
0
 10
373.643737
 20
70.720512
 42
-0.070511
  0
VERTEX
  8
0
 10
373.045837
 20
69.085646
 42
-0.088793
  0
VERTEX
  8
0
 10
371.925644
 20
67.667407
 42
-0.190425
  0
VERTEX
  8
0
 10
370.636808
 20
67.198682
 42
-0.091304
  0
VERTEX
  8
0
 10
368.702303
 20
67.610274
 42
-0.012042
  0
VERTEX
  8
0
 10
364.849952
 20
69.311372
 42
-0.012368
  0
VERTEX
  8
0
 10
362.199841
 20
70.639724
 42
-0.094202
  0
VERTEX
  8
0
 10
361.117268
 20
71.510203
 42
-0.189101
  0
VERTEX
  8
0
 10
360.795901
 20
72.442549
 42
-0.081747
  0
VERTEX
  8
0
 10
361.067728
 20
73.750000
 42
-0.056826
  0
VERTEX
  8
0
 10
361.889687
 20
75.322505
 42
-0.231770
  0
VERTEX
  8
0
 10
362.799097
 20
75.843345
 42
-0.100226
  0
VERTEX
  8
0
 10
364.269482
 20
75.643388
 42
-0.007005
  0
SEQEND
  0
POLYLINE
  8
0
 66
1
 70
1
  0
VERTEX
  8
0
 10
387.577994
 20
69.331697
 42
-0.320495
  0
VERTEX
  8
0
 10
388.339898
 20
68.179085
 42
-0.084967
  0
VERTEX
  8
0
 10
387.862709
 20
65.892586
 42
-0.076353
  0
VERTEX
  8
0
 10
386.598230
 20
63.722951
 42
-0.226431
  0
VERTEX
  8
0
 10
385.083676
 20
63.000000
 42
-0.046166
  0
VERTEX
  8
0
 10
384.112079
 20
63.089902
 42
-0.008615
  0
VERTEX
  8
0
 10
382.356499
 20
63.449001
 42
-0.009162
  0
VERTEX
  8
0
 10
380.312673
 20
63.943354
 42
-0.008258
  0
VERTEX
  8
0
 10
378.215933
 20
64.528516
 42
-0.008062
  0
VERTEX
  8
0
 10
374.932416
 20
65.561509
 42
-0.120102
  0
VERTEX
  8
0
 10
373.919918
 20
66.196265
 42
-0.257992
  0
VERTEX
  8
0
 10
373.689726
 20
67.038532
 42
-0.047370
  0
VERTEX
  8
0
 10
374.235972
 20
68.618558
 42
-0.052930
  0
VERTEX
  8
0
 10
375.095975
 20
70.075345
 42
-0.165267
  0
VERTEX
  8
0
 10
376.020224
 20
70.713339
 42
-0.090657
  0
VERTEX
  8
0
 10
377.479057
 20
70.853497
 42
-0.009815
  0
VERTEX
  8
0
 10
380.858312
 20
70.498499
 42
-0.005401
  0
VERTEX
  8
0
 10
383.039690
 20
70.201988
 42
-0.006506
  0
VERTEX
  8
0
 10
385.082501
 20
69.874597
 42
-0.005621
  0
VERTEX
  8
0
 10
386.793319
 20
69.557680
 42
-0.043027
  0
SEQEND
  0
POLYLINE
  8
0
 66
1
 70
1
  0
VERTEX
  8
0
 10
422.000000
 20
67.559017
 42
-0.024435
  0
VERTEX
  8
0
 10
421.933571
 20
66.200511
 42
-0.031271
  0
VERTEX
  8
0
 10
421.733763
 20
64.964279
 42
-0.032468
  0
VERTEX
  8
0
 10
421.444855
 20
63.987847
 42
-0.167705
  0
VERTEX
  8
0
 10
421.093661
 20
63.557885
 42
-0.083191
  0
VERTEX
  8
0
 10
420.460062
 20
63.299237
 42
-0.006365
  0
VERTEX
  8
0
 10
418.650067
 20
62.915638
 42
-0.008601
  0
VERTEX
  8
0
 10
416.465400
 20
62.520552
 42
-0.006448
  0
VERTEX
  8
0
 10
414.047775
 20
62.158101
 42
-0.006583
  0
VERTEX
  8
0
 10
410.699356
 20
61.745009
 42
-0.053405
  0
VERTEX
  8
0
 10
409.155681
 20
61.740574
 42
-0.211126
  0
VERTEX
  8
0
 10
408.541684
 20
62.092105
 42
-0.255632
  0
VERTEX
  8
0
 10
408.454115
 20
62.741021
 42
0.022198
  0
VERTEX
  8
0
 10
408.664319
 20
63.371071
 42
0.016079
  0
VERTEX
  8
0
 10
408.844144
 20
64.088862
 42
0.016297
  0
VERTEX
  8
0
 10
408.970967
 20
64.782938
 42
0.033770
  0
VERTEX
  8
0
 10
409.015313
 20
65.331787
 42
-0.161837
  0
VERTEX
  8
0
 10
409.744003
 20
67.431764
 42
-0.119212
  0
VERTEX
  8
0
 10
411.674137
 20
68.988126
 42
-0.066354
  0
VERTEX
  8
0
 10
415.150068
 20
70.096899
 42
-0.019120
  0
VERTEX
  8
0
 10
420.750000
 20
70.874833
 42
-0.229543
  0
VERTEX
  8
0
 10
421.268948
 20
70.684539
 42
-0.102242
  0
VERTEX
  8
0
 10
421.668277
 20
70.053620
 42
-0.062788
  0
VERTEX
  8
0
 10
421.920970
 20
68.998636
 42
-0.027427
  0
SEQEND
  0
POLYLINE
  8
0
 66
1
 70
1
  0
VERTEX
  8
0
 10
408.000000
 20
67.565100
 42
-0.044859
  0
VERTEX
  8
0
 10
407.934871
 20
66.840639
 42
-0.014958
  0
VERTEX
  8
0
 10
407.713521
 20
65.798203
 42
-0.014753
  0
VERTEX
  8
0
 10
407.398084
 20
64.652432
 42
-0.016294
  0
VERTEX
  8
0
 10
407.024751
 20
63.565100
 42
-0.057707
  0
VERTEX
  8
0
 10
406.316498
 20
62.200037
 42
-0.133429
  0
VERTEX
  8
0
 10
405.448851
 20
61.451836
 42
-0.092683
  0
VERTEX
  8
0
 10
404.110974
 20
61.093807
 42
-0.019163
  0
VERTEX
  8
0
 10
401.664322
 20
61.000000
 42
-0.011034
  0
VERTEX
  8
0
 10
399.659514
 20
61.044247
 42
-0.006312
  0
VERTEX
  8
0
 10
397.242560
 20
61.181574
 42
-0.006302
  0
VERTEX
  8
0
 10
394.813998
 20
61.381125
 42
-0.010408
  0
VERTEX
  8
0
 10
392.769426
 20
61.618125
 42
0.000000
  0
VERTEX
  8
0
 10
388.259709
 20
62.236251
 42
0.000000
  0
VERTEX
  8
0
 10
389.297635
 20
65.618125
 42
0.000000
  0
VERTEX
  8
0
 10
390.335562
 20
69.000000
 42
0.000000
  0
VERTEX
  8
0
 10
399.167781
 20
69.000000
 42
-0.006386
  0
VERTEX
  8
0
 10
403.727786
 20
68.941758
 42
-0.033891
  0
VERTEX
  8
0
 10
406.211179
 20
68.709384
 42
-0.074447
  0
VERTEX
  8
0
 10
407.556110
 20
68.279049
 42
-0.285526
  0
SEQEND
  0
ENDSEC
  0
EOF
