  0
SECTION
  2
HEADER
  9
$ACADVER
  1
AC1006
  9
$EXTMIN
 10
0.000000
 20
0.000000
 30
0.000000
  9
$EXTMAX
 10
389.000000
 20
340.000000
 30
0.000000
  0
ENDSEC
  0
SECTION
  2
ENTITIES
  0
POLYLINE
  8
0
 66
1
 70
1
  0
VERTEX
  8
0
 10
359.713480
 20
320.577822
 42
0.075464
  0
VERTEX
  8
0
 10
353.590268
 20
317.892084
 42
0.061850
  0
VERTEX
  8
0
 10
348.062360
 20
313.352599
 42
0.059278
  0
VERTEX
  8
0
 10
343.607123
 20
307.385024
 42
0.058125
  0
VERTEX
  8
0
 10
340.641090
 20
300.500000
 42
0.008740
  0
VERTEX
  8
0
 10
339.953109
 20
298.044451
 42
0.003610
  0
VERTEX
  8
0
 10
339.104169
 20
294.698389
 42
0.003570
  0
VERTEX
  8
0
 10
338.245126
 20
291.096305
 42
0.004587
  0
VERTEX
  8
0
 10
337.509229
 20
287.771112
 42
0.000000
  0
VERTEX
  8
0
 10
335.872973
 20
280.042225
 42
0.000000
  0
VERTEX
  8
0
 10
331.686487
 20
278.852534
 42
0.019012
  0
VERTEX
  8
0
 10
327.846173
 20
277.601621
 42
0.194344
  0
VERTEX
  8
0
 10
326.631384
 20
276.499484
 42
0.239296
  0
VERTEX
  8
0
 10
326.660883
 20
275.000662
 42
0.029152
  0
VERTEX
  8
0
 10
328.426743
 20
272.105710
 42
-0.043922
  0
VERTEX
  8
0
 10
330.141561
 20
269.098348
 42
-0.127772
  0
VERTEX
  8
0
 10
330.557696
 20
266.762055
 42
-0.134531
  0
VERTEX
  8
0
 10
329.777147
 20
264.592500
 42
-0.050993
  0
VERTEX
  8
0
 10
327.648837
 20
262.139825
 42
-0.028675
  0
VERTEX
  8
0
 10
326.161892
 20
260.895365
 42
-0.134798
  0
VERTEX
  8
0
 10
325.133408
 20
260.494635
 42
-0.109411
  0
VERTEX
  8
0
 10
323.934119
 20
260.632433
 42
-0.015858
  0
VERTEX
  8
0
 10
321.622006
 20
261.513470
 42
0.018174
  0
VERTEX
  8
0
 10
320.141030
 20
262.069958
 42
0.024332
  0
VERTEX
  8
0
 10
318.759932
 20
262.458791
 42
0.022866
  0
VERTEX
  8
0
 10
317.616123
 20
262.666995
 42
0.173692
  0
VERTEX
  8
0
 10
317.088622
 20
262.554771
 42
0.175147
  0
VERTEX
  8
0
 10
316.738740
 20
262.113547
 42
0.017601
  0
VERTEX
  8
0
 10
316.350411
 20
260.804929
 42
0.020411
  0
VERTEX
  8
0
 10
315.996136
 20
259.162568
 42
0.014851
  0
VERTEX
  8
0
 10
315.731747
 20
257.312420
 42
-0.056002
  0
VERTEX
  8
0
 10
314.959807
 20
253.926078
 42
-0.090527
  0
VERTEX
  8
0
 10
313.504236
 20
251.363555
 42
-0.093633
  0
VERTEX
  8
0
 10
311.277794
 20
249.537421
 42
-0.063664
  0
VERTEX
  8
0
 10
308.218110
 20
248.339894
 42
-0.068003
  0
VERTEX
  8
0
 10
306.810103
 20
248.184232
 42
-0.112230
  0
VERTEX
  8
0
 10
305.655397
 20
248.478111
 42
-0.080817
  0
VERTEX
  8
0
 10
304.493453
 20
249.332482
 42
-0.022747
  0
VERTEX
  8
0
 10
302.988057
 20
251.014633
 42
0.056067
  0
VERTEX
  8
0
 10
300.722028
 20
253.230751
 42
0.231488
  0
VERTEX
  8
0
 10
298.898703
 20
253.614208
 42
0.159660
  0
VERTEX
  8
0
 10
297.010461
 20
252.418969
 42
0.024823
  0
VERTEX
  8
0
 10
294.334627
 20
248.826452
 42
-0.054989
  0
VERTEX
  8
0
 10
291.133056
 20
245.028638
 42
-0.239472
  0
VERTEX
  8
0
 10
288.399328
 20
244.211609
 42
-0.155027
  0
VERTEX
  8
0
 10
285.294968
 20
245.856596
 42
-0.021231
  0
VERTEX
  8
0
 10
280.325668
 20
251.370900
 42
0.020277
  0
VERTEX
  8
0
 10
279.421984
 20
252.377544
 42
0.025637
  0
VERTEX
  8
0
 10
278.504690
 20
253.227702
 42
0.025200
  0
VERTEX
  8
0
 10
277.685807
 20
253.844785
 42
0.149957
  0
VERTEX
  8
0
 10
277.179913
 20
254.000000
 42
0.207026
  0
VERTEX
  8
0
 10
276.650139
 20
253.770823
 42
0.014483
  0
VERTEX
  8
0
 10
275.551352
 20
252.531250
 42
0.018614
  0
VERTEX
  8
0
 10
274.299839
 20
250.915613
 42
0.012834
  0
VERTEX
  8
0
 10
273.000000
 20
249.000000
 42
-0.020340
  0
VERTEX
  8
0
 10
271.484615
 20
246.837305
 42
-0.038128
  0
VERTEX
  8
0
 10
270.064465
 20
245.244268
 42
-0.048663
  0
VERTEX
  8
0
 10
268.768760
 20
244.219338
 42
-0.125563
  0
VERTEX
  8
0
 10
267.645754
 20
243.844475
 42
-0.026630
  0
VERTEX
  8
0
 10
264.455434
 20
243.783512
 42
-0.057993
  0
VERTEX
  8
0
 10
262.038312
 20
244.148819
 42
-0.074285
  0
VERTEX
  8
0
 10
260.168311
 20
244.970826
 42
-0.078916
  0
VERTEX
  8
0
 10
258.663801
 20
246.290263
 42
0.005701
  0
VERTEX
  8
0
 10
255.330731
 20
250.209595
 42
0.025998
  0
VERTEX
  8
0
 10
253.252350
 20
252.361053
 42
0.044735
  0
VERTEX
  8
0
 10
251.829791
 20
253.468022
 42
0.289027
  0
VERTEX
  8
0
 10
250.961114
 20
253.475967
 42
0.229432
  0
VERTEX
  8
0
 10
250.089631
 20
252.104787
 42
0.091704
  0
VERTEX
  8
0
 10
250.244320
 20
249.826314
 42
0.058736
  0
VERTEX
  8
0
 10
251.421511
 20
246.773325
 42
0.026837
  0
VERTEX
  8
0
 10
253.617772
 20
243.101220
 42
0.000000
  0
VERTEX
  8
0
 10
257.235544
 20
237.729137
 42
0.000000
  0
VERTEX
  8
0
 10
264.711667
 20
238.294555
 42
0.026499
  0
VERTEX
  8
0
 10
269.682304
 20
238.936679
 42
0.065564
  0
VERTEX
  8
0
 10
273.171516
 20
240.063602
 42
0.103911
  0
VERTEX
  8
0
 10
275.251574
 20
241.646239
 42
0.180240
  0
VERTEX
  8
0
 10
276.000000
 20
243.654988
 42
-0.213594
  0
VERTEX
  8
0
 10
276.466850
 20
244.697975
 42
-0.289301
  0
VERTEX
  8
0
 10
277.459415
 20
244.864114
 42
-0.115886
  0
VERTEX
  8
0
 10
278.895405
 20
243.821238
 42
-0.048648
  0
VERTEX
  8
0
 10
280.281304
 20
241.858094
 42
0.031799
  0
VERTEX
  8
0
 10
281.503934
 20
239.996319
 42
0.146746
  0
VERTEX
  8
0
 10
282.530636
 20
239.240263
 42
0.103989
  0
VERTEX
  8
0
 10
283.987706
 20
239.040735
 42
0.012103
  0
VERTEX
  8
0
 10
287.281304
 20
239.355724
 42
-0.004155
  0
VERTEX
  8
0
 10
289.435411
 20
239.596343
 42
-0.004160
  0
VERTEX
  8
0
 10
291.592308
 20
239.801020
 42
-0.004070
  0
VERTEX
  8
0
 10
293.477329
 20
239.948635
 42
-0.016483
  0
VERTEX
  8
0
 10
294.628680
 20
239.991308
 42
0.095717
  0
VERTEX
  8
0
 10
295.639268
 20
240.190842
 42
0.087047
  0
VERTEX
  8
0
 10
296.541223
 20
240.755624
 42
0.071288
  0
VERTEX
  8
0
 10
297.333146
 20
241.704729
 42
0.040103
  0
VERTEX
  8
0
 10
298.017992
 20
243.043437
 42
0.000000
  0
VERTEX
  8
0
 10
299.278625
 20
246.086874
 42
0.000000
  0
VERTEX
  8
0
 10
301.453764
 20
244.043437
 42
0.057865
  0
VERTEX
  8
0
 10
303.349104
 20
242.636432
 42
0.118198
  0
VERTEX
  8
0
 10
305.114819
 20
242.113976
 42
0.087220
  0
VERTEX
  8
0
 10
307.274869
 20
242.377986
 42
0.021983
  0
VERTEX
  8
0
 10
310.627876
 20
243.562477
 42
0.005451
  0
VERTEX
  8
0
 10
317.350793
 20
246.360913
 42
0.070695
  0
VERTEX
  8
0
 10
319.662373
 20
247.767036
 42
0.162459
  0
VERTEX
  8
0
 10
320.675566
 20
249.379375
 42
0.059805
  0
VERTEX
  8
0
 10
321.000000
 20
252.082101
 42
-0.009808
  0
VERTEX
  8
0
 10
321.046704
 20
254.462897
 42
-0.135992
  0
VERTEX
  8
0
 10
321.306357
 20
255.274728
 42
-0.327698
  0
VERTEX
  8
0
 10
321.843443
 20
255.475404
 42
-0.053961
  0
VERTEX
  8
0
 10
322.934259
 20
255.035184
 42
0.035066
  0
VERTEX
  8
0
 10
323.819304
 20
254.638573
 42
0.023192
  0
VERTEX
  8
0
 10
324.882457
 20
254.304085
 42
0.023363
  0
VERTEX
  8
0
 10
325.951419
 20
254.074321
 42
0.041274
  0
VERTEX
  8
0
 10
326.850229
 20
254.000000
 42
0.185552
  0
VERTEX
  8
0
 10
328.844709
 20
254.766552
 42
0.032673
  0
VERTEX
  8
0
 10
331.694954
 20
257.696488
 42
0.034650
  0
VERTEX
  8
0
 10
334.465100
 20
261.440335
 42
0.043018
  0
VERTEX
  8
0
 10
336.471895
 20
265.278493
 42
0.017913
  0
VERTEX
  8
0
 10
337.212846
 20
267.247255
 42
0.080381
  0
VERTEX
  8
0
 10
337.412880
 20
268.458135
 42
0.111813
  0
VERTEX
  8
0
 10
337.188659
 20
269.463666
 42
0.051534
  0
VERTEX
  8
0
 10
336.489524
 20
270.616691
 42
-0.045346
  0
VERTEX
  8
0
 10
335.319730
 20
272.493273
 42
-0.168294
  0
VERTEX
  8
0
 10
335.137106
 20
273.854864
 42
-0.251248
  0
VERTEX
  8
0
 10
335.836998
 20
274.698667
 42
-0.096813
  0
VERTEX
  8
0
 10
337.378680
 20
275.000000
 42
0.186145
  0
VERTEX
  8
0
 10
339.304821
 20
275.742821
 42
0.114826
  0
VERTEX
  8
0
 10
340.705595
 20
277.764233
 42
0.045967
  0
VERTEX
  8
0
 10
341.903471
 20
281.845777
 42
0.006822
  0
VERTEX
  8
0
 10
343.440626
 20
290.295148
 42
-0.019295
  0
VERTEX
  8
0
 10
344.917530
 20
297.401975
 42
-0.043652
  0
VERTEX
  8
0
 10
346.700184
 20
302.594030
 42
-0.050796
  0
VERTEX
  8
0
 10
349.162293
 20
306.899334
 42
-0.036417
  0
VERTEX
  8
0
 10
352.709871
 20
311.164645
 42
-0.034463
  0
VERTEX
  8
0
 10
355.457615
 20
313.650029
 42
-0.051035
  0
VERTEX
  8
0
 10
358.199794
 20
315.386185
 42
-0.433592
  0
VERTEX
  8
0
 10
358.905375
 20
315.123973
 42
-0.282109
  0
VERTEX
  8
0
 10
358.759697
 20
314.180451
 42
0.067937
  0
VERTEX
  8
0
 10
356.032302
 20
309.901353
 42
0.065082
  0
VERTEX
  8
0
 10
354.501917
 20
304.985441
 42
0.048294
  0
VERTEX
  8
0
 10
354.024627
 20
298.659590
 42
0.018607
  0
VERTEX
  8
0
 10
354.539255
 20
289.859674
 42
-0.038756
  0
VERTEX
  8
0
 10
354.676219
 20
282.314313
 42
-0.017010
  0
VERTEX
  8
0
 10
353.743982
 20
272.355913
 42
-0.017066
  0
VERTEX
  8
0
 10
352.098370
 20
262.254234
 42
-0.030771
  0
VERTEX
  8
0
 10
349.965895
 20
254.144672
 42
0.013281
  0
VERTEX
  8
0
 10
349.159205
 20
251.461975
 42
0.038047
  0
VERTEX
  8
0
 10
348.792808
 20
249.551516
 42
0.057676
  0
VERTEX
  8
0
 10
348.795263
 20
248.185098
 42
0.144928
  0
VERTEX
  8
0
 10
349.183736
 20
247.278611
 42
0.088868
  0
VERTEX
  8
0
 10
350.373922
 20
246.274501
 42
0.261523
  0
VERTEX
  8
0
 10
351.407653
 20
246.262157
 42
0.130666
  0
VERTEX
  8
0
 10
352.479240
 20
247.279641
 42
0.019924
  0
VERTEX
  8
0
 10
353.934628
 20
249.871860
 42
0.056022
  0
VERTEX
  8
0
 10
356.439058
 20
256.529142
 42
0.023503
  0
VERTEX
  8
0
 10
358.352178
 20
265.923807
 42
0.021327
  0
VERTEX
  8
0
 10
359.589061
 20
276.996363
 42
0.017151
  0
VERTEX
  8
0
 10
360.000000
 20
288.972825
 42
-0.005633
  0
VERTEX
  8
0
 10
360.073527
 20
295.498799
 42
-0.010973
  0
VERTEX
  8
0
 10
360.305050
 20
300.700778
 42
-0.010266
  0
VERTEX
  8
0
 10
360.651277
 20
304.672540
 42
-0.094894
  0
VERTEX
  8
0
 10
361.153651
 20
306.315741
 42
-0.036028
  0
VERTEX
  8
0
 10
361.869233
 20
307.462330
 42
-0.008266
  0
VERTEX
  8
0
 10
363.245157
 20
309.285457
 42
-0.008503
  0
VERTEX
  8
0
 10
364.905100
 20
311.337982
 42
-0.008201
  0
VERTEX
  8
0
 10
366.653651
 20
313.358154
 42
0.015680
  0
VERTEX
  8
0
 10
369.552636
 20
316.810486
 42
0.084136
  0
VERTEX
  8
0
 10
370.724259
 20
318.958905
 42
0.215019
  0
VERTEX
  8
0
 10
370.592659
 20
320.382100
 42
0.173870
  0
VERTEX
  8
0
 10
369.418213
 20
321.393011
 42
0.060878
  0
VERTEX
  8
0
 10
367.696580
 20
321.823094
 42
0.051795
  0
VERTEX
  8
0
 10
365.823035
 20
321.859999
 42
0.034496
  0
VERTEX
  8
0
 10
363.381571
 20
321.484095
 42
0.010244
  0
SEQEND
  0
POLYLINE
  8
0
 66
1
 70
1
  0
VERTEX
  8
0
 10
218.800614
 20
243.387617
 42
-0.014704
  0
VERTEX
  8
0
 10
217.087316
 20
239.990322
 42
-0.044883
  0
VERTEX
  8
0
 10
215.660055
 20
237.841063
 42
-0.063349
  0
VERTEX
  8
0
 10
214.184434
 20
236.414893
 42
-0.061590
  0
VERTEX
  8
0
 10
212.385272
 20
235.387617
 42
-0.048933
  0
VERTEX
  8
0
 10
208.575805
 20
234.217586
 42
-0.096568
  0
VERTEX
  8
0
 10
205.422892
 20
234.193418
 42
-0.089317
  0
VERTEX
  8
0
 10
202.332348
 20
235.367431
 42
-0.037369
  0
VERTEX
  8
0
 10
198.683250
 20
237.950035
 42
0.031368
  0
VERTEX
  8
0
 10
195.698006
 20
240.116979
 42
0.078384
  0
VERTEX
  8
0
 10
193.232584
 20
241.184790
 42
0.179168
  0
VERTEX
  8
0
 10
191.681935
 20
241.025605
 42
0.285910
  0
VERTEX
  8
0
 10
191.000000
 20
239.930524
 42
-0.073910
  0
VERTEX
  8
0
 10
190.916478
 20
239.368579
 42
-0.004406
  0
VERTEX
  8
0
 10
190.401713
 20
237.727263
 42
-0.006546
  0
VERTEX
  8
0
 10
189.743449
 20
235.778911
 42
-0.004779
  0
VERTEX
  8
0
 10
188.963279
 20
233.631399
 42
-0.018931
  0
VERTEX
  8
0
 10
187.698748
 20
230.605825
 42
-0.069201
  0
VERTEX
  8
0
 10
186.576091
 20
228.861709
 42
-0.083875
  0
VERTEX
  8
0
 10
185.139062
 20
227.667596
 42
-0.036358
  0
VERTEX
  8
0
 10
182.897361
 20
226.575609
 42
-0.033464
  0
VERTEX
  8
0
 10
179.973444
 20
225.627029
 42
-0.142186
  0
VERTEX
  8
0
 10
178.155173
 20
225.691919
 42
-0.086632
  0
VERTEX
  8
0
 10
176.201055
 20
226.736689
 42
-0.008075
  0
VERTEX
  8
0
 10
171.935643
 20
230.185713
 42
0.021432
  0
VERTEX
  8
0
 10
167.452616
 20
233.616833
 42
0.270646
  0
VERTEX
  8
0
 10
165.413472
 20
233.783955
 42
0.233452
  0
VERTEX
  8
0
 10
164.066852
 20
232.067549
 42
0.016538
  0
VERTEX
  8
0
 10
162.985434
 20
225.896953
 42
-0.014630
  0
VERTEX
  8
0
 10
162.571791
 20
223.482568
 42
-0.017009
  0
VERTEX
  8
0
 10
162.034048
 20
221.216068
 42
-0.016179
  0
VERTEX
  8
0
 10
161.456209
 20
219.343547
 42
-0.090509
  0
VERTEX
  8
0
 10
160.943964
 20
218.432481
 42
-0.163923
  0
VERTEX
  8
0
 10
159.063972
 20
217.271774
 42
-0.090881
  0
VERTEX
  8
0
 10
156.341752
 20
217.144022
 42
-0.067871
  0
VERTEX
  8
0
 10
153.004017
 20
218.067418
 42
-0.039956
  0
VERTEX
  8
0
 10
149.336366
 20
220.001637
 42
0.018659
  0
VERTEX
  8
0
 10
147.385553
 20
221.139055
 42
0.032770
  0
VERTEX
  8
0
 10
145.684761
 20
221.908872
 42
0.036938
  0
VERTEX
  8
0
 10
144.348166
 20
222.301439
 42
0.254604
  0
VERTEX
  8
0
 10
143.714589
 20
222.114589
 42
0.107458
  0
VERTEX
  8
0
 10
143.287371
 20
221.449977
 42
0.008873
  0
VERTEX
  8
0
 10
142.598462
 20
219.499132
 42
0.011546
  0
VERTEX
  8
0
 10
141.864709
 20
217.115513
 42
0.008642
  0
VERTEX
  8
0
 10
141.162951
 20
214.458848
 42
-0.015814
  0
VERTEX
  8
0
 10
140.221586
 20
211.091444
 42
-0.039707
  0
VERTEX
  8
0
 10
139.268115
 20
208.728937
 42
-0.053500
  0
VERTEX
  8
0
 10
138.164097
 20
207.005999
 42
-0.063974
  0
VERTEX
  8
0
 10
136.776074
 20
205.670113
 42
-0.081729
  0
VERTEX
  8
0
 10
134.572371
 20
204.535718
 42
-0.111531
  0
VERTEX
  8
0
 10
132.354994
 20
204.335270
 42
-0.059482
  0
VERTEX
  8
0
 10
129.320251
 20
205.112797
 42
-0.009951
  0
VERTEX
  8
0
 10
123.750000
 20
207.399470
 42
0.000000
  0
VERTEX
  8
0
 10
120.000000
 20
209.026840
 42
0.000000
  0
VERTEX
  8
0
 10
120.000000
 20
202.590145
 42
-0.047425
  0
VERTEX
  8
0
 10
119.522884
 20
197.571291
 42
-0.094180
  0
VERTEX
  8
0
 10
118.056057
 20
193.870551
 42
-0.095684
  0
VERTEX
  8
0
 10
115.352440
 20
191.002866
 42
-0.050146
  0
VERTEX
  8
0
 10
111.090161
 20
188.540657
 42
-0.023536
  0
VERTEX
  8
0
 10
108.520107
 20
187.524353
 42
-0.080391
  0
VERTEX
  8
0
 10
106.753198
 20
187.222742
 42
-0.060919
  0
VERTEX
  8
0
 10
104.736926
 20
187.451665
 42
-0.009703
  0
VERTEX
  8
0
 10
100.883925
 20
188.452532
 42
0.038982
  0
VERTEX
  8
0
 10
95.203269
 20
189.578222
 42
0.062978
  0
VERTEX
  8
0
 10
90.281351
 20
189.538422
 42
0.075786
  0
VERTEX
  8
0
 10
86.215535
 20
188.346536
 42
0.096965
  0
VERTEX
  8
0
 10
83.068555
 20
186.053140
 42
0.053554
  0
VERTEX
  8
0
 10
81.889151
 20
184.471372
 42
0.015186
  0
VERTEX
  8
0
 10
80.406539
 20
181.778738
 42
0.015115
  0
VERTEX
  8
0
 10
78.907072
 20
178.616021
 42
0.015455
  0
VERTEX
  8
0
 10
77.613279
 20
175.391623
 42
-0.018299
  0
VERTEX
  8
0
 10
75.734601
 20
170.785523
 42
-0.043481
  0
VERTEX
  8
0
 10
73.927472
 20
167.560643
 42
-0.037519
  0
VERTEX
  8
0
 10
71.432001
 20
164.428091
 42
-0.010756
  0
VERTEX
  8
0
 10
67.113279
 20
159.967078
 42
-0.014059
  0
VERTEX
  8
0
 10
62.822553
 20
155.953976
 42
-0.026804
  0
VERTEX
  8
0
 10
59.122617
 20
153.021079
 42
-0.026992
  0
VERTEX
  8
0
 10
55.147502
 20
150.513907
 42
-0.014479
  0
VERTEX
  8
0
 10
50.000000
 20
147.835547
 42
-0.012300
  0
VERTEX
  8
0
 10
45.922941
 20
145.984348
 42
-0.010411
  0
VERTEX
  8
0
 10
41.528125
 20
144.224931
 42
-0.010544
  0
VERTEX
  8
0
 10
37.454222
 20
142.788923
 42
-0.028700
  0
VERTEX
  8
0
 10
34.500000
 20
142.001709
 42
0.033424
  0
VERTEX
  8
0
 10
27.798024
 20
140.147909
 42
0.060090
  0
VERTEX
  8
0
 10
22.684947
 20
137.635524
 42
0.077243
  0
VERTEX
  8
0
 10
19.231431
 20
134.539125
 42
0.117913
  0
VERTEX
  8
0
 10
17.485300
 20
130.933070
 42
0.082515
  0
VERTEX
  8
0
 10
17.359520
 20
128.495137
 42
0.076190
  0
VERTEX
  8
0
 10
18.016964
 20
126.074452
 42
0.058669
  0
VERTEX
  8
0
 10
19.560655
 20
123.466698
 42
0.026389
  0
VERTEX
  8
0
 10
22.141350
 20
120.430359
 42
-0.041001
  0
VERTEX
  8
0
 10
23.406591
 20
118.850510
 42
-0.034904
  0
VERTEX
  8
0
 10
24.474618
 20
117.000344
 42
-0.034405
  0
VERTEX
  8
0
 10
25.289351
 20
114.989581
 42
-0.036793
  0
VERTEX
  8
0
 10
25.799032
 20
112.930359
 42
0.023158
  0
VERTEX
  8
0
 10
26.550378
 20
109.496165
 42
0.308160
  0
VERTEX
  8
0
 10
27.481359
 20
108.693940
 42
0.338287
  0
VERTEX
  8
0
 10
28.484276
 20
109.293771
 42
0.025319
  0
VERTEX
  8
0
 10
29.578020
 20
112.500000
 42
-0.020091
  0
VERTEX
  8
0
 10
30.361893
 20
114.878945
 42
-0.132193
  0
VERTEX
  8
0
 10
31.085497
 20
115.889660
 42
-0.151495
  0
VERTEX
  8
0
 10
32.170881
 20
116.330607
 42
-0.028989
  0
VERTEX
  8
0
 10
34.323121
 20
116.389213
 42
-0.062827
  0
VERTEX
  8
0
 10
37.422158
 20
115.901078
 42
-0.064417
  0
VERTEX
  8
0
 10
40.274733
 20
114.659988
 42
-0.074874
  0
VERTEX
  8
0
 10
42.316838
 20
112.979709
 42
-0.185285
  0
VERTEX
  8
0
 10
43.000000
 20
111.199453
 42
0.103475
  0
VERTEX
  8
0
 10
43.363160
 20
109.463426
 42
0.041775
  0
VERTEX
  8
0
 10
44.520702
 20
107.323937
 42
0.039443
  0
VERTEX
  8
0
 10
45.933219
 20
105.497459
 42
0.211489
  0
VERTEX
  8
0
 10
47.056704
 20
105.000000
 42
0.303301
  0
VERTEX
  8
0
 10
47.422516
 20
105.244384
 42
0.040340
  0
VERTEX
  8
0
 10
47.722907
 20
106.175000
 42
0.035674
  0
VERTEX
  8
0
 10
47.931768
 20
107.466965
 42
0.022243
  0
VERTEX
  8
0
 10
48.000000
 20
109.000000
 42
-0.016784
  0
VERTEX
  8
0
 10
48.075234
 20
111.240641
 42
-0.111237
  0
VERTEX
  8
0
 10
48.391878
 20
112.306819
 42
-0.193860
  0
VERTEX
  8
0
 10
49.050228
 20
112.836562
 42
-0.071545
  0
VERTEX
  8
0
 10
50.250000
 20
113.020044
 42
0.043766
  0
VERTEX
  8
0
 10
51.613545
 20
113.151876
 42
0.005367
  0
VERTEX
  8
0
 10
54.556250
 20
113.731844
 42
0.006320
  0
VERTEX
  8
0
 10
58.043405
 20
114.504193
 42
0.005180
  0
VERTEX
  8
0
 10
61.750000
 20
115.415047
 42
-0.007495
  0
VERTEX
  8
0
 10
65.297432
 20
116.269393
 42
-0.012841
  0
VERTEX
  8
0
 10
68.282813
 20
116.861095
 42
-0.006700
  0
VERTEX
  8
0
 10
70.719391
 20
117.245771
 42
-0.456800
  0
VERTEX
  8
0
 10
71.000000
 20
117.002716
 42
-0.213497
  0
VERTEX
  8
0
 10
70.209257
 20
115.235249
 42
-0.006507
  0
VERTEX
  8
0
 10
64.018095
 20
109.844228
 42
-0.013620
  0
VERTEX
  8
0
 10
57.542672
 20
104.648671
 42
-0.028226
  0
VERTEX
  8
0
 10
52.167373
 20
101.030126
 42
-0.012648
  0
VERTEX
  8
0
 10
47.156411
 20
98.222156
 42
-0.074515
  0
VERTEX
  8
0
 10
44.321719
 20
97.229882
 42
-0.191843
  0
VERTEX
  8
0
 10
42.602233
 20
97.562571
 42
-0.175072
  0
VERTEX
  8
0
 10
41.499663
 20
99.001061
 42
0.058237
  0
VERTEX
  8
0
 10
41.121481
 20
99.839631
 42
0.038257
  0
VERTEX
  8
0
 10
40.508441
 20
100.704741
 42
0.038266
  0
VERTEX
  8
0
 10
39.771043
 20
101.466021
 42
0.058426
  0
VERTEX
  8
0
 10
39.017149
 20
101.990822
 42
0.124371
  0
VERTEX
  8
0
 10
38.005282
 20
102.242656
 42
0.294984
  0
VERTEX
  8
0
 10
37.383152
 20
101.837501
 42
0.079005
  0
VERTEX
  8
0
 10
37.017560
 20
100.475112
 42
0.006265
  0
VERTEX
  8
0
 10
36.673097
 20
96.739761
 42
-0.006141
  0
VERTEX
  8
0
 10
36.431464
 20
94.112357
 42
-0.005408
  0
VERTEX
  8
0
 10
36.116125
 20
91.377689
 42
-0.005440
  0
VERTEX
  8
0
 10
35.778191
 20
88.917363
 42
-0.016310
  0
VERTEX
  8
0
 10
35.474447
 20
87.248116
 42
0.097471
  0
VERTEX
  8
0
 10
35.416699
 20
84.090091
 42
0.118270
  0
VERTEX
  8
0
 10
36.598013
 20
81.383164
 42
0.085434
  0
VERTEX
  8
0
 10
39.251194
 20
78.894545
 42
0.031634
  0
VERTEX
  8
0
 10
43.713001
 20
76.341651
 42
0.021126
  0
VERTEX
  8
0
 10
47.231166
 20
74.794913
 42
0.046947
  0
VERTEX
  8
0
 10
50.043466
 20
73.991897
 42
0.038247
  0
VERTEX
  8
0
 10
53.292387
 20
73.640127
 42
0.010117
  0
VERTEX
  8
0
 10
58.516950
 20
73.581812
 42
0.029951
  0
VERTEX
  8
0
 10
65.875125
 20
74.090010
 42
0.028184
  0
VERTEX
  8
0
 10
73.273601
 20
75.476031
 42
0.028035
  0
VERTEX
  8
0
 10
80.508792
 20
77.695119
 42
0.028850
  0
VERTEX
  8
0
 10
87.379189
 20
80.692150
 42
-0.015174
  0
VERTEX
  8
0
 10
90.237449
 20
82.033149
 42
-0.002803
  0
VERTEX
  8
0
 10
95.588822
 20
84.312888
 42
-0.003006
  0
VERTEX
  8
0
 10
101.880717
 20
86.907360
 42
-0.002735
  0
VERTEX
  8
0
 10
108.404412
 20
89.510190
 42
0.002288
  0
VERTEX
  8
0
 10
115.116753
 20
92.181335
 42
0.002122
  0
VERTEX
  8
0
 10
121.975046
 20
94.980883
 42
0.002116
  0
VERTEX
  8
0
 10
128.055756
 20
97.523357
 42
0.007134
  0
VERTEX
  8
0
 10
132.000000
 20
99.258925
 42
-0.020858
  0
VERTEX
  8
0
 10
136.615679
 20
101.140512
 42
-0.030030
  0
VERTEX
  8
0
 10
140.847891
 20
102.381976
 42
-0.021764
  0
VERTEX
  8
0
 10
146.103374
 20
103.347924
 42
-0.005891
  0
VERTEX
  8
0
 10
154.500000
 20
104.415513
 42
0.008676
  0
VERTEX
  8
0
 10
167.964115
 20
106.203659
 42
0.017496
  0
VERTEX
  8
0
 10
178.487899
 20
108.166262
 42
0.021556
  0
VERTEX
  8
0
 10
187.204885
 20
110.508218
 42
0.027172
  0
VERTEX
  8
0
 10
195.022900
 20
113.450082
 42
-0.012482
  0
VERTEX
  8
0
 10
200.515444
 20
115.703136
 42
-0.045385
  0
VERTEX
  8
0
 10
204.143293
 20
116.721244
 42
-0.075404
  0
VERTEX
  8
0
 10
206.797951
 20
116.807200
 42
-0.111884
  0
VERTEX
  8
0
 10
208.982436
 20
116.032017
 42
-0.103190
  0
VERTEX
  8
0
 10
209.620163
 20
115.414265
 42
-0.221368
  0
VERTEX
  8
0
 10
209.726790
 20
114.753308
 42
-0.101168
  0
VERTEX
  8
0
 10
209.266353
 20
113.863284
 42
-0.014504
  0
VERTEX
  8
0
 10
207.925611
 20
112.297330
 42
0.004688
  0
VERTEX
  8
0
 10
206.450459
 20
110.641322
 42
0.000743
  0
VERTEX
  8
0
 10
203.591893
 20
107.361247
 42
0.000824
  0
VERTEX
  8
0
 10
200.235464
 20
103.485434
 42
0.000721
  0
VERTEX
  8
0
 10
196.738301
 20
99.421808
 42
-0.006773
  0
VERTEX
  8
0
 10
192.005552
 20
94.055222
 42
-0.028138
  0
VERTEX
  8
0
 10
188.932237
 20
91.025408
 42
-0.046524
  0
VERTEX
  8
0
 10
186.431811
 20
89.206028
 42
-0.061314
  0
VERTEX
  8
0
 10
183.852112
 20
88.073838
 42
0.019276
  0
VERTEX
  8
0
 10
178.403575
 20
86.209744
 42
0.024619
  0
VERTEX
  8
0
 10
173.553164
 20
84.058678
 42
0.020284
  0
VERTEX
  8
0
 10
169.764016
 20
81.953047
 42
0.261483
  0
VERTEX
  8
0
 10
169.000000
 20
80.592004
 42
0.209483
  0
VERTEX
  8
0
 10
169.337463
 20
79.821885
 42
0.030411
  0
VERTEX
  8
0
 10
170.695365
 20
78.714780
 42
0.028977
  0
VERTEX
  8
0
 10
172.612841
 20
77.498517
 42
0.017956
  0
VERTEX
  8
0
 10
174.989588
 20
76.286975
 42
-0.014903
  0
VERTEX
  8
0
 10
177.285169
 20
75.134410
 42
-0.021896
  0
VERTEX
  8
0
 10
179.222793
 20
73.975840
 42
-0.018339
  0
VERTEX
  8
0
 10
180.693848
 20
72.927064
 42
-0.230413
  0
VERTEX
  8
0
 10
180.989588
 20
72.332905
 42
-0.075562
  0
VERTEX
  8
0
 10
180.889634
 20
71.633327
 42
-0.008992
  0
VERTEX
  8
0
 10
180.409441
 20
70.138063
 42
-0.010567
  0
VERTEX
  8
0
 10
179.765077
 20
68.372030
 42
-0.008492
  0
VERTEX
  8
0
 10
179.000000
 20
66.500000
 42
0.007192
  0
VERTEX
  8
0
 10
178.234069
 20
64.639707
 42
0.009286
  0
VERTEX
  8
0
 10
177.587500
 20
62.909455
 42
0.007386
  0
VERTEX
  8
0
 10
177.096879
 20
61.449880
 42
0.077531
  0
VERTEX
  8
0
 10
177.000000
 20
60.828857
 42
0.364111
  0
VERTEX
  8
0
 10
177.348656
 20
60.413555
 42
0.021723
  0
VERTEX
  8
0
 10
179.095624
 20
60.184100
 42
0.022335
  0
VERTEX
  8
0
 10
181.538580
 20
60.080224
 42
0.010037
  0
VERTEX
  8
0
 10
184.750000
 20
60.151663
 42
0.000000
  0
VERTEX
  8
0
 10
192.500000
 20
60.479802
 42
0.000000
  0
VERTEX
  8
0
 10
193.584042
 20
55.989901
 42
0.026010
  0
VERTEX
  8
0
 10
194.129265
 20
54.155566
 42
0.041142
  0
VERTEX
  8
0
 10
194.802548
 20
52.660608
 42
0.049800
  0
VERTEX
  8
0
 10
195.529647
 20
51.608941
 42
0.170262
  0
VERTEX
  8
0
 10
196.237016
 20
51.195361
 42
0.194080
  0
VERTEX
  8
0
 10
197.747058
 20
51.488294
 42
0.014731
  0
VERTEX
  8
0
 10
201.237372
 20
53.899083
 42
0.018234
  0
VERTEX
  8
0
 10
204.541520
 20
56.518886
 42
0.111894
  0
VERTEX
  8
0
 10
205.833333
 20
58.250000
 42
-0.256801
  0
VERTEX
  8
0
 10
206.670817
 20
58.886438
 42
-0.089014
  0
VERTEX
  8
0
 10
208.240514
 20
58.838601
 42
-0.049267
  0
VERTEX
  8
0
 10
210.597954
 20
58.092588
 42
-0.016024
  0
VERTEX
  8
0
 10
213.911449
 20
56.544872
 42
0.014406
  0
VERTEX
  8
0
 10
215.813135
 20
55.649099
 42
0.021961
  0
VERTEX
  8
0
 10
217.515856
 20
54.993590
 42
0.017947
  0
VERTEX
  8
0
 10
218.905616
 20
54.582371
 42
0.265270
  0
VERTEX
  8
0
 10
219.378205
 20
54.711539
 42
0.203481
  0
VERTEX
  8
0
 10
220.127294
 20
56.565890
 42
0.023308
  0
VERTEX
  8
0
 10
219.831975
 20
61.161629
 42
0.027387
  0
VERTEX
  8
0
 10
218.953436
 20
66.420191
 42
0.029738
  0
VERTEX
  8
0
 10
217.521287
 20
71.405185
 42
0.000000
  0
VERTEX
  8
0
 10
215.084758
 20
78.310371
 42
0.000000
  0
VERTEX
  8
0
 10
221.042379
 20
86.216731
 42
0.018405
  0
VERTEX
  8
0
 10
224.721504
 20
91.492598
 42
0.060497
  0
VERTEX
  8
0
 10
226.570085
 20
95.306867
 42
0.126566
  0
VERTEX
  8
0
 10
226.770952
 20
97.855538
 42
0.263679
  0
VERTEX
  8
0
 10
225.545380
 20
99.344212
 42
0.201217
  0
VERTEX
  8
0
 10
224.725928
 20
99.319027
 42
0.057323
  0
VERTEX
  8
0
 10
223.612389
 20
98.647937
 42
0.042426
  0
VERTEX
  8
0
 10
222.294829
 20
97.440776
 42
0.020744
  0
VERTEX
  8
0
 10
220.821219
 20
95.701201
 42
-0.002176
  0
VERTEX
  8
0
 10
219.528918
 20
94.055482
 42
-0.002986
  0
VERTEX
  8
0
 10
218.351268
 20
92.587228
 42
-0.001925
  0
VERTEX
  8
0
 10
217.350199
 20
91.363940
 42
-0.035281
  0
VERTEX
  8
0
 10
217.004147
 20
91.000000
 42
0.027760
  0
VERTEX
  8
0
 10
216.647264
 20
90.635789
 42
0.001318
  0
VERTEX
  8
0
 10
215.522263
 20
89.345563
 42
0.002161
  0
VERTEX
  8
0
 10
214.196397
 20
87.803435
 42
0.001553
  0
VERTEX
  8
0
 10
212.728308
 20
86.070001
 42
0.047660
  0
VERTEX
  8
0
 10
210.179301
 20
82.378699
 42
0.098596
  0
VERTEX
  8
0
 10
209.106160
 20
79.057687
 42
0.096912
  0
VERTEX
  8
0
 10
209.378300
 20
75.541092
 42
0.044935
  0
VERTEX
  8
0
 10
211.000000
 20
71.236136
 42
-0.010973
  0
VERTEX
  8
0
 10
212.679669
 20
67.555551
 42
-0.139004
  0
VERTEX
  8
0
 10
212.875067
 20
66.060354
 42
-0.517069
  0
VERTEX
  8
0
 10
212.217181
 20
65.726098
 42
-0.045578
  0
VERTEX
  8
0
 10
210.365141
 20
66.927420
 42
0.041591
  0
VERTEX
  8
0
 10
207.914481
 20
68.544893
 42
0.181798
  0
VERTEX
  8
0
 10
206.224386
 20
68.784068
 42
0.166653
  0
VERTEX
  8
0
 10
204.705229
 20
67.854012
 42
0.033741
  0
VERTEX
  8
0
 10
202.831559
 20
65.250000
 42
0.000000
  0
VERTEX
  8
0
 10
200.500000
 20
61.500000
 42
0.000000
  0
VERTEX
  8
0
 10
200.202816
 20
65.538920
 42
0.062069
  0
VERTEX
  8
0
 10
199.453104
 20
69.286894
 42
0.222673
  0
VERTEX
  8
0
 10
197.815330
 20
71.011427
 42
0.191167
  0
VERTEX
  8
0
 10
195.235351
 20
70.999103
 42
0.045687
  0
VERTEX
  8
0
 10
191.346265
 20
69.004640
 42
-0.010930
  0
VERTEX
  8
0
 10
189.509874
 20
67.895560
 42
-0.017369
  0
VERTEX
  8
0
 10
187.887101
 20
67.036811
 42
-0.011597
  0
VERTEX
  8
0
 10
186.542740
 20
66.422217
 42
-0.306873
  0
VERTEX
  8
0
 10
186.173470
 20
66.493196
 42
-0.281788
  0
VERTEX
  8
0
 10
186.084545
 20
66.862868
 42
-0.013212
  0
VERTEX
  8
0
 10
186.530769
 20
68.125578
 42
-0.018519
  0
VERTEX
  8
0
 10
187.184859
 20
69.659187
 42
-0.011893
  0
VERTEX
  8
0
 10
188.050648
 20
71.389399
 42
0.013028
  0
VERTEX
  8
0
 10
189.272383
 20
73.844853
 42
0.066788
  0
VERTEX
  8
0
 10
189.724446
 20
75.294635
 42
0.121380
  0
VERTEX
  8
0
 10
189.645807
 20
76.374489
 42
0.094896
  0
VERTEX
  8
0
 10
189.076767
 20
77.407501
 42
0.084098
  0
VERTEX
  8
0
 10
188.366894
 20
78.017992
 42
0.043846
  0
VERTEX
  8
0
 10
187.315402
 20
78.532203
 42
0.041974
  0
VERTEX
  8
0
 10
186.112683
 20
78.882351
 42
0.049892
  0
VERTEX
  8
0
 10
184.936572
 20
79.000000
 42
-0.041685
  0
VERTEX
  8
0
 10
182.273386
 20
79.222414
 42
-0.393178
  0
VERTEX
  8
0
 10
181.634449
 20
80.054349
 42
-0.280956
  0
VERTEX
  8
0
 10
182.398239
 20
81.075752
 42
-0.032990
  0
VERTEX
  8
0
 10
185.219826
 20
81.995065
 42
0.017628
  0
VERTEX
  8
0
 10
188.580033
 20
82.976838
 42
0.026651
  0
VERTEX
  8
0
 10
191.417551
 20
84.086575
 42
0.024698
  0
VERTEX
  8
0
 10
193.537436
 20
85.178061
 42
0.267610
  0
VERTEX
  8
0
 10
194.000000
 20
85.980418
 42
-0.132029
  0
VERTEX
  8
0
 10
194.095977
 20
86.337552
 42
-0.017652
  0
VERTEX
  8
0
 10
194.514062
 20
87.003846
 42
-0.019406
  0
VERTEX
  8
0
 10
195.079884
 20
87.772616
 42
-0.015206
  0
VERTEX
  8
0
 10
195.750000
 20
88.562253
 42
0.012009
  0
VERTEX
  8
0
 10
196.621253
 20
89.575696
 42
0.003951
  0
VERTEX
  8
0
 10
197.854706
 20
91.106698
 42
0.003933
  0
VERTEX
  8
0
 10
199.196871
 20
92.827481
 42
0.004445
  0
VERTEX
  8
0
 10
200.457510
 20
94.500814
 42
-0.020900
  0
VERTEX
  8
0
 10
202.095098
 20
96.531854
 42
-0.006042
  0
VERTEX
  8
0
 10
204.789897
 20
99.528364
 42
-0.006064
  0
VERTEX
  8
0
 10
207.911869
 20
102.835226
 42
-0.006434
  0
VERTEX
  8
0
 10
211.052961
 20
106.000000
 42
0.013772
  0
VERTEX
  8
0
 10
216.556294
 20
111.710010
 42
0.079164
  0
VERTEX
  8
0
 10
218.855905
 20
115.209044
 42
0.172327
  0
VERTEX
  8
0
 10
219.078562
 20
117.914006
 42
0.132321
  0
VERTEX
  8
0
 10
217.588917
 20
120.501992
 42
0.079376
  0
VERTEX
  8
0
 10
215.853108
 20
121.759582
 42
0.065870
  0
VERTEX
  8
0
 10
213.697881
 20
122.514723
 42
0.032273
  0
VERTEX
  8
0
 10
210.273305
 20
123.000594
 42
0.004948
  0
VERTEX
  8
0
 10
203.403707
 20
123.458214
 42
-0.005884
  0
VERTEX
  8
0
 10
198.633569
 20
123.784945
 42
-0.007016
  0
VERTEX
  8
0
 10
194.145067
 20
124.208961
 42
-0.006147
  0
VERTEX
  8
0
 10
190.376662
 20
124.665317
 42
-0.044706
  0
VERTEX
  8
0
 10
188.600777
 20
125.066467
 42
0.022115
  0
VERTEX
  8
0
 10
187.294374
 20
125.424213
 42
0.014445
  0
VERTEX
  8
0
 10
185.760916
 20
125.725775
 42
0.014536
  0
VERTEX
  8
0
 10
184.245995
 20
125.933420
 42
0.026793
  0
VERTEX
  8
0
 10
183.004415
 20
126.000000
 42
-0.044115
  0
VERTEX
  8
0
 10
181.745936
 20
126.111251
 42
-0.021589
  0
VERTEX
  8
0
 10
180.173144
 20
126.462157
 42
-0.021229
  0
VERTEX
  8
0
 10
178.558344
 20
126.970779
 42
-0.028795
  0
VERTEX
  8
0
 10
177.153519
 20
127.573301
 42
0.043360
  0
VERTEX
  8
0
 10
174.618163
 20
128.574429
 42
0.098477
  0
VERTEX
  8
0
 10
172.575560
 20
128.765118
 42
0.126809
  0
VERTEX
  8
0
 10
170.943959
 20
128.159336
 42
0.100595
  0
VERTEX
  8
0
 10
169.640647
 20
126.794943
 42
0.235317
  0
VERTEX
  8
0
 10
169.442712
 20
124.817527
 42
0.100033
  0
VERTEX
  8
0
 10
170.899662
 20
122.503245
 42
0.085649
  0
VERTEX
  8
0
 10
173.399949
 20
120.646916
 42
0.117478
  0
VERTEX
  8
0
 10
176.115297
 20
120.000000
 42
-0.033325
  0
VERTEX
  8
0
 10
177.219674
 20
119.926311
 42
-0.038525
  0
VERTEX
  8
0
 10
178.250804
 20
119.706250
 42
-0.042099
  0
VERTEX
  8
0
 10
179.075074
 20
119.385197
 42
-0.141343
  0
VERTEX
  8
0
 10
179.500000
 20
119.000000
 42
0.171971
  0
VERTEX
  8
0
 10
179.989716
 20
118.606722
 42
0.028702
  0
VERTEX
  8
0
 10
181.167588
 20
118.269788
 42
0.028578
  0
VERTEX
  8
0
 10
182.659002
 20
118.022850
 42
0.021874
  0
VERTEX
  8
0
 10
184.309017
 20
117.918426
 42
0.000000
  0
VERTEX
  8
0
 10
188.500000
 20
117.836852
 42
0.000000
  0
VERTEX
  8
0
 10
185.000000
 20
116.283658
 42
-0.038280
  0
VERTEX
  8
0
 10
179.010500
 20
114.157279
 42
-0.014568
  0
VERTEX
  8
0
 10
170.387577
 20
112.088355
 42
-0.014644
  0
VERTEX
  8
0
 10
161.612515
 20
110.518172
 42
-0.035848
  0
VERTEX
  8
0
 10
155.075686
 20
110.019675
 42
0.000000
  0
VERTEX
  8
0
 10
150.651372
 20
110.000000
 42
0.000000
  0
VERTEX
  8
0
 10
152.733082
 20
112.250000
 42
0.045884
  0
VERTEX
  8
0
 10
154.659631
 20
114.758834
 42
0.016536
  0
VERTEX
  8
0
 10
156.936652
 20
118.644285
 42
0.016582
  0
VERTEX
  8
0
 10
159.101255
 20
122.971196
 42
0.022824
  0
VERTEX
  8
0
 10
160.734092
 20
127.000000
 42
0.062121
  0
VERTEX
  8
0
 10
161.680814
 20
131.328276
 42
0.024495
  0
VERTEX
  8
0
 10
161.939011
 20
137.432054
 42
0.024131
  0
VERTEX
  8
0
 10
161.607610
 20
143.456120
 42
0.073273
  0
VERTEX
  8
0
 10
160.597170
 20
147.421682
 42
0.055827
  0
VERTEX
  8
0
 10
158.450358
 20
151.283956
 42
0.037527
  0
VERTEX
  8
0
 10
155.218858
 20
155.168574
 42
0.034984
  0
VERTEX
  8
0
 10
151.847177
 20
158.197892
 42
0.203733
  0
VERTEX
  8
0
 10
149.589772
 20
158.798554
 42
0.192887
  0
VERTEX
  8
0
 10
147.900315
 20
157.824500
 42
0.148531
  0
VERTEX
  8
0
 10
147.120108
 20
155.823631
 42
0.127736
  0
VERTEX
  8
0
 10
147.539217
 20
153.483327
 42
0.132895
  0
VERTEX
  8
0
 10
149.041595
 20
151.683419
 42
-0.079742
  0
VERTEX
  8
0
 10
151.378981
 20
149.416200
 42
-0.070857
  0
VERTEX
  8
0
 10
153.004141
 20
146.441436
 42
-0.056703
  0
VERTEX
  8
0
 10
153.977768
 20
142.551375
 42
-0.028569
  0
VERTEX
  8
0
 10
154.356525
 20
137.500000
 42
-0.069628
  0
VERTEX
  8
0
 10
153.363974
 20
129.358427
 42
-0.078374
  0
VERTEX
  8
0
 10
150.174565
 20
122.154096
 42
-0.067575
  0
VERTEX
  8
0
 10
144.471060
 20
115.493525
 42
-0.037014
  0
VERTEX
  8
0
 10
135.925933
 20
108.947281
 42
-0.017402
  0
VERTEX
  8
0
 10
131.636398
 20
106.347240
 42
-0.013919
  0
VERTEX
  8
0
 10
126.848183
 20
103.840532
 42
-0.012742
  0
VERTEX
  8
0
 10
121.495078
 20
101.392199
 42
-0.009620
  0
VERTEX
  8
0
 10
115.500000
 20
98.968164
 42
0.005899
  0
VERTEX
  8
0
 10
114.485583
 20
98.566753
 42
0.001984
  0
VERTEX
  8
0
 10
113.014981
 20
97.957840
 42
0.001974
  0
VERTEX
  8
0
 10
111.393386
 20
97.271321
 42
0.002259
  0
VERTEX
  8
0
 10
109.848871
 20
96.601960
 42
-0.010231
  0
VERTEX
  8
0
 10
108.369433
 20
95.988629
 42
-0.012033
  0
VERTEX
  8
0
 10
106.943482
 20
95.470576
 42
-0.010984
  0
VERTEX
  8
0
 10
105.724512
 20
95.090235
 42
-0.070235
  0
VERTEX
  8
0
 10
105.085302
 20
95.000000
 42
0.054888
  0
VERTEX
  8
0
 10
104.538761
 20
94.939822
 42
0.020336
  0
VERTEX
  8
0
 10
103.789565
 20
94.740522
 42
0.019866
  0
VERTEX
  8
0
 10
102.982866
 20
94.454810
 42
0.022622
  0
VERTEX
  8
0
 10
102.236431
 20
94.116671
 42
-0.010139
  0
VERTEX
  8
0
 10
101.394813
 20
93.709802
 42
-0.004574
  0
VERTEX
  8
0
 10
100.275702
 20
93.208849
 42
-0.004526
  0
VERTEX
  8
0
 10
99.084135
 20
92.701287
 42
-0.006164
  0
VERTEX
  8
0
 10
98.000000
 20
92.266630
 42
0.014131
  0
VERTEX
  8
0
 10
96.512672
 20
91.642637
 42
0.001922
  0
VERTEX
  8
0
 10
93.443750
 20
90.237609
 42
0.002212
  0
VERTEX
  8
0
 10
89.820549
 20
88.542446
 42
0.001865
  0
VERTEX
  8
0
 10
86.000000
 20
86.716836
 42
-0.004665
  0
VERTEX
  8
0
 10
82.032817
 20
84.848374
 42
-0.004450
  0
VERTEX
  8
0
 10
77.968750
 20
83.024040
 42
-0.004415
  0
VERTEX
  8
0
 10
74.350616
 20
81.476357
 42
-0.015800
  0
VERTEX
  8
0
 10
72.000000
 20
80.581431
 42
-0.056440
  0
VERTEX
  8
0
 10
67.395412
 20
79.554569
 42
-0.018119
  0
VERTEX
  8
0
 10
60.398530
 20
79.061017
 42
-0.015517
  0
VERTEX
  8
0
 10
53.517265
 20
79.039295
 42
-0.105726
  0
VERTEX
  8
0
 10
50.236431
 20
79.837104
 42
0.000377
  0
VERTEX
  8
0
 10
49.309886
 20
80.282916
 42
0.000101
  0
VERTEX
  8
0
 10
47.835077
 20
80.990793
 42
0.000102
  0
VERTEX
  8
0
 10
46.158768
 20
81.794548
 42
0.000105
  0
VERTEX
  8
0
 10
44.500000
 20
82.589047
 42
-0.037139
  0
VERTEX
  8
0
 10
41.670394
 20
84.211860
 42
-0.195461
  0
VERTEX
  8
0
 10
40.694121
 20
85.670643
 42
-0.252700
  0
VERTEX
  8
0
 10
41.135190
 20
87.141650
 42
-0.059838
  0
VERTEX
  8
0
 10
43.221546
 20
88.777367
 42
-0.025732
  0
VERTEX
  8
0
 10
44.940963
 20
89.703172
 42
-0.148383
  0
VERTEX
  8
0
 10
45.951043
 20
89.853618
 42
-0.128112
  0
VERTEX
  8
0
 10
46.950127
 20
89.429333
 42
-0.017284
  0
VERTEX
  8
0
 10
48.721546
 20
87.964352
 42
0.072935
  0
VERTEX
  8
0
 10
54.716468
 20
84.037121
 42
0.138337
  0
VERTEX
  8
0
 10
60.370341
 20
83.128143
 42
0.070944
  0
VERTEX
  8
0
 10
68.077380
 20
85.155063
 42
0.009442
  0
VERTEX
  8
0
 10
83.500000
 20
92.000000
 42
-0.001221
  0
VERTEX
  8
0
 10
87.202344
 20
93.716599
 42
-0.001250
  0
VERTEX
  8
0
 10
90.884375
 20
95.401723
 42
-0.001210
  0
VERTEX
  8
0
 10
94.088055
 20
96.848903
 42
-0.005246
  0
VERTEX
  8
0
 10
96.000000
 20
97.683020
 42
0.018281
  0
VERTEX
  8
0
 10
100.885232
 20
99.967640
 42
0.094729
  0
VERTEX
  8
0
 10
103.223381
 20
101.793154
 42
0.226431
  0
VERTEX
  8
0
 10
103.712702
 20
103.536377
 42
0.154641
  0
VERTEX
  8
0
 10
102.749221
 20
105.393636
 42
0.073977
  0
VERTEX
  8
0
 10
101.331986
 20
106.443800
 42
0.095151
  0
VERTEX
  8
0
 10
99.786053
 20
106.922515
 42
0.088884
  0
VERTEX
  8
0
 10
98.091571
 20
106.809264
 42
0.056698
  0
VERTEX
  8
0
 10
96.236431
 20
106.116671
 42
-0.007927
  0
VERTEX
  8
0
 10
95.394969
 20
105.705276
 42
-0.003545
  0
VERTEX
  8
0
 10
94.275702
 20
105.189531
 42
-0.003508
  0
VERTEX
  8
0
 10
93.084146
 20
104.660723
 42
-0.004753
  0
VERTEX
  8
0
 10
92.000000
 20
104.200869
 42
0.011980
  0
VERTEX
  8
0
 10
89.589965
 20
103.137271
 42
0.000522
  0
VERTEX
  8
0
 10
81.262842
 20
99.210768
 42
0.000883
  0
VERTEX
  8
0
 10
73.195295
 20
95.378927
 42
0.004547
  0
VERTEX
  8
0
 10
68.750000
 20
93.208078
 42
-0.363397
  0
VERTEX
  8
0
 10
68.463860
 20
93.276207
 42
-0.083856
  0
VERTEX
  8
0
 10
68.220313
 20
93.752576
 42
-0.050474
  0
VERTEX
  8
0
 10
68.053402
 20
94.557628
 42
-0.025899
  0
VERTEX
  8
0
 10
68.000000
 20
95.587926
 42
0.053255
  0
VERTEX
  8
0
 10
67.872120
 20
96.785150
 42
0.035880
  0
VERTEX
  8
0
 10
67.485937
 20
98.105495
 42
0.036091
  0
VERTEX
  8
0
 10
66.920420
 20
99.343712
 42
0.057916
  0
VERTEX
  8
0
 10
66.250000
 20
100.290221
 42
-0.023745
  0
VERTEX
  8
0
 10
65.240933
 20
101.526621
 42
-0.213368
  0
VERTEX
  8
0
 10
65.094184
 20
102.193545
 42
-0.182069
  0
VERTEX
  8
0
 10
65.483386
 20
102.808796
 42
-0.016656
  0
VERTEX
  8
0
 10
66.989785
 20
103.868962
 42
0.030325
  0
VERTEX
  8
0
 10
68.282295
 20
104.832455
 42
0.007382
  0
VERTEX
  8
0
 10
70.290103
 20
106.579189
 42
0.007541
  0
VERTEX
  8
0
 10
72.536367
 20
108.654329
 42
0.007447
  0
VERTEX
  8
0
 10
74.728617
 20
110.804872
 42
0.000000
  0
VERTEX
  8
0
 10
79.977665
 20
116.109745
 42
0.000000
  0
VERTEX
  8
0
 10
86.150608
 20
114.377705
 42
0.019982
  0
VERTEX
  8
0
 10
89.886415
 20
113.488816
 42
0.039785
  0
VERTEX
  8
0
 10
92.905281
 20
113.142838
 42
0.031230
  0
VERTEX
  8
0
 10
96.377888
 20
113.239614
 42
0.008213
  0
VERTEX
  8
0
 10
101.911776
 20
113.832479
 42
-0.002972
  0
VERTEX
  8
0
 10
105.764952
 20
114.286181
 42
-0.003516
  0
VERTEX
  8
0
 10
109.413251
 20
114.667833
 42
-0.003072
  0
VERTEX
  8
0
 10
112.495910
 20
114.949308
 42
-0.022203
  0
VERTEX
  8
0
 10
113.984398
 20
115.009647
 42
-0.015650
  0
VERTEX
  8
0
 10
115.413298
 20
114.959358
 42
-0.544675
  0
VERTEX
  8
0
 10
115.549196
 20
114.714586
 42
-0.144583
  0
VERTEX
  8
0
 10
115.164452
 20
114.323981
 42
-0.003742
  0
VERTEX
  8
0
 10
112.984398
 20
113.137833
 42
0.065700
  0
VERTEX
  8
0
 10
110.525552
 20
111.374921
 42
0.134702
  0
VERTEX
  8
0
 10
109.296272
 20
109.368879
 42
0.192903
  0
VERTEX
  8
0
 10
109.482125
 20
107.500481
 42
0.150912
  0
VERTEX
  8
0
 10
110.927781
 20
106.038650
 42
0.107784
  0
VERTEX
  8
0
 10
112.308788
 20
105.646528
 42
0.072404
  0
VERTEX
  8
0
 10
113.949550
 20
105.782424
 42
0.040652
  0
VERTEX
  8
0
 10
116.249201
 20
106.515142
 42
0.009356
  0
VERTEX
  8
0
 10
119.988466
 20
108.133337
 42
0.009257
  0
VERTEX
  8
0
 10
122.675750
 20
109.417051
 42
0.014349
  0
VERTEX
  8
0
 10
124.940362
 20
110.633294
 42
0.008560
  0
VERTEX
  8
0
 10
126.751671
 20
111.715780
 42
0.259342
  0
VERTEX
  8
0
 10
127.000000
 20
112.162347
 42
-0.161484
  0
VERTEX
  8
0
 10
127.105955
 20
112.481859
 42
-0.096417
  0
VERTEX
  8
0
 10
127.405044
 20
112.753940
 42
-0.077863
  0
VERTEX
  8
0
 10
127.851526
 20
112.937728
 42
-0.058839
  0
VERTEX
  8
0
 10
128.378872
 20
113.000000
 42
0.171886
  0
VERTEX
  8
0
 10
129.193728
 20
113.288653
 42
0.010187
  0
VERTEX
  8
0
 10
131.224219
 20
115.003303
 42
0.014391
  0
VERTEX
  8
0
 10
133.587779
 20
117.207029
 42
0.010050
  0
VERTEX
  8
0
 10
136.128872
 20
119.819756
 42
0.020814
  0
VERTEX
  8
0
 10
142.107141
 20
126.778165
 42
0.071192
  0
VERTEX
  8
0
 10
145.095041
 20
131.924643
 42
0.158895
  0
VERTEX
  8
0
 10
145.337894
 20
135.453462
 42
0.244172
  0
VERTEX
  8
0
 10
143.349246
 20
137.696224
 42
0.248258
  0
VERTEX
  8
0
 10
141.704205
 20
137.497415
 42
0.044370
  0
VERTEX
  8
0
 10
139.248719
 20
135.447460
 42
0.042161
  0
VERTEX
  8
0
 10
136.729576
 20
132.470019
 42
0.040141
  0
VERTEX
  8
0
 10
134.698913
 20
129.064636
 42
-0.130107
  0
VERTEX
  8
0
 10
133.030097
 20
127.147359
 42
-0.075864
  0
VERTEX
  8
0
 10
130.260328
 20
125.828578
 42
-0.032125
  0
VERTEX
  8
0
 10
125.277969
 20
124.668789
 42
-0.004183
  0
VERTEX
  8
0
 10
114.500000
 20
122.972413
 42
-0.009719
  0
VERTEX
  8
0
 10
103.919474
 20
121.607344
 42
-0.023207
  0
VERTEX
  8
0
 10
96.016018
 20
121.113019
 42
-0.030927
  0
VERTEX
  8
0
 10
89.752946
 20
121.399917
 42
-0.046766
  0
VERTEX
  8
0
 10
84.408931
 20
122.489176
 42
0.043529
  0
VERTEX
  8
0
 10
78.788944
 20
123.672551
 42
0.041030
  0
VERTEX
  8
0
 10
72.935030
 20
123.898139
 42
0.038517
  0
VERTEX
  8
0
 10
66.785299
 20
123.153535
 42
0.030129
  0
VERTEX
  8
0
 10
60.280897
 20
121.439037
 42
-0.014302
  0
VERTEX
  8
0
 10
56.995481
 20
120.460897
 42
-0.017263
  0
VERTEX
  8
0
 10
53.858405
 20
119.738797
 42
-0.017852
  0
VERTEX
  8
0
 10
51.179504
 20
119.317410
 42
-0.068905
  0
VERTEX
  8
0
 10
49.500000
 20
119.346422
 42
-0.004739
  0
VERTEX
  8
0
 10
36.764132
 20
121.458528
 42
-0.024376
  0
VERTEX
  8
0
 10
29.787731
 20
123.037368
 42
-0.045373
  0
VERTEX
  8
0
 10
25.603299
 20
124.621902
 42
-0.135339
  0
VERTEX
  8
0
 10
23.324531
 20
126.627456
 42
-0.117906
  0
VERTEX
  8
0
 10
22.558567
 20
128.756767
 42
-0.142088
  0
VERTEX
  8
0
 10
22.920539
 20
130.844135
 42
-0.106692
  0
VERTEX
  8
0
 10
24.498127
 20
132.849498
 42
-0.048317
  0
VERTEX
  8
0
 10
27.279644
 20
134.732455
 42
-0.093801
  0
VERTEX
  8
0
 10
32.033353
 20
136.262950
 42
-0.038052
  0
VERTEX
  8
0
 10
38.856801
 20
136.593173
 42
-0.038129
  0
VERTEX
  8
0
 10
45.724988
 20
135.876784
 42
-0.084018
  0
VERTEX
  8
0
 10
50.669724
 20
134.084173
 42
-0.026241
  0
VERTEX
  8
0
 10
52.301493
 20
133.043075
 42
-0.029077
  0
VERTEX
  8
0
 10
53.757547
 20
131.869193
 42
-0.030264
  0
VERTEX
  8
0
 10
54.867008
 20
130.733317
 42
-0.114837
  0
VERTEX
  8
0
 10
55.326104
 20
129.860977
 42
0.203561
  0
VERTEX
  8
0
 10
56.320666
 20
128.572631
 42
0.113858
  0
VERTEX
  8
0
 10
58.253112
 20
128.006449
 42
0.114113
  0
VERTEX
  8
0
 10
60.235026
 20
128.344560
 42
0.204839
  0
VERTEX
  8
0
 10
61.364959
 20
129.508684
 42
0.157914
  0
VERTEX
  8
0
 10
61.504242
 20
132.126014
 42
0.091859
  0
VERTEX
  8
0
 10
60.142082
 20
134.994967
 42
0.071427
  0
VERTEX
  8
0
 10
57.421364
 20
137.805878
 42
0.046725
  0
VERTEX
  8
0
 10
53.607233
 20
140.227589
 42
-0.101878
  0
VERTEX
  8
0
 10
51.910599
 20
141.586685
 42
-0.577471
  0
VERTEX
  8
0
 10
52.226869
 20
142.439783
 42
-0.081388
  0
VERTEX
  8
0
 10
55.256809
 20
142.457895
 42
-0.015620
  0
VERTEX
  8
0
 10
60.674367
 20
141.429037
 42
0.004711
  0
VERTEX
  8
0
 10
65.495745
 20
140.403958
 42
0.053251
  0
VERTEX
  8
0
 10
67.437327
 20
140.221559
 42
0.139211
  0
VERTEX
  8
0
 10
68.620208
 20
140.573745
 42
0.093622
  0
VERTEX
  8
0
 10
69.655392
 20
141.543399
 42
0.039473
  0
VERTEX
  8
0
 10
70.293670
 20
142.578718
 42
0.135900
  0
VERTEX
  8
0
 10
70.451582
 20
143.344284
 42
0.131784
  0
VERTEX
  8
0
 10
70.195143
 20
144.095932
 42
0.036196
  0
VERTEX
  8
0
 10
69.418368
 20
145.090203
 42
0.051565
  0
VERTEX
  8
0
 10
68.626978
 20
145.801562
 42
0.028304
  0
VERTEX
  8
0
 10
67.530649
 20
146.508242
 42
0.027913
  0
VERTEX
  8
0
 10
66.324457
 20
147.106084
 42
0.039631
  0
VERTEX
  8
0
 10
65.190538
 20
147.488314
 42
-0.008421
  0
VERTEX
  8
0
 10
63.561637
 20
147.926430
 42
-0.220304
  0
VERTEX
  8
0
 10
63.227057
 20
148.215918
 42
-0.369293
  0
VERTEX
  8
0
 10
63.324967
 20
148.551765
 42
-0.017353
  0
VERTEX
  8
0
 10
64.413126
 20
149.211321
 42
-0.130652
  0
VERTEX
  8
0
 10
67.402221
 20
149.975750
 42
-0.018949
  0
VERTEX
  8
0
 10
73.734052
 20
149.675693
 42
-0.022072
  0
VERTEX
  8
0
 10
80.161248
 20
148.839443
 42
-0.067488
  0
VERTEX
  8
0
 10
84.341082
 20
147.508388
 42
0.053806
  0
VERTEX
  8
0
 10
87.649204
 20
146.354692
 42
0.084172
  0
VERTEX
  8
0
 10
90.651467
 20
146.174035
 42
0.128979
  0
VERTEX
  8
0
 10
92.707192
 20
146.958134
 42
0.242033
  0
VERTEX
  8
0
 10
93.500000
 20
148.500000
 42
0.229628
  0
VERTEX
  8
0
 10
92.592791
 20
150.371230
 42
0.043430
  0
VERTEX
  8
0
 10
89.330489
 20
152.513864
 42
0.041884
  0
VERTEX
  8
0
 10
85.037242
 20
154.382939
 42
0.042103
  0
VERTEX
  8
0
 10
80.500000
 20
155.506425
 42
-0.004835
  0
VERTEX
  8
0
 10
75.437311
 20
156.366333
 42
-0.109482
  0
VERTEX
  8
0
 10
74.081141
 20
156.933347
 42
-0.395654
  0
VERTEX
  8
0
 10
73.911699
 20
157.755781
 42
-0.051636
  0
VERTEX
  8
0
 10
75.103034
 20
159.311551
 42
0.040323
  0
VERTEX
  8
0
 10
77.540419
 20
162.349909
 42
0.027849
  0
VERTEX
  8
0
 10
79.807752
 20
166.134128
 42
0.028150
  0
VERTEX
  8
0
 10
81.596178
 20
170.056142
 42
0.048824
  0
VERTEX
  8
0
 10
82.564046
 20
173.500000
 42
-0.050079
  0
VERTEX
  8
0
 10
83.559733
 20
177.009083
 42
-0.055190
  0
VERTEX
  8
0
 10
85.211252
 20
180.129213
 42
-0.057875
  0
VERTEX
  8
0
 10
87.421102
 20
182.686170
 42
-0.066401
  0
VERTEX
  8
0
 10
90.065725
 20
184.533988
 42
-0.030078
  0
VERTEX
  8
0
 10
91.796970
 20
185.301123
 42
-0.088071
  0
VERTEX
  8
0
 10
93.076032
 20
185.535572
 42
-0.079225
  0
VERTEX
  8
0
 10
94.433693
 20
185.326878
 42
-0.021288
  0
VERTEX
  8
0
 10
96.486887
 20
184.569926
 42
-0.012810
  0
VERTEX
  8
0
 10
97.833126
 20
183.966475
 42
-0.019401
  0
VERTEX
  8
0
 10
98.968023
 20
183.367227
 42
-0.014683
  0
VERTEX
  8
0
 10
99.845129
 20
182.824663
 42
-0.252005
  0
VERTEX
  8
0
 10
100.000000
 20
182.536899
 42
-0.157440
  0
VERTEX
  8
0
 10
99.878553
 20
182.160767
 42
-0.003057
  0
VERTEX
  8
0
 10
98.663458
 20
180.496846
 42
-0.007042
  0
VERTEX
  8
0
 10
97.193793
 20
178.567383
 42
-0.004625
  0
VERTEX
  8
0
 10
95.450071
 20
176.385659
 42
0.013237
  0
VERTEX
  8
0
 10
92.509102
 20
172.573132
 42
0.097360
  0
VERTEX
  8
0
 10
91.541243
 20
170.498314
 42
0.215318
  0
VERTEX
  8
0
 10
91.817628
 20
168.994798
 42
0.100863
  0
VERTEX
  8
0
 10
93.277278
 20
167.596895
 42
0.204331
  0
VERTEX
  8
0
 10
94.445396
 20
167.408822
 42
0.091546
  0
VERTEX
  8
0
 10
95.889739
 20
168.064356
 42
0.040686
  0
VERTEX
  8
0
 10
97.970570
 20
169.781640
 42
0.007214
  0
VERTEX
  8
0
 10
101.545922
 20
173.359339
 42
-0.024868
  0
VERTEX
  8
0
 10
106.703398
 20
178.168156
 42
-0.046407
  0
VERTEX
  8
0
 10
111.387101
 20
181.427453
 42
-0.056948
  0
VERTEX
  8
0
 10
115.844793
 20
183.319684
 42
-0.070588
  0
VERTEX
  8
0
 10
120.299660
 20
183.978038
 42
-0.071281
  0
VERTEX
  8
0
 10
124.251901
 20
183.435013
 42
-0.066231
  0
VERTEX
  8
0
 10
128.001008
 20
181.800488
 42
-0.044246
  0
VERTEX
  8
0
 10
132.314598
 20
178.643254
 42
-0.013275
  0
VERTEX
  8
0
 10
138.293829
 20
173.108475
 42
0.007341
  0
VERTEX
  8
0
 10
144.157691
 20
167.549839
 42
0.047903
  0
VERTEX
  8
0
 10
147.390671
 20
165.100938
 42
0.120372
  0
VERTEX
  8
0
 10
149.609560
 20
164.382959
 42
0.193896
  0
VERTEX
  8
0
 10
151.476202
 20
164.980249
 42
0.118243
  0
VERTEX
  8
0
 10
152.611517
 20
166.496601
 42
0.202745
  0
VERTEX
  8
0
 10
152.622736
 20
168.051001
 42
0.085835
  0
VERTEX
  8
0
 10
151.320625
 20
170.109107
 42
0.011858
  0
VERTEX
  8
0
 10
147.823093
 20
173.795884
 42
0.000000
  0
VERTEX
  8
0
 10
142.646185
 20
179.000000
 42
0.000000
  0
VERTEX
  8
0
 10
148.123093
 20
179.000000
 42
-0.013401
  0
VERTEX
  8
0
 10
150.289914
 20
178.941915
 42
-0.017355
  0
VERTEX
  8
0
 10
152.270221
 20
178.766584
 42
-0.015167
  0
VERTEX
  8
0
 10
153.889900
 20
178.516249
 42
-0.128929
  0
VERTEX
  8
0
 10
154.550000
 20
178.205391
 42
0.092468
  0
VERTEX
  8
0
 10
156.788975
 20
176.946668
 42
0.014648
  0
VERTEX
  8
0
 10
161.628184
 20
175.457964
 42
0.011992
  0
VERTEX
  8
0
 10
166.577098
 20
174.219744
 42
0.147964
  0
VERTEX
  8
0
 10
168.493534
 20
174.359145
 42
0.218660
  0
VERTEX
  8
0
 10
169.775096
 20
175.670667
 42
0.194250
  0
VERTEX
  8
0
 10
169.697521
 20
177.588788
 42
0.107635
  0
VERTEX
  8
0
 10
168.021091
 20
179.847066
 42
0.053664
  0
VERTEX
  8
0
 10
165.089060
 20
181.898677
 42
0.033630
  0
VERTEX
  8
0
 10
160.502277
 20
184.036125
 42
0.039883
  0
VERTEX
  8
0
 10
155.921423
 20
185.398734
 42
0.033446
  0
VERTEX
  8
0
 10
150.565782
 20
186.167297
 42
0.015251
  0
VERTEX
  8
0
 10
143.500000
 20
186.486654
 42
-0.013136
  0
VERTEX
  8
0
 10
139.316799
 20
186.658004
 42
-0.017420
  0
VERTEX
  8
0
 10
135.527164
 20
187.046064
 42
-0.019478
  0
VERTEX
  8
0
 10
132.217327
 20
187.634111
 42
-0.032544
  0
VERTEX
  8
0
 10
129.500000
 20
188.415039
 42
0.000000
  0
VERTEX
  8
0
 10
124.500000
 20
190.211402
 42
0.000000
  0
VERTEX
  8
0
 10
124.841301
 20
195.584167
 42
0.000000
  0
VERTEX
  8
0
 10
125.182603
 20
200.956933
 42
0.000000
  0
VERTEX
  8
0
 10
128.041641
 20
199.478466
 42
0.047199
  0
VERTEX
  8
0
 10
130.832328
 20
198.354362
 42
0.108728
  0
VERTEX
  8
0
 10
133.077077
 20
198.192480
 42
0.082193
  0
VERTEX
  8
0
 10
135.563679
 20
198.985254
 42
0.019259
  0
VERTEX
  8
0
 10
139.389401
 20
201.131038
 42
0.013073
  0
VERTEX
  8
0
 10
143.319385
 20
203.682414
 42
0.085879
  0
VERTEX
  8
0
 10
144.993377
 20
205.316382
 42
0.120187
  0
VERTEX
  8
0
 10
145.750894
 20
207.175436
 42
0.035921
  0
VERTEX
  8
0
 10
145.984687
 20
210.250000
 42
-0.045618
  0
VERTEX
  8
0
 10
146.231771
 20
212.836016
 42
-0.268337
  0
VERTEX
  8
0
 10
147.086738
 20
213.829198
 42
-0.220652
  0
VERTEX
  8
0
 10
148.525824
 20
213.686810
 42
-0.032720
  0
VERTEX
  8
0
 10
151.000000
 20
212.000000
 42
0.040158
  0
VERTEX
  8
0
 10
153.147264
 20
210.582329
 42
0.128142
  0
VERTEX
  8
0
 10
154.798713
 20
210.163527
 42
0.087103
  0
VERTEX
  8
0
 10
156.798525
 20
210.528053
 42
0.012723
  0
VERTEX
  8
0
 10
160.647028
 20
212.063024
 42
0.019749
  0
VERTEX
  8
0
 10
164.258626
 20
213.782977
 42
0.112542
  0
VERTEX
  8
0
 10
165.863331
 20
215.156937
 42
0.109072
  0
VERTEX
  8
0
 10
166.738610
 20
217.110193
 42
0.018030
  0
VERTEX
  8
0
 10
167.432696
 20
221.204171
 42
0.000000
  0
VERTEX
  8
0
 10
168.089082
 20
226.152245
 42
0.000000
  0
VERTEX
  8
0
 10
172.047422
 20
222.576122
 42
0.008845
  0
VERTEX
  8
0
 10
173.618225
 20
221.206674
 42
0.012651
  0
VERTEX
  8
0
 10
175.062466
 20
220.052959
 42
0.008563
  0
VERTEX
  8
0
 10
176.295946
 20
219.150571
 42
0.157726
  0
VERTEX
  8
0
 10
176.752881
 20
219.008419
 42
0.076606
  0
VERTEX
  8
0
 10
177.277428
 20
219.095322
 42
0.002131
  0
VERTEX
  8
0
 10
179.466077
 20
219.823914
 42
0.004328
  0
VERTEX
  8
0
 10
182.035102
 20
220.716158
 42
0.002953
  0
VERTEX
  8
0
 10
184.940146
 20
221.772751
 42
0.008937
  0
VERTEX
  8
0
 10
189.369418
 20
223.504041
 42
0.063759
  0
VERTEX
  8
0
 10
191.365348
 20
224.641103
 42
0.114463
  0
VERTEX
  8
0
 10
192.472723
 20
225.962030
 42
0.057506
  0
VERTEX
  8
0
 10
193.233194
 20
228.014332
 42
-0.006996
  0
VERTEX
  8
0
 10
194.366775
 20
232.381478
 42
-0.189499
  0
VERTEX
  8
0
 10
195.069034
 20
233.319753
 42
-0.323361
  0
VERTEX
  8
0
 10
196.014420
 20
233.251786
 42
-0.018130
  0
VERTEX
  8
0
 10
198.329600
 20
231.165158
 42
0.056531
  0
VERTEX
  8
0
 10
201.063160
 20
229.057452
 42
0.113298
  0
VERTEX
  8
0
 10
203.639139
 20
228.208767
 42
0.074154
  0
VERTEX
  8
0
 10
207.020986
 20
228.396344
 42
0.014493
  0
VERTEX
  8
0
 10
212.971883
 20
229.804975
 42
0.017070
  0
VERTEX
  8
0
 10
217.225680
 20
231.100121
 42
0.105511
  0
VERTEX
  8
0
 10
219.174953
 20
232.268388
 42
0.087965
  0
VERTEX
  8
0
 10
220.637530
 20
234.211835
 42
0.009981
  0
VERTEX
  8
0
 10
223.038751
 20
239.186511
 42
0.000000
  0
VERTEX
  8
0
 10
224.270003
 20
241.873022
 42
0.000000
  0
VERTEX
  8
0
 10
227.885002
 20
237.949163
 42
0.000000
  0
VERTEX
  8
0
 10
231.500000
 20
234.025304
 42
0.000000
  0
VERTEX
  8
0
 10
238.807984
 20
235.142065
 42
0.021069
  0
VERTEX
  8
0
 10
243.755624
 20
236.112960
 42
0.071680
  0
VERTEX
  8
0
 10
246.800214
 20
237.325543
 42
0.145348
  0
VERTEX
  8
0
 10
248.223861
 20
238.823442
 42
0.212547
  0
VERTEX
  8
0
 10
248.317868
 20
240.614033
 42
0.114417
  0
VERTEX
  8
0
 10
247.855528
 20
241.298242
 42
0.122047
  0
VERTEX
  8
0
 10
247.149274
 20
241.689416
 42
0.081791
  0
VERTEX
  8
0
 10
246.109077
 20
241.793468
 42
0.028528
  0
VERTEX
  8
0
 10
244.610358
 20
241.611902
 42
-0.005625
  0
VERTEX
  8
0
 10
236.805300
 20
240.301407
 42
-0.090830
  0
VERTEX
  8
0
 10
234.149791
 20
240.370627
 42
-0.145636
  0
VERTEX
  8
0
 10
232.152776
 20
241.452446
 42
-0.021142
  0
VERTEX
  8
0
 10
228.990881
 20
244.895765
 42
0.014840
  0
VERTEX
  8
0
 10
227.240590
 20
246.850720
 42
0.020149
  0
VERTEX
  8
0
 10
225.541137
 20
248.500631
 42
0.017503
  0
VERTEX
  8
0
 10
224.059830
 20
249.736497
 42
0.166594
  0
VERTEX
  8
0
 10
223.290924
 20
250.000000
 42
0.226661
  0
VERTEX
  8
0
 10
222.586227
 20
249.663244
 42
0.020671
  0
VERTEX
  8
0
 10
221.396044
 20
248.057612
 42
0.023541
  0
VERTEX
  8
0
 10
220.087565
 20
245.920894
 42
0.016179
  0
SEQEND
  0
POLYLINE
  8
0
 66
1
 70
1
  0
VERTEX
  8
0
 10
59.617099
 20
91.283766
 42
-0.239437
  0
VERTEX
  8
0
 10
58.522581
 20
90.926667
 42
-0.047031
  0
VERTEX
  8
0
 10
56.454709
 20
91.451700
 42
-0.047076
  0
VERTEX
  8
0
 10
54.539096
 20
92.345875
 42
-0.266019
  0
VERTEX
  8
0
 10
54.000000
 20
93.287435
 42
-0.149951
  0
VERTEX
  8
0
 10
54.181917
 20
93.880383
 42
-0.039718
  0
VERTEX
  8
0
 10
54.807812
 20
94.662717
 42
-0.036614
  0
VERTEX
  8
0
 10
55.697416
 20
95.480643
 42
-0.030598
  0
VERTEX
  8
0
 10
56.750000
 20
96.214866
 42
0.000000
  0
VERTEX
  8
0
 10
59.500000
 20
97.892966
 42
0.000000
  0
VERTEX
  8
0
 10
59.820529
 20
94.850345
 42
-0.017452
  0
VERTEX
  8
0
 10
59.904981
 20
93.646867
 42
-0.023038
  0
VERTEX
  8
0
 10
59.892989
 20
92.547581
 42
-0.021434
  0
VERTEX
  8
0
 10
59.803747
 20
91.656687
 42
-0.162071
  0
SEQEND
  0
POLYLINE
  8
0
 66
1
 70
1
  0
VERTEX
  8
0
 10
343.098776
 20
237.442840
 42
0.004567
  0
VERTEX
  8
0
 10
342.294566
 20
236.050909
 42
0.006740
  0
VERTEX
  8
0
 10
341.616515
 20
234.813556
 42
0.003418
  0
VERTEX
  8
0
 10
341.065201
 20
233.757106
 42
0.119094
  0
VERTEX
  8
0
 10
341.000000
 20
233.487249
 42
-0.134814
  0
VERTEX
  8
0
 10
340.926374
 20
233.219145
 42
-0.003363
  0
VERTEX
  8
0
 10
340.265625
 20
232.123695
 42
-0.007003
  0
VERTEX
  8
0
 10
339.458010
 20
230.845443
 42
-0.004686
  0
VERTEX
  8
0
 10
338.500000
 20
229.404862
 42
0.016027
  0
VERTEX
  8
0
 10
337.542919
 20
227.892380
 42
0.018620
  0
VERTEX
  8
0
 10
336.734375
 20
226.394216
 42
0.017917
  0
VERTEX
  8
0
 10
336.148417
 20
225.088502
 42
0.096800
  0
VERTEX
  8
0
 10
336.000000
 20
224.329068
 42
0.187354
  0
VERTEX
  8
0
 10
336.528841
 20
222.967266
 42
0.197114
  0
VERTEX
  8
0
 10
337.824929
 20
222.355935
 42
0.128685
  0
VERTEX
  8
0
 10
339.667948
 20
222.738118
 42
0.073571
  0
VERTEX
  8
0
 10
341.546024
 20
224.043237
 42
0.062183
  0
VERTEX
  8
0
 10
343.889810
 20
226.869184
 42
0.024408
  0
VERTEX
  8
0
 10
346.406693
 20
231.271264
 42
0.023084
  0
VERTEX
  8
0
 10
348.440014
 20
235.770897
 42
0.094848
  0
VERTEX
  8
0
 10
349.000000
 20
238.696344
 42
0.167127
  0
VERTEX
  8
0
 10
348.389204
 20
240.472649
 42
0.286936
  0
VERTEX
  8
0
 10
346.968673
 20
240.990466
 42
0.147488
  0
VERTEX
  8
0
 10
344.984591
 20
239.900964
 42
0.060754
  0
SEQEND
  0
POLYLINE
  8
0
 66
1
 70
1
  0
VERTEX
  8
0
 10
282.490565
 20
232.574113
 42
0.033163
  0
VERTEX
  8
0
 10
280.589734
 20
228.773802
 42
0.072774
  0
VERTEX
  8
0
 10
279.780314
 20
225.632663
 42
0.109549
  0
VERTEX
  8
0
 10
280.047329
 20
223.244007
 42
0.171834
  0
VERTEX
  8
0
 10
281.317253
 20
221.640736
 42
0.077105
  0
VERTEX
  8
0
 10
282.365228
 20
221.189420
 42
0.165011
  0
VERTEX
  8
0
 10
283.233028
 20
221.254043
 42
0.102729
  0
VERTEX
  8
0
 10
284.151875
 20
221.890983
 42
0.020256
  0
VERTEX
  8
0
 10
285.480749
 20
223.407933
 42
-0.013174
  0
VERTEX
  8
0
 10
286.944315
 20
225.127152
 42
-0.134964
  0
VERTEX
  8
0
 10
287.723201
 20
225.627378
 42
-0.229845
  0
VERTEX
  8
0
 10
288.449518
 20
225.518160
 42
-0.046108
  0
VERTEX
  8
0
 10
289.484924
 20
224.657933
 42
0.139123
  0
VERTEX
  8
0
 10
292.299820
 20
223.087358
 42
0.264739
  0
VERTEX
  8
0
 10
294.711192
 20
223.794213
 42
0.221734
  0
VERTEX
  8
0
 10
295.621627
 20
226.438076
 42
0.115768
  0
VERTEX
  8
0
 10
294.450581
 20
229.798963
 42
0.022436
  0
VERTEX
  8
0
 10
292.338857
 20
232.816176
 42
0.038943
  0
VERTEX
  8
0
 10
290.292894
 20
235.086957
 42
0.048411
  0
VERTEX
  8
0
 10
288.421041
 20
236.548244
 42
0.142475
  0
VERTEX
  8
0
 10
286.867840
 20
237.000000
 42
0.155250
  0
VERTEX
  8
0
 10
285.980071
 20
236.717539
 42
0.043737
  0
VERTEX
  8
0
 10
284.858419
 20
235.766049
 42
0.037480
  0
VERTEX
  8
0
 10
283.656080
 20
234.352842
 42
0.024989
  0
SEQEND
  0
POLYLINE
  8
0
 66
1
 70
1
  0
VERTEX
  8
0
 10
257.217779
 20
231.750000
 42
0.082811
  0
VERTEX
  8
0
 10
255.648672
 20
229.025828
 42
0.026619
  0
VERTEX
  8
0
 10
254.247161
 20
224.560215
 42
0.022125
  0
VERTEX
  8
0
 10
253.310875
 20
220.093919
 42
0.185991
  0
VERTEX
  8
0
 10
253.723220
 20
218.114511
 42
0.201221
  0
VERTEX
  8
0
 10
255.401648
 20
216.965011
 42
0.153884
  0
VERTEX
  8
0
 10
257.637885
 20
217.193935
 42
0.115126
  0
VERTEX
  8
0
 10
259.841482
 20
218.823095
 42
0.091899
  0
VERTEX
  8
0
 10
261.317837
 20
221.391810
 42
-0.212780
  0
VERTEX
  8
0
 10
261.628107
 20
221.719783
 42
-0.166215
  0
VERTEX
  8
0
 10
262.122745
 20
221.751683
 42
-0.085207
  0
VERTEX
  8
0
 10
262.816463
 20
221.429305
 42
-0.030030
  0
VERTEX
  8
0
 10
263.682641
 20
220.750000
 42
0.061916
  0
VERTEX
  8
0
 10
265.557459
 20
219.463413
 42
0.129289
  0
VERTEX
  8
0
 10
267.272664
 20
219.078760
 42
0.174872
  0
VERTEX
  8
0
 10
268.619805
 20
219.621177
 42
0.134411
  0
VERTEX
  8
0
 10
269.488011
 20
220.962227
 42
0.114981
  0
VERTEX
  8
0
 10
269.640958
 20
222.909679
 42
0.090226
  0
VERTEX
  8
0
 10
268.951468
 20
224.919073
 42
0.061622
  0
VERTEX
  8
0
 10
267.303712
 20
227.162016
 42
0.023398
  0
VERTEX
  8
0
 10
264.503417
 20
229.862856
 42
0.024501
  0
VERTEX
  8
0
 10
261.899719
 20
231.932187
 42
0.092537
  0
VERTEX
  8
0
 10
260.022009
 20
232.811595
 42
0.160559
  0
VERTEX
  8
0
 10
258.532144
 20
232.714696
 42
0.125559
  0
SEQEND
  0
POLYLINE
  8
0
 66
1
 70
1
  0
VERTEX
  8
0
 10
229.869918
 20
225.756939
 42
0.040235
  0
VERTEX
  8
0
 10
228.369590
 20
222.314130
 42
0.015105
  0
VERTEX
  8
0
 10
226.811640
 20
217.283709
 42
0.009738
  0
VERTEX
  8
0
 10
225.523108
 20
212.251150
 42
0.150518
  0
VERTEX
  8
0
 10
225.642403
 20
210.489500
 42
0.206155
  0
VERTEX
  8
0
 10
227.326490
 20
208.763200
 42
0.208226
  0
VERTEX
  8
0
 10
229.728408
 20
208.809860
 42
0.137188
  0
VERTEX
  8
0
 10
232.117521
 20
210.833166
 42
0.095094
  0
VERTEX
  8
0
 10
233.522775
 20
214.103692
 42
-0.035919
  0
VERTEX
  8
0
 10
234.157468
 20
216.246131
 42
-0.285936
  0
VERTEX
  8
0
 10
234.940809
 20
216.846551
 42
-0.233965
  0
VERTEX
  8
0
 10
235.958557
 20
216.460325
 42
-0.026084
  0
VERTEX
  8
0
 10
237.597276
 20
214.500000
 42
0.061236
  0
VERTEX
  8
0
 10
239.150642
 20
212.886592
 42
0.119423
  0
VERTEX
  8
0
 10
240.753961
 20
212.123311
 42
0.143408
  0
VERTEX
  8
0
 10
242.326568
 20
212.246664
 42
0.105955
  0
VERTEX
  8
0
 10
243.800000
 20
213.200000
 42
0.141418
  0
VERTEX
  8
0
 10
244.739113
 20
214.901101
 42
0.163149
  0
VERTEX
  8
0
 10
244.554891
 20
216.737258
 42
0.078720
  0
VERTEX
  8
0
 10
243.010710
 20
219.091306
 42
0.015922
  0
VERTEX
  8
0
 10
239.521240
 20
222.693403
 42
0.015787
  0
VERTEX
  8
0
 10
235.507505
 20
226.342617
 42
0.100065
  0
VERTEX
  8
0
 10
233.107366
 20
227.675176
 42
0.230140
  0
VERTEX
  8
0
 10
231.366095
 20
227.420833
 42
0.121075
  0
SEQEND
  0
POLYLINE
  8
0
 66
1
 70
1
  0
VERTEX
  8
0
 10
328.507119
 20
215.250000
 42
-0.001720
  0
VERTEX
  8
0
 10
326.123000
 20
212.405516
 42
-0.001494
  0
VERTEX
  8
0
 10
323.605162
 20
209.440421
 42
-0.001503
  0
VERTEX
  8
0
 10
321.309905
 20
206.770055
 42
-0.004421
  0
VERTEX
  8
0
 10
319.708892
 20
204.951433
 42
0.000000
  0
VERTEX
  8
0
 10
316.528794
 20
201.402865
 42
0.000000
  0
VERTEX
  8
0
 10
314.803595
 20
206.301739
 42
0.017072
  0
VERTEX
  8
0
 10
313.323715
 20
210.086417
 42
0.059847
  0
VERTEX
  8
0
 10
312.010587
 20
212.346018
 42
0.101261
  0
VERTEX
  8
0
 10
310.628049
 20
213.565905
 42
0.131029
  0
VERTEX
  8
0
 10
309.000000
 20
214.000000
 42
0.116596
  0
VERTEX
  8
0
 10
307.032927
 20
213.534974
 42
0.182847
  0
VERTEX
  8
0
 10
305.868634
 20
212.272117
 42
0.131936
  0
VERTEX
  8
0
 10
305.616344
 20
210.193038
 42
0.051198
  0
VERTEX
  8
0
 10
306.322343
 20
207.356127
 42
-0.009298
  0
VERTEX
  8
0
 10
308.365083
 20
201.345727
 42
-0.030296
  0
VERTEX
  8
0
 10
309.398538
 20
197.272081
 42
-0.036405
  0
VERTEX
  8
0
 10
309.832891
 20
193.515043
 42
-0.018561
  0
VERTEX
  8
0
 10
309.857630
 20
188.761068
 42
0.010409
  0
VERTEX
  8
0
 10
309.825394
 20
185.856039
 42
0.013600
  0
VERTEX
  8
0
 10
309.923458
 20
183.201111
 42
0.011173
  0
VERTEX
  8
0
 10
310.113452
 20
181.009191
 42
0.111652
  0
VERTEX
  8
0
 10
310.410890
 20
180.144183
 42
0.345063
  0
VERTEX
  8
0
 10
311.698824
 20
179.670133
 42
0.152406
  0
VERTEX
  8
0
 10
313.277106
 20
180.783458
 42
0.077346
  0
VERTEX
  8
0
 10
314.754243
 20
183.490012
 42
0.053266
  0
VERTEX
  8
0
 10
315.582014
 20
186.890710
 42
-0.057642
  0
VERTEX
  8
0
 10
316.321304
 20
189.816563
 42
-0.051976
  0
VERTEX
  8
0
 10
317.726774
 20
192.607496
 42
-0.028904
  0
VERTEX
  8
0
 10
320.342120
 20
196.208395
 42
-0.005477
  0
VERTEX
  8
0
 10
325.552332
 20
202.433145
 42
0.007827
  0
VERTEX
  8
0
 10
331.682994
 20
209.827940
 42
0.031376
  0
VERTEX
  8
0
 10
335.066671
 20
214.630069
 42
0.053938
  0
VERTEX
  8
0
 10
336.683043
 20
218.034112
 42
0.177312
  0
VERTEX
  8
0
 10
336.645266
 20
220.482040
 42
0.193886
  0
VERTEX
  8
0
 10
335.661957
 20
221.538762
 42
0.257932
  0
VERTEX
  8
0
 10
334.376997
 20
221.453173
 42
0.068284
  0
VERTEX
  8
0
 10
332.355998
 20
219.724042
 42
0.008144
  0
SEQEND
  0
POLYLINE
  8
0
 66
1
 70
1
  0
VERTEX
  8
0
 10
200.200000
 20
218.800000
 42
0.047523
  0
VERTEX
  8
0
 10
199.740718
 20
218.244001
 42
0.037527
  0
VERTEX
  8
0
 10
199.352500
 20
217.566639
 42
0.038709
  0
VERTEX
  8
0
 10
199.086349
 20
216.876417
 42
0.072791
  0
VERTEX
  8
0
 10
199.000000
 20
216.286431
 42
-0.050150
  0
VERTEX
  8
0
 10
198.937064
 20
215.660528
 42
-0.021822
  0
VERTEX
  8
0
 10
198.734880
 20
214.848647
 42
-0.021333
  0
VERTEX
  8
0
 10
198.443013
 20
213.997546
 42
-0.026585
  0
VERTEX
  8
0
 10
198.097464
 20
213.236431
 42
0.026221
  0
VERTEX
  8
0
 10
197.667190
 20
212.290522
 42
0.007093
  0
VERTEX
  8
0
 10
197.086699
 20
210.749663
 42
0.007160
  0
VERTEX
  8
0
 10
196.476780
 20
208.979309
 42
0.007371
  0
VERTEX
  8
0
 10
195.923949
 20
207.209229
 42
0.014020
  0
VERTEX
  8
0
 10
195.281374
 20
204.793148
 42
0.070303
  0
VERTEX
  8
0
 10
195.153745
 20
203.402604
 42
0.114800
  0
VERTEX
  8
0
 10
195.446487
 20
202.374690
 42
0.069952
  0
VERTEX
  8
0
 10
196.209820
 20
201.361608
 42
0.172494
  0
VERTEX
  8
0
 10
197.980934
 20
200.519627
 42
0.157327
  0
VERTEX
  8
0
 10
199.964655
 20
200.942341
 42
0.123356
  0
VERTEX
  8
0
 10
201.683680
 20
202.600971
 42
0.090347
  0
VERTEX
  8
0
 10
202.665039
 20
205.075194
 42
-0.029680
  0
VERTEX
  8
0
 10
203.317062
 20
207.558797
 42
-0.249295
  0
VERTEX
  8
0
 10
204.124802
 20
208.335926
 42
-0.225817
  0
VERTEX
  8
0
 10
205.281538
 20
208.141258
 42
-0.024740
  0
VERTEX
  8
0
 10
207.467914
 20
206.443058
 42
0.026830
  0
VERTEX
  8
0
 10
209.615910
 20
204.789007
 42
0.102535
  0
VERTEX
  8
0
 10
211.165207
 20
204.137256
 42
0.155570
  0
VERTEX
  8
0
 10
212.481009
 20
204.289003
 42
0.090726
  0
VERTEX
  8
0
 10
213.800000
 20
205.200000
 42
0.134834
  0
VERTEX
  8
0
 10
214.692954
 20
206.769218
 42
0.177923
  0
VERTEX
  8
0
 10
214.525321
 20
208.393115
 42
0.073978
  0
VERTEX
  8
0
 10
213.037833
 20
210.554765
 42
0.010744
  0
VERTEX
  8
0
 10
209.302390
 20
214.392543
 42
0.009463
  0
VERTEX
  8
0
 10
205.376014
 20
218.113166
 42
0.072285
  0
VERTEX
  8
0
 10
203.275780
 20
219.535427
 42
0.180849
  0
VERTEX
  8
0
 10
201.720230
 20
219.680675
 42
0.130908
  0
SEQEND
  0
POLYLINE
  8
0
 66
1
 70
1
  0
VERTEX
  8
0
 10
172.615010
 20
206.535183
 42
0.018482
  0
VERTEX
  8
0
 10
171.996807
 20
205.511032
 42
0.020116
  0
VERTEX
  8
0
 10
171.474409
 20
204.472079
 42
0.020054
  0
VERTEX
  8
0
 10
171.101031
 20
203.552154
 42
0.086581
  0
VERTEX
  8
0
 10
171.000000
 20
202.973081
 42
-0.059516
  0
VERTEX
  8
0
 10
170.918951
 20
202.294584
 42
-0.006096
  0
VERTEX
  8
0
 10
170.518382
 20
200.725661
 42
-0.007538
  0
VERTEX
  8
0
 10
169.988308
 20
198.862947
 42
-0.005949
  0
VERTEX
  8
0
 10
169.360451
 20
196.863161
 42
0.009462
  0
VERTEX
  8
0
 10
168.451117
 20
193.894034
 42
0.066718
  0
VERTEX
  8
0
 10
168.233312
 20
192.402801
 42
0.127471
  0
VERTEX
  8
0
 10
168.493416
 20
191.348058
 42
0.072638
  0
VERTEX
  8
0
 10
169.282909
 20
190.288519
 42
0.135554
  0
VERTEX
  8
0
 10
170.956538
 20
189.339282
 42
0.191329
  0
VERTEX
  8
0
 10
172.637708
 20
189.561847
 42
0.119469
  0
VERTEX
  8
0
 10
174.292605
 20
191.095895
 42
0.041152
  0
VERTEX
  8
0
 10
175.877276
 20
193.974623
 42
0.000000
  0
VERTEX
  8
0
 10
177.670415
 20
197.979729
 42
0.000000
  0
VERTEX
  8
0
 10
180.009522
 20
195.489865
 42
0.031406
  0
VERTEX
  8
0
 10
181.024546
 20
194.537008
 42
0.032581
  0
VERTEX
  8
0
 10
182.139061
 20
193.731398
 42
0.034472
  0
VERTEX
  8
0
 10
183.189983
 20
193.168371
 42
0.106125
  0
VERTEX
  8
0
 10
183.974314
 20
193.000000
 42
0.105587
  0
VERTEX
  8
0
 10
185.392116
 20
193.302778
 42
0.080803
  0
VERTEX
  8
0
 10
186.719918
 20
194.176596
 42
0.083148
  0
VERTEX
  8
0
 10
187.670258
 20
195.397098
 42
0.124556
  0
VERTEX
  8
0
 10
188.000000
 20
196.700237
 42
0.191306
  0
VERTEX
  8
0
 10
187.270468
 20
198.537171
 42
0.008633
  0
VERTEX
  8
0
 10
182.433874
 20
203.491698
 42
0.008703
  0
VERTEX
  8
0
 10
177.431498
 20
208.272678
 42
0.188529
  0
VERTEX
  8
0
 10
175.571119
 20
209.000000
 42
0.132008
  0
VERTEX
  8
0
 10
174.944645
 20
208.831668
 42
0.042531
  0
VERTEX
  8
0
 10
174.149558
 20
208.275960
 42
0.039005
  0
VERTEX
  8
0
 10
173.331970
 20
207.478418
 42
0.034964
  0
SEQEND
  0
POLYLINE
  8
0
 66
1
 70
1
  0
VERTEX
  8
0
 10
236.779222
 20
202.750000
 42
0.040384
  0
VERTEX
  8
0
 10
236.138502
 20
201.554495
 42
0.013591
  0
VERTEX
  8
0
 10
235.396569
 20
199.718719
 42
0.013421
  0
VERTEX
  8
0
 10
234.682715
 20
197.635038
 42
0.014974
  0
VERTEX
  8
0
 10
234.109606
 20
195.590320
 42
0.012226
  0
VERTEX
  8
0
 10
233.511312
 20
192.900648
 42
0.057492
  0
VERTEX
  8
0
 10
233.385687
 20
191.325140
 42
0.100021
  0
VERTEX
  8
0
 10
233.651076
 20
190.215071
 42
0.088064
  0
VERTEX
  8
0
 10
234.333887
 20
189.237542
 42
0.149024
  0
VERTEX
  8
0
 10
235.982979
 20
188.358934
 42
0.140558
  0
VERTEX
  8
0
 10
237.884073
 20
188.522122
 42
0.122497
  0
VERTEX
  8
0
 10
239.605530
 20
189.721939
 42
0.099469
  0
VERTEX
  8
0
 10
240.726570
 20
191.679711
 42
-0.014704
  0
VERTEX
  8
0
 10
241.299995
 20
193.244994
 42
-0.217945
  0
VERTEX
  8
0
 10
241.712691
 20
193.638073
 42
-0.264171
  0
VERTEX
  8
0
 10
242.229683
 20
193.541504
 42
-0.021052
  0
VERTEX
  8
0
 10
243.292983
 20
192.564160
 42
0.111669
  0
VERTEX
  8
0
 10
245.195372
 20
191.363542
 42
0.133863
  0
VERTEX
  8
0
 10
247.300368
 20
191.206597
 42
0.153520
  0
VERTEX
  8
0
 10
248.993661
 20
192.123710
 42
0.158574
  0
VERTEX
  8
0
 10
249.830444
 20
193.833125
 42
0.109835
  0
VERTEX
  8
0
 10
249.725916
 20
195.168843
 42
0.063666
  0
VERTEX
  8
0
 10
249.060466
 20
196.642906
 42
0.043749
  0
VERTEX
  8
0
 10
247.767101
 20
198.384922
 42
0.016605
  0
VERTEX
  8
0
 10
245.680727
 20
200.583125
 42
0.020755
  0
VERTEX
  8
0
 10
242.299497
 20
203.650596
 42
0.114622
  0
VERTEX
  8
0
 10
240.119449
 20
204.749856
 42
0.214828
  0
VERTEX
  8
0
 10
238.400745
 20
204.429214
 42
0.097917
  0
SEQEND
  0
POLYLINE
  8
0
 66
1
 70
1
  0
VERTEX
  8
0
 10
210.298097
 20
195.750000
 42
0.087836
  0
VERTEX
  8
0
 10
209.295177
 20
193.790292
 42
0.007513
  0
VERTEX
  8
0
 10
207.715111
 20
188.352231
 42
0.009111
  0
VERTEX
  8
0
 10
206.328665
 20
182.911661
 42
0.057890
  0
VERTEX
  8
0
 10
206.000000
 20
180.082486
 42
0.175874
  0
VERTEX
  8
0
 10
206.643846
 20
178.308681
 42
0.176472
  0
VERTEX
  8
0
 10
208.274618
 20
177.363939
 42
0.147159
  0
VERTEX
  8
0
 10
210.378928
 20
177.610186
 42
0.120941
  0
VERTEX
  8
0
 10
212.187926
 20
178.983751
 42
0.035089
  0
VERTEX
  8
0
 10
212.881475
 20
179.974992
 42
0.030335
  0
VERTEX
  8
0
 10
213.467703
 20
181.101830
 42
0.031515
  0
VERTEX
  8
0
 10
213.873104
 20
182.191912
 42
0.073392
  0
VERTEX
  8
0
 10
214.000000
 20
183.051767
 42
-0.081819
  0
VERTEX
  8
0
 10
214.273850
 20
184.714086
 42
-0.293251
  0
VERTEX
  8
0
 10
215.076375
 20
185.354792
 42
-0.190873
  0
VERTEX
  8
0
 10
216.328530
 20
185.002886
 42
-0.041380
  0
VERTEX
  8
0
 10
218.028954
 20
183.469180
 42
0.055966
  0
VERTEX
  8
0
 10
219.967323
 20
181.820570
 42
0.114201
  0
VERTEX
  8
0
 10
221.822611
 20
181.110432
 42
0.143482
  0
VERTEX
  8
0
 10
223.517302
 20
181.361145
 42
0.112010
  0
VERTEX
  8
0
 10
225.000000
 20
182.500000
 42
0.157942
  0
VERTEX
  8
0
 10
225.543249
 20
183.862378
 42
0.153883
  0
VERTEX
  8
0
 10
225.192405
 20
185.300802
 42
0.049423
  0
VERTEX
  8
0
 10
223.593585
 20
187.433129
 42
0.004589
  0
VERTEX
  8
0
 10
219.094327
 20
192.250000
 42
0.023616
  0
VERTEX
  8
0
 10
215.979977
 20
195.228320
 42
0.084490
  0
VERTEX
  8
0
 10
213.635868
 20
196.656720
 42
0.161633
  0
VERTEX
  8
0
 10
211.803825
 20
196.763464
 42
0.166581
  0
SEQEND
  0
POLYLINE
  8
0
 66
1
 70
1
  0
VERTEX
  8
0
 10
184.397456
 20
185.234687
 42
0.151024
  0
VERTEX
  8
0
 10
183.434022
 20
184.051123
 42
0.011358
  0
VERTEX
  8
0
 10
181.954122
 20
180.128106
 42
0.016294
  0
VERTEX
  8
0
 10
180.543684
 20
175.654715
 42
0.018978
  0
VERTEX
  8
0
 10
179.506228
 20
171.319534
 42
0.028683
  0
VERTEX
  8
0
 10
179.273570
 20
169.663672
 42
0.095237
  0
VERTEX
  8
0
 10
179.391204
 20
168.575251
 42
0.126213
  0
VERTEX
  8
0
 10
179.876153
 20
167.781896
 42
0.070024
  0
VERTEX
  8
0
 10
180.797677
 20
167.108280
 42
0.132729
  0
VERTEX
  8
0
 10
182.545259
 20
166.703736
 42
0.154254
  0
VERTEX
  8
0
 10
184.146395
 20
167.274676
 42
0.100608
  0
VERTEX
  8
0
 10
185.616926
 20
168.945810
 42
0.036707
  0
VERTEX
  8
0
 10
186.987959
 20
171.800728
 42
0.000000
  0
VERTEX
  8
0
 10
188.284665
 20
175.101456
 42
0.000000
  0
VERTEX
  8
0
 10
191.043460
 20
172.458363
 42
0.062017
  0
VERTEX
  8
0
 10
193.408345
 20
170.697211
 42
0.150586
  0
VERTEX
  8
0
 10
195.510861
 20
170.232995
 42
0.217165
  0
VERTEX
  8
0
 10
197.017393
 20
171.074323
 42
0.132306
  0
VERTEX
  8
0
 10
197.769201
 20
173.008551
 42
0.106126
  0
VERTEX
  8
0
 10
197.616970
 20
174.469463
 42
0.057108
  0
VERTEX
  8
0
 10
196.859654
 20
176.123462
 42
0.038888
  0
VERTEX
  8
0
 10
195.421320
 20
178.133055
 42
0.014169
  0
VERTEX
  8
0
 10
193.092154
 20
180.750000
 42
0.014219
  0
VERTEX
  8
0
 10
189.860353
 20
183.990511
 42
0.070643
  0
VERTEX
  8
0
 10
187.768082
 20
185.475551
 42
0.139580
  0
VERTEX
  8
0
 10
186.077723
 20
185.816158
 42
0.128007
  0
SEQEND
  0
POLYLINE
  8
0
 66
1
 70
1
  0
VERTEX
  8
0
 10
262.708108
 20
176.528514
 42
0.070453
  0
VERTEX
  8
0
 10
262.054338
 20
175.891973
 42
0.048236
  0
VERTEX
  8
0
 10
261.501757
 20
175.013869
 42
0.048093
  0
VERTEX
  8
0
 10
261.125861
 20
174.042326
 42
0.068370
  0
VERTEX
  8
0
 10
261.000000
 20
173.126189
 42
0.043044
  0
VERTEX
  8
0
 10
261.135220
 20
171.558392
 42
0.049262
  0
VERTEX
  8
0
 10
261.537102
 20
170.109201
 42
0.025068
  0
VERTEX
  8
0
 10
262.416422
 20
168.135326
 42
0.003500
  0
VERTEX
  8
0
 10
264.467022
 20
164.159812
 42
-0.028270
  0
VERTEX
  8
0
 10
265.078887
 20
162.813926
 42
-0.039886
  0
VERTEX
  8
0
 10
265.456013
 20
161.552152
 42
-0.045487
  0
VERTEX
  8
0
 10
265.579491
 20
160.526323
 42
-0.210387
  0
VERTEX
  8
0
 10
265.359812
 20
159.985513
 42
-0.058642
  0
VERTEX
  8
0
 10
263.716446
 20
158.728220
 42
-0.002414
  0
VERTEX
  8
0
 10
257.301993
 20
154.960397
 42
-0.004688
  0
VERTEX
  8
0
 10
250.841470
 20
151.287932
 42
-0.011457
  0
VERTEX
  8
0
 10
246.000000
 20
148.739005
 42
0.009660
  0
VERTEX
  8
0
 10
244.251962
 20
147.826714
 42
0.013381
  0
VERTEX
  8
0
 10
242.723958
 20
146.937395
 42
0.009896
  0
VERTEX
  8
0
 10
241.498258
 20
146.145447
 42
0.140702
  0
VERTEX
  8
0
 10
241.166667
 20
145.750000
 42
-0.156091
  0
VERTEX
  8
0
 10
240.909700
 20
145.461648
 42
-0.050893
  0
VERTEX
  8
0
 10
240.385565
 20
145.220313
 42
-0.044955
  0
VERTEX
  8
0
 10
239.711168
 20
145.055305
 42
-0.037545
  0
VERTEX
  8
0
 10
238.975684
 20
145.000000
 42
0.048870
  0
VERTEX
  8
0
 10
238.219255
 20
144.925890
 42
0.047176
  0
VERTEX
  8
0
 10
237.482171
 20
144.706250
 42
0.050954
  0
VERTEX
  8
0
 10
236.870613
 20
144.383416
 42
0.107838
  0
VERTEX
  8
0
 10
236.500000
 20
144.000000
 42
-0.220233
  0
VERTEX
  8
0
 10
235.144710
 20
143.104916
 42
-0.107299
  0
VERTEX
  8
0
 10
233.029902
 20
143.239701
 42
-0.072577
  0
VERTEX
  8
0
 10
230.407630
 20
144.418068
 42
-0.041507
  0
VERTEX
  8
0
 10
227.639582
 20
146.523203
 42
0.034164
  0
VERTEX
  8
0
 10
224.634432
 20
148.879009
 42
0.107144
  0
VERTEX
  8
0
 10
222.268140
 20
149.832615
 42
0.178119
  0
VERTEX
  8
0
 10
220.426494
 20
149.491919
 42
0.136827
  0
VERTEX
  8
0
 10
219.001373
 20
148.002566
 42
0.197505
  0
VERTEX
  8
0
 10
218.848272
 20
146.497950
 42
0.080934
  0
VERTEX
  8
0
 10
219.758282
 20
144.614574
 42
0.032348
  0
VERTEX
  8
0
 10
222.084263
 20
141.716323
 42
0.004244
  0
VERTEX
  8
0
 10
227.466189
 20
135.932896
 42
-0.006189
  0
VERTEX
  8
0
 10
232.240904
 20
130.761801
 42
-0.023970
  0
VERTEX
  8
0
 10
235.002193
 20
127.383639
 42
-0.038757
  0
VERTEX
  8
0
 10
236.538539
 20
124.932323
 42
-0.121182
  0
VERTEX
  8
0
 10
237.000000
 20
123.056284
 42
-0.094152
  0
VERTEX
  8
0
 10
236.491873
 20
120.381763
 42
-0.018197
  0
VERTEX
  8
0
 10
234.511722
 20
115.849294
 42
-0.014668
  0
VERTEX
  8
0
 10
232.232348
 20
111.445418
 42
-0.168945
  0
VERTEX
  8
0
 10
230.800906
 20
110.166667
 42
0.093526
  0
VERTEX
  8
0
 10
230.494643
 20
109.965619
 42
0.064716
  0
VERTEX
  8
0
 10
230.235266
 20
109.640997
 42
0.062600
  0
VERTEX
  8
0
 10
230.059787
 20
109.247892
 42
0.073837
  0
VERTEX
  8
0
 10
230.000000
 20
108.845238
 42
-0.105654
  0
VERTEX
  8
0
 10
229.896466
 20
108.360741
 42
-0.031898
  0
VERTEX
  8
0
 10
229.543743
 20
107.691138
 42
-0.030389
  0
VERTEX
  8
0
 10
229.041223
 20
106.971167
 42
-0.028827
  0
VERTEX
  8
0
 10
228.446783
 20
106.303926
 42
0.115998
  0
VERTEX
  8
0
 10
227.513619
 20
104.796934
 42
0.088699
  0
VERTEX
  8
0
 10
227.229624
 20
102.872761
 42
0.101025
  0
VERTEX
  8
0
 10
227.630181
 20
101.175530
 42
0.207896
  0
VERTEX
  8
0
 10
228.629808
 20
100.285059
 42
0.309570
  0
VERTEX
  8
0
 10
231.623209
 20
101.154482
 42
0.030310
  0
VERTEX
  8
0
 10
236.275671
 20
107.574515
 42
0.035651
  0
VERTEX
  8
0
 10
240.434294
 20
115.274006
 42
0.064234
  0
VERTEX
  8
0
 10
242.521241
 20
122.125726
 42
0.037793
  0
VERTEX
  8
0
 10
242.730025
 20
124.393206
 42
0.072045
  0
VERTEX
  8
0
 10
242.497612
 20
126.205121
 42
0.057745
  0
VERTEX
  8
0
 10
241.715468
 20
128.125488
 42
0.017097
  0
VERTEX
  8
0
 10
240.091305
 20
130.857714
 42
-0.008217
  0
VERTEX
  8
0
 10
238.907212
 20
132.771436
 42
-0.011218
  0
VERTEX
  8
0
 10
237.908071
 20
134.535995
 42
-0.008204
  0
VERTEX
  8
0
 10
237.136680
 20
136.030904
 42
-0.115502
  0
VERTEX
  8
0
 10
237.000000
 20
136.614690
 42
-0.256005
  0
VERTEX
  8
0
 10
237.281927
 20
137.129231
 42
-0.006767
  0
VERTEX
  8
0
 10
239.570312
 20
138.547318
 42
-0.012580
  0
VERTEX
  8
0
 10
242.396293
 20
140.150680
 42
-0.008075
  0
VERTEX
  8
0
 10
245.750000
 20
141.874417
 42
0.006968
  0
VERTEX
  8
0
 10
249.694200
 20
143.890622
 42
0.004143
  0
VERTEX
  8
0
 10
254.338272
 20
146.396264
 42
0.004145
  0
VERTEX
  8
0
 10
258.927634
 20
148.971503
 42
0.007140
  0
VERTEX
  8
0
 10
262.699436
 20
151.201373
 42
0.000000
  0
VERTEX
  8
0
 10
270.898873
 20
156.208198
 42
0.000000
  0
VERTEX
  8
0
 10
273.832562
 20
154.119227
 42
-0.036458
  0
VERTEX
  8
0
 10
276.978836
 20
151.513697
 42
-0.027607
  0
VERTEX
  8
0
 10
280.039092
 20
148.235658
 42
-0.027606
  0
VERTEX
  8
0
 10
282.494079
 20
144.942858
 42
-0.085093
  0
VERTEX
  8
0
 10
283.611756
 20
142.410752
 42
-0.075538
  0
VERTEX
  8
0
 10
283.949567
 20
138.869891
 42
-0.035961
  0
VERTEX
  8
0
 10
283.365817
 20
134.318609
 42
-0.028501
  0
VERTEX
  8
0
 10
281.899677
 20
128.727261
 42
-0.014772
  0
VERTEX
  8
0
 10
279.470724
 20
121.925079
 42
0.012079
  0
VERTEX
  8
0
 10
276.331977
 20
113.282399
 42
0.173063
  0
VERTEX
  8
0
 10
276.391698
 20
110.059947
 42
0.325816
  0
VERTEX
  8
0
 10
278.422906
 20
108.730338
 42
0.037274
  0
VERTEX
  8
0
 10
284.183117
 20
109.453299
 42
-0.031048
  0
VERTEX
  8
0
 10
286.520669
 20
109.776262
 42
-0.172296
  0
VERTEX
  8
0
 10
287.725221
 20
109.448043
 42
-0.113832
  0
VERTEX
  8
0
 10
288.711812
 20
108.360670
 42
-0.010283
  0
VERTEX
  8
0
 10
290.449963
 20
105.098744
 42
0.021756
  0
VERTEX
  8
0
 10
291.581786
 20
103.087266
 42
0.032739
  0
VERTEX
  8
0
 10
292.753123
 20
101.451675
 42
0.035926
  0
VERTEX
  8
0
 10
293.837034
 20
100.308426
 42
0.187195
  0
VERTEX
  8
0
 10
294.631976
 20
100.000000
 42
0.129597
  0
VERTEX
  8
0
 10
295.447968
 20
100.215114
 42
0.027913
  0
VERTEX
  8
0
 10
296.687895
 20
101.012192
 42
0.027375
  0
VERTEX
  8
0
 10
298.060842
 20
102.126703
 42
0.023159
  0
VERTEX
  8
0
 10
299.386451
 20
103.445759
 42
0.000000
  0
VERTEX
  8
0
 10
302.542644
 20
106.891517
 42
0.000000
  0
VERTEX
  8
0
 10
305.911766
 20
103.445759
 42
0.017284
  0
VERTEX
  8
0
 10
307.294191
 20
102.126350
 42
0.021956
  0
VERTEX
  8
0
 10
308.661843
 20
101.012192
 42
0.020658
  0
VERTEX
  8
0
 10
309.860237
 20
100.195146
 42
0.140179
  0
VERTEX
  8
0
 10
310.542620
 20
100.000000
 42
0.268877
  0
VERTEX
  8
0
 10
311.718874
 20
100.681827
 42
0.044049
  0
VERTEX
  8
0
 10
312.865110
 20
103.167370
 42
0.042545
  0
VERTEX
  8
0
 10
313.714180
 20
106.371790
 42
0.043522
  0
VERTEX
  8
0
 10
314.000000
 20
109.649223
 42
-0.024477
  0
VERTEX
  8
0
 10
314.098838
 20
111.666999
 42
-0.181603
  0
VERTEX
  8
0
 10
314.516038
 20
112.515072
 42
-0.169465
  0
VERTEX
  8
0
 10
315.404734
 20
112.910433
 42
-0.020714
  0
VERTEX
  8
0
 10
317.565741
 20
113.000000
 42
0.043474
  0
VERTEX
  8
0
 10
320.718453
 20
113.274639
 42
0.087771
  0
VERTEX
  8
0
 10
323.054294
 20
114.124319
 42
0.121620
  0
VERTEX
  8
0
 10
324.479632
 20
115.495463
 42
0.141617
  0
VERTEX
  8
0
 10
325.000000
 20
117.295859
 42
0.105505
  0
VERTEX
  8
0
 10
324.733181
 20
118.546273
 42
0.015804
  0
VERTEX
  8
0
 10
323.604688
 20
120.870142
 42
0.017167
  0
VERTEX
  8
0
 10
322.068691
 20
123.565265
 42
0.014056
  0
VERTEX
  8
0
 10
320.250000
 20
126.338469
 42
-0.005647
  0
VERTEX
  8
0
 10
314.578226
 20
134.677747
 42
-0.020117
  0
VERTEX
  8
0
 10
311.226867
 20
140.196565
 42
-0.030792
  0
VERTEX
  8
0
 10
309.163508
 20
144.534887
 42
-0.040578
  0
VERTEX
  8
0
 10
307.864106
 20
148.716635
 42
-0.022363
  0
VERTEX
  8
0
 10
307.276666
 20
152.030520
 42
-0.053765
  0
VERTEX
  8
0
 10
307.218674
 20
154.519257
 42
-0.042603
  0
VERTEX
  8
0
 10
307.691866
 20
157.287751
 42
-0.009930
  0
VERTEX
  8
0
 10
308.969895
 20
161.829545
 42
0.006454
  0
VERTEX
  8
0
 10
310.932160
 20
168.621474
 42
0.034124
  0
VERTEX
  8
0
 10
311.701982
 20
172.416690
 42
0.067873
  0
VERTEX
  8
0
 10
311.693124
 20
174.854433
 42
0.139278
  0
VERTEX
  8
0
 10
310.927830
 20
176.586959
 42
0.046794
  0
VERTEX
  8
0
 10
310.135559
 20
177.377892
 42
0.237244
  0
VERTEX
  8
0
 10
309.545354
 20
177.513074
 42
0.152345
  0
VERTEX
  8
0
 10
308.911583
 20
177.130514
 42
0.017406
  0
VERTEX
  8
0
 10
307.835222
 20
175.827801
 42
0.024595
  0
VERTEX
  8
0
 10
307.148193
 20
174.837559
 42
0.024819
  0
VERTEX
  8
0
 10
306.563973
 20
173.787561
 42
0.025571
  0
VERTEX
  8
0
 10
306.149239
 20
172.825419
 42
0.085047
  0
VERTEX
  8
0
 10
306.022236
 20
172.151129
 42
-0.056681
  0
VERTEX
  8
0
 10
305.928315
 20
171.431191
 42
-0.013736
  0
VERTEX
  8
0
 10
305.607188
 20
170.272845
 42
-0.013916
  0
VERTEX
  8
0
 10
305.162561
 20
168.956482
 42
-0.013434
  0
VERTEX
  8
0
 10
304.640532
 20
167.651129
 42
0.007919
  0
VERTEX
  8
0
 10
302.578536
 20
162.655527
 42
0.033272
  0
VERTEX
  8
0
 10
301.591431
 20
159.564434
 42
0.042209
  0
VERTEX
  8
0
 10
301.140281
 20
156.736791
 42
0.018464
  0
VERTEX
  8
0
 10
301.000000
 20
152.939378
 42
0.012752
  0
VERTEX
  8
0
 10
301.061514
 20
150.527782
 42
0.014340
  0
VERTEX
  8
0
 10
301.246156
 20
148.215450
 42
0.013684
  0
VERTEX
  8
0
 10
301.512444
 20
146.265576
 42
0.071754
  0
VERTEX
  8
0
 10
301.837977
 20
145.236431
 42
0.000014
  0
VERTEX
  8
0
 10
302.318465
 20
144.240849
 42
0.000002
  0
VERTEX
  8
0
 10
303.209646
 20
142.394452
 42
0.000003
  0
VERTEX
  8
0
 10
304.252910
 20
140.233016
 42
0.000002
  0
VERTEX
  8
0
 10
305.330752
 20
138.000000
 42
0.020934
  0
VERTEX
  8
0
 10
306.669796
 20
135.498996
 42
0.011003
  0
VERTEX
  8
0
 10
308.529699
 20
132.502083
 42
0.010927
  0
VERTEX
  8
0
 10
310.573203
 20
129.510553
 42
0.016503
  0
VERTEX
  8
0
 10
312.492774
 20
127.007092
 42
-0.005779
  0
VERTEX
  8
0
 10
314.219927
 20
124.851907
 42
-0.008611
  0
VERTEX
  8
0
 10
315.676002
 20
122.923798
 42
-0.004465
  0
VERTEX
  8
0
 10
316.857557
 20
121.271053
 42
-0.154136
  0
VERTEX
  8
0
 10
317.000000
 20
120.819962
 42
-0.358882
  0
VERTEX
  8
0
 10
316.803917
 20
120.581961
 42
-0.036546
  0
VERTEX
  8
0
 10
316.022996
 20
120.488215
 42
-0.032648
  0
VERTEX
  8
0
 10
314.949277
 20
120.508464
 42
-0.019189
  0
VERTEX
  8
0
 10
313.674030
 20
120.665472
 42
0.083256
  0
VERTEX
  8
0
 10
310.651851
 20
120.649593
 42
0.162819
  0
VERTEX
  8
0
 10
308.555562
 20
119.520152
 42
0.156297
  0
VERTEX
  8
0
 10
307.507635
 20
117.315503
 42
0.075138
  0
VERTEX
  8
0
 10
307.559416
 20
114.151700
 42
0.000000
  0
VERTEX
  8
0
 10
308.172576
 20
110.500000
 42
0.000000
  0
VERTEX
  8
0
 10
306.100986
 20
113.750000
 42
0.079087
  0
VERTEX
  8
0
 10
303.756343
 20
116.394755
 42
0.196901
  0
VERTEX
  8
0
 10
301.331616
 20
117.141633
 42
0.192151
  0
VERTEX
  8
0
 10
299.036934
 20
115.976886
 42
0.075260
  0
VERTEX
  8
0
 10
297.082680
 20
112.935936
 42
-0.031915
  0
VERTEX
  8
0
 10
295.821056
 20
110.540480
 42
-0.346224
  0
VERTEX
  8
0
 10
294.863354
 20
110.184784
 42
-0.295628
  0
VERTEX
  8
0
 10
294.158566
 20
111.047623
 42
-0.027516
  0
VERTEX
  8
0
 10
294.000000
 20
113.926800
 42
0.084609
  0
VERTEX
  8
0
 10
293.863684
 20
114.726598
 42
0.040724
  0
VERTEX
  8
0
 10
293.439210
 20
115.679586
 42
0.038848
  0
VERTEX
  8
0
 10
292.821444
 20
116.626432
 42
0.044901
  0
VERTEX
  8
0
 10
292.090927
 20
117.417713
 42
0.036383
  0
VERTEX
  8
0
 10
290.881018
 20
118.362226
 42
0.144530
  0
VERTEX
  8
0
 10
289.991083
 20
118.640467
 42
0.107811
  0
VERTEX
  8
0
 10
288.949083
 20
118.430501
 42
0.015905
  0
VERTEX
  8
0
 10
286.997996
 20
117.498964
 42
-0.014088
  0
VERTEX
  8
0
 10
285.748896
 20
116.897004
 42
-0.021567
  0
VERTEX
  8
0
 10
284.631846
 20
116.453720
 42
-0.017366
  0
VERTEX
  8
0
 10
283.719170
 20
116.171477
 42
-0.268858
  0
VERTEX
  8
0
 10
283.413964
 20
116.252703
 42
-0.276947
  0
VERTEX
  8
0
 10
283.333642
 20
116.573894
 42
-0.011132
  0
VERTEX
  8
0
 10
283.724503
 20
117.763034
 42
-0.016786
  0
VERTEX
  8
0
 10
284.288071
 20
119.201520
 42
-0.010777
  0
VERTEX
  8
0
 10
285.033067
 20
120.832306
 42
0.014084
  0
VERTEX
  8
0
 10
285.850421
 20
122.653240
 42
0.011056
  0
VERTEX
  8
0
 10
286.636311
 20
124.669665
 42
0.011212
  0
VERTEX
  8
0
 10
287.283958
 20
126.578506
 42
0.026827
  0
VERTEX
  8
0
 10
287.655335
 20
128.026676
 42
-0.022358
  0
VERTEX
  8
0
 10
287.950114
 20
129.220364
 42
-0.026602
  0
VERTEX
  8
0
 10
288.337005
 20
130.314078
 42
-0.026923
  0
VERTEX
  8
0
 10
288.754419
 20
131.184790
 42
-0.129812
  0
VERTEX
  8
0
 10
289.129162
 20
131.579826
 42
0.207027
  0
VERTEX
  8
0
 10
289.471559
 20
132.070834
 42
0.016274
  0
VERTEX
  8
0
 10
289.744191
 20
133.677340
 42
0.020003
  0
VERTEX
  8
0
 10
289.936678
 20
135.685564
 42
0.013890
  0
VERTEX
  8
0
 10
290.000000
 20
137.964516
 42
0.052820
  0
VERTEX
  8
0
 10
289.444161
 20
143.211499
 42
0.065045
  0
VERTEX
  8
0
 10
287.799460
 20
147.846394
 42
0.063024
  0
VERTEX
  8
0
 10
284.968008
 20
152.013842
 42
0.045611
  0
VERTEX
  8
0
 10
280.882712
 20
155.873266
 42
-0.029020
  0
VERTEX
  8
0
 10
277.575854
 20
158.796155
 42
-0.030504
  0
VERTEX
  8
0
 10
274.687964
 20
162.036536
 42
-0.030515
  0
VERTEX
  8
0
 10
272.216728
 20
165.603056
 42
-0.029087
  0
VERTEX
  8
0
 10
270.154260
 20
169.500000
 42
0.002689
  0
VERTEX
  8
0
 10
268.139201
 20
173.847822
 42
0.022558
  0
VERTEX
  8
0
 10
267.131463
 20
175.762516
 42
0.053498
  0
VERTEX
  8
0
 10
266.373636
 20
176.787866
 42
0.115766
  0
VERTEX
  8
0
 10
265.567513
 20
177.335719
 42
0.112526
  0
VERTEX
  8
0
 10
265.004216
 20
177.416421
 42
0.048369
  0
VERTEX
  8
0
 10
264.252653
 20
177.280843
 42
0.044562
  0
VERTEX
  8
0
 10
263.446812
 20
176.973648
 42
0.044555
  0
SEQEND
  0
POLYLINE
  8
0
 66
1
 70
1
  0
VERTEX
  8
0
 10
110.231967
 20
165.533148
 42
0.020617
  0
VERTEX
  8
0
 10
106.395266
 20
163.298320
 42
0.053566
  0
VERTEX
  8
0
 10
103.903551
 20
161.301029
 42
0.078618
  0
VERTEX
  8
0
 10
102.487982
 20
159.364242
 42
0.119119
  0
VERTEX
  8
0
 10
102.000000
 20
157.345012
 42
0.054376
  0
VERTEX
  8
0
 10
102.130595
 20
156.147713
 42
0.165966
  0
VERTEX
  8
0
 10
102.549452
 20
155.458715
 42
0.140012
  0
VERTEX
  8
0
 10
103.355285
 20
155.101339
 42
0.034816
  0
VERTEX
  8
0
 10
104.808870
 20
155.000000
 42
0.043991
  0
VERTEX
  8
0
 10
106.026424
 20
155.107332
 42
0.030992
  0
VERTEX
  8
0
 10
107.362842
 20
155.431283
 42
0.031424
  0
VERTEX
  8
0
 10
108.612345
 20
155.905320
 42
0.055589
  0
VERTEX
  8
0
 10
109.558870
 20
156.468197
 42
-0.023402
  0
VERTEX
  8
0
 10
111.198903
 20
157.592048
 42
-0.131750
  0
VERTEX
  8
0
 10
112.206930
 20
157.895031
 42
-0.298316
  0
VERTEX
  8
0
 10
112.782288
 20
157.542409
 42
-0.110735
  0
VERTEX
  8
0
 10
113.000000
 20
156.571429
 42
0.133493
  0
VERTEX
  8
0
 10
113.435206
 20
154.970402
 42
0.095312
  0
VERTEX
  8
0
 10
114.667194
 20
153.568234
 42
0.095472
  0
VERTEX
  8
0
 10
116.329381
 20
152.724952
 42
0.134530
  0
VERTEX
  8
0
 10
117.982409
 20
152.705651
 42
0.093300
  0
VERTEX
  8
0
 10
118.973569
 20
153.174499
 42
0.130638
  0
VERTEX
  8
0
 10
119.588942
 20
153.930684
 42
0.083802
  0
VERTEX
  8
0
 10
119.909853
 20
155.156374
 42
0.022219
  0
VERTEX
  8
0
 10
120.000000
 20
157.184019
 42
-0.050405
  0
VERTEX
  8
0
 10
120.261548
 20
159.771889
 42
-0.315262
  0
VERTEX
  8
0
 10
121.175073
 20
160.637629
 42
-0.134716
  0
VERTEX
  8
0
 10
122.988462
 20
160.418842
 42
-0.009139
  0
VERTEX
  8
0
 10
127.807899
 20
158.346095
 42
0.020947
  0
VERTEX
  8
0
 10
129.534679
 20
157.651275
 42
0.069613
  0
VERTEX
  8
0
 10
130.730723
 20
157.406750
 42
0.103121
  0
VERTEX
  8
0
 10
131.676555
 20
157.542790
 42
0.086303
  0
VERTEX
  8
0
 10
132.557899
 20
158.048052
 42
0.127692
  0
VERTEX
  8
0
 10
133.785798
 20
159.753322
 42
0.187814
  0
VERTEX
  8
0
 10
133.783519
 20
161.579089
 42
0.123558
  0
VERTEX
  8
0
 10
132.419061
 20
163.496732
 42
0.044132
  0
VERTEX
  8
0
 10
129.662142
 20
165.457846
 42
0.069865
  0
VERTEX
  8
0
 10
125.167587
 20
167.308441
 42
0.061881
  0
VERTEX
  8
0
 10
120.144290
 20
167.952299
 42
0.060666
  0
VERTEX
  8
0
 10
115.020575
 20
167.348473
 42
0.062010
  0
SEQEND
  0
POLYLINE
  8
0
 66
1
 70
1
  0
VERTEX
  8
0
 10
28.242976
 20
129.842976
 42
0.161195
  0
VERTEX
  8
0
 10
27.185526
 20
127.739186
 42
0.207300
  0
VERTEX
  8
0
 10
27.741870
 20
125.670275
 42
0.171253
  0
VERTEX
  8
0
 10
29.785815
 20
124.388599
 42
0.117225
  0
VERTEX
  8
0
 10
32.550071
 20
124.423211
 42
0.044698
  0
VERTEX
  8
0
 10
33.856634
 20
124.878406
 42
0.139322
  0
VERTEX
  8
0
 10
34.561610
 20
125.473937
 42
0.135944
  0
VERTEX
  8
0
 10
34.857758
 20
126.360863
 42
0.041731
  0
VERTEX
  8
0
 10
34.813057
 20
127.784878
 42
0.047719
  0
VERTEX
  8
0
 10
34.530804
 20
129.108081
 42
0.112375
  0
VERTEX
  8
0
 10
34.023956
 20
129.974446
 42
0.118903
  0
VERTEX
  8
0
 10
33.212831
 20
130.506974
 42
0.057042
  0
VERTEX
  8
0
 10
31.992976
 20
130.792976
 42
0.048605
  0
VERTEX
  8
0
 10
30.941859
 20
130.813162
 42
0.042571
  0
VERTEX
  8
0
 10
29.857266
 20
130.634766
 42
0.044841
  0
VERTEX
  8
0
 10
28.899812
 20
130.298518
 42
0.089750
  0
SEQEND
  0
POLYLINE
  8
0
 66
1
 70
1
  0
VERTEX
  8
0
 10
39.606989
 20
129.418213
 42
0.044648
  0
VERTEX
  8
0
 10
39.109548
 20
127.669704
 42
0.164920
  0
VERTEX
  8
0
 10
39.266361
 20
126.548514
 42
0.132637
  0
VERTEX
  8
0
 10
40.105001
 20
125.610630
 42
0.025060
  0
VERTEX
  8
0
 10
42.107704
 20
124.444304
 42
0.097403
  0
VERTEX
  8
0
 10
46.015769
 20
123.307579
 42
0.163139
  0
VERTEX
  8
0
 10
49.310732
 20
124.094959
 42
0.261417
  0
VERTEX
  8
0
 10
50.529498
 20
126.318437
 42
0.183412
  0
VERTEX
  8
0
 10
49.466294
 20
129.037245
 42
0.131031
  0
VERTEX
  8
0
 10
47.265335
 20
130.462489
 42
0.068973
  0
VERTEX
  8
0
 10
44.035485
 20
131.038051
 42
0.074219
  0
VERTEX
  8
0
 10
41.046666
 20
130.709328
 42
0.241190
  0
SEQEND
  0
ENDSEC
  0
EOF
