  0
SECTION
  2
HEADER
  9
$ACADVER
  1
AC1006
  9
$EXTMIN
 10
0.000000
 20
0.000000
 30
0.000000
  9
$EXTMAX
 10
512.000000
 20
512.000000
 30
0.000000
  0
ENDSEC
  0
SECTION
  2
ENTITIES
  0
POLYLINE
  8
0
 66
1
 70
1
  0
VERTEX
  8
0
 10
26.500000
 20
511.069933
 42
0.055614
  0
VERTEX
  8
0
 10
19.222954
 20
508.308471
 42
0.056039
  0
VERTEX
  8
0
 10
12.753714
 20
504.016539
 42
0.056110
  0
VERTEX
  8
0
 10
7.405980
 20
498.400947
 42
0.056028
  0
VERTEX
  8
0
 10
3.437579
 20
491.734312
 42
0.050744
  0
VERTEX
  8
0
 10
1.405614
 20
485.675562
 42
0.045664
  0
VERTEX
  8
0
 10
0.541242
 20
479.111206
 42
0.045235
  0
VERTEX
  8
0
 10
0.880291
 20
472.436103
 42
0.047609
  0
VERTEX
  8
0
 10
2.418379
 20
466.048788
 42
0.070455
  0
VERTEX
  8
0
 10
5.413466
 20
460.183497
 42
0.043531
  0
VERTEX
  8
0
 10
10.408920
 20
454.250426
 42
0.043221
  0
VERTEX
  8
0
 10
16.423416
 20
449.209240
 42
0.064297
  0
VERTEX
  8
0
 10
22.500000
 20
446.024186
 42
0.054766
  0
VERTEX
  8
0
 10
29.003428
 20
444.398576
 42
0.046759
  0
VERTEX
  8
0
 10
36.066900
 20
444.101238
 42
0.046704
  0
VERTEX
  8
0
 10
43.071554
 20
445.122087
 42
0.054292
  0
VERTEX
  8
0
 10
49.400569
 20
447.407551
 42
-0.010274
  0
VERTEX
  8
0
 10
51.620253
 20
448.437570
 42
-0.014605
  0
VERTEX
  8
0
 10
53.636265
 20
449.253824
 42
-0.010552
  0
VERTEX
  8
0
 10
55.325168
 20
449.840627
 42
-0.167597
  0
VERTEX
  8
0
 10
55.923524
 20
449.829368
 42
-0.061028
  0
VERTEX
  8
0
 10
56.582336
 20
449.492369
 42
-0.000358
  0
VERTEX
  8
0
 10
62.276649
 20
445.634640
 42
-0.001502
  0
VERTEX
  8
0
 10
68.761750
 20
441.205905
 42
-0.000954
  0
VERTEX
  8
0
 10
76.287726
 20
436.011960
 42
0.000000
  0
VERTEX
  8
0
 10
95.752193
 20
422.523920
 42
0.000000
  0
VERTEX
  8
0
 10
87.484970
 20
419.829360
 42
0.060877
  0
VERTEX
  8
0
 10
61.234565
 20
407.577528
 42
0.057095
  0
VERTEX
  8
0
 10
38.074891
 20
389.140522
 42
0.056747
  0
VERTEX
  8
0
 10
19.563340
 20
365.823270
 42
0.058657
  0
VERTEX
  8
0
 10
7.010793
 20
339.191607
 42
0.024891
  0
VERTEX
  8
0
 10
3.473082
 20
326.581095
 42
0.034556
  0
VERTEX
  8
0
 10
1.665996
 20
314.989409
 42
0.017009
  0
VERTEX
  8
0
 10
0.807885
 20
298.357924
 42
0.001960
  0
VERTEX
  8
0
 10
0.298330
 20
260.934716
 42
0.001898
  0
VERTEX
  8
0
 10
0.080905
 20
224.079772
 42
0.015006
  0
VERTEX
  8
0
 10
0.557347
 20
207.011499
 42
0.033347
  0
VERTEX
  8
0
 10
1.847891
 20
196.706425
 42
0.069554
  0
VERTEX
  8
0
 10
4.465190
 20
189.068694
 42
0.057486
  0
VERTEX
  8
0
 10
7.582731
 20
184.350245
 42
0.037090
  0
VERTEX
  8
0
 10
12.161780
 20
179.654922
 42
0.036945
  0
VERTEX
  8
0
 10
17.417885
 20
175.659767
 42
0.054567
  0
VERTEX
  8
0
 10
22.585881
 20
173.053752
 42
0.048644
  0
VERTEX
  8
0
 10
28.318518
 20
171.523766
 42
0.041631
  0
VERTEX
  8
0
 10
34.550150
 20
171.021758
 42
0.041306
  0
VERTEX
  8
0
 10
40.831495
 20
171.559465
 42
0.045901
  0
VERTEX
  8
0
 10
46.712487
 20
173.122043
 42
0.066396
  0
VERTEX
  8
0
 10
52.658154
 20
176.247982
 42
0.042572
  0
VERTEX
  8
0
 10
58.622559
 20
181.289345
 42
0.042751
  0
VERTEX
  8
0
 10
63.607156
 20
187.224972
 42
0.070477
  0
VERTEX
  8
0
 10
66.582742
 20
193.048788
 42
0.067415
  0
VERTEX
  8
0
 10
68.431399
 20
202.310727
 42
0.068498
  0
VERTEX
  8
0
 10
67.733134
 20
211.678559
 42
0.068118
  0
VERTEX
  8
0
 10
64.521354
 20
220.554083
 42
0.065462
  0
VERTEX
  8
0
 10
59.009825
 20
228.373515
 42
0.000000
  0
VERTEX
  8
0
 10
54.840465
 20
232.896737
 42
0.000000
  0
VERTEX
  8
0
 10
67.670232
 20
256.578093
 42
-0.007540
  0
VERTEX
  8
0
 10
77.238189
 20
273.620102
 42
-0.033524
  0
VERTEX
  8
0
 10
83.657719
 20
283.131928
 42
-0.055186
  0
VERTEX
  8
0
 10
89.543259
 20
289.189871
 42
-0.055580
  0
VERTEX
  8
0
 10
96.598085
 20
293.797114
 42
-0.036368
  0
VERTEX
  8
0
 10
102.531288
 20
296.269166
 42
-0.036281
  0
VERTEX
  8
0
 10
108.764804
 20
297.857790
 42
-0.029926
  0
VERTEX
  8
0
 10
116.143731
 20
298.726403
 42
-0.014337
  0
VERTEX
  8
0
 10
125.683659
 20
299.000000
 42
0.000000
  0
VERTEX
  8
0
 10
137.000000
 20
299.000000
 42
0.000000
  0
VERTEX
  8
0
 10
137.000000
 20
290.127808
 42
0.000000
  0
VERTEX
  8
0
 10
137.000000
 20
281.255616
 42
0.000000
  0
VERTEX
  8
0
 10
133.250000
 20
280.633172
 42
0.071687
  0
VERTEX
  8
0
 10
125.472231
 20
278.162184
 42
0.054324
  0
VERTEX
  8
0
 10
117.873538
 20
273.405760
 42
0.052876
  0
VERTEX
  8
0
 10
111.271732
 20
266.959475
 42
0.058882
  0
VERTEX
  8
0
 10
106.439618
 20
259.487237
 42
0.020776
  0
VERTEX
  8
0
 10
104.806859
 20
255.779981
 42
0.047905
  0
VERTEX
  8
0
 10
103.973171
 20
252.854091
 42
0.037060
  0
VERTEX
  8
0
 10
103.599294
 20
249.397825
 42
0.008417
  0
VERTEX
  8
0
 10
103.500000
 20
243.500000
 42
0.008652
  0
VERTEX
  8
0
 10
103.599020
 20
237.778353
 42
0.033390
  0
VERTEX
  8
0
 10
103.958389
 20
234.245173
 42
0.043875
  0
VERTEX
  8
0
 10
104.729623
 20
231.296387
 42
0.023719
  0
VERTEX
  8
0
 10
106.160407
 20
227.824854
 42
0.052002
  0
VERTEX
  8
0
 10
110.612993
 20
220.434979
 42
0.055000
  0
VERTEX
  8
0
 10
116.421542
 20
214.275388
 42
0.056012
  0
VERTEX
  8
0
 10
123.328378
 20
209.621563
 42
0.057809
  0
VERTEX
  8
0
 10
131.024244
 20
206.676138
 42
0.000000
  0
VERTEX
  8
0
 10
136.500000
 20
205.277715
 42
0.000000
  0
VERTEX
  8
0
 10
137.147350
 20
192.888858
 42
0.013380
  0
VERTEX
  8
0
 10
137.887960
 20
183.529311
 42
0.016786
  0
VERTEX
  8
0
 10
139.096381
 20
174.910042
 42
0.018030
  0
VERTEX
  8
0
 10
140.780788
 20
166.965080
 42
0.021602
  0
VERTEX
  8
0
 10
142.953612
 20
159.634830
 42
0.000000
  0
VERTEX
  8
0
 10
144.866571
 20
154.074717
 42
0.000000
  0
VERTEX
  8
0
 10
85.683285
 20
153.787359
 42
0.000519
  0
VERTEX
  8
0
 10
46.939035
 20
153.559050
 42
0.007939
  0
VERTEX
  8
0
 10
33.558356
 20
153.253827
 42
0.023090
  0
VERTEX
  8
0
 10
26.349217
 20
152.640627
 42
0.075566
  0
VERTEX
  8
0
 10
21.766665
 20
151.313602
 42
0.061653
  0
VERTEX
  8
0
 10
12.728806
 20
145.699207
 42
0.078983
  0
VERTEX
  8
0
 10
6.175858
 20
138.437513
 42
0.079776
  0
VERTEX
  8
0
 10
2.241580
 20
129.562948
 42
0.064417
  0
VERTEX
  8
0
 10
0.894400
 20
119.211226
 42
0.016484
  0
VERTEX
  8
0
 10
1.020278
 20
115.304341
 42
0.033082
  0
VERTEX
  8
0
 10
1.424230
 20
112.245800
 42
0.035476
  0
VERTEX
  8
0
 10
2.204807
 20
109.407460
 42
0.022209
  0
VERTEX
  8
0
 10
3.495194
 20
106.211226
 42
0.043603
  0
VERTEX
  8
0
 10
6.354448
 20
101.162222
 42
0.037899
  0
VERTEX
  8
0
 10
10.170067
 20
96.426226
 42
0.037932
  0
VERTEX
  8
0
 10
14.652769
 20
92.324700
 42
0.043901
  0
VERTEX
  8
0
 10
19.500000
 20
89.166584
 42
0.027518
  0
VERTEX
  8
0
 10
22.633805
 20
87.711557
 42
0.050988
  0
VERTEX
  8
0
 10
25.328709
 20
86.943121
 42
0.036061
  0
VERTEX
  8
0
 10
28.688642
 20
86.593122
 42
0.007907
  0
VERTEX
  8
0
 10
34.500000
 20
86.500770
 42
0.007898
  0
VERTEX
  8
0
 10
40.628605
 20
86.597109
 42
0.042816
  0
VERTEX
  8
0
 10
43.928172
 20
86.985240
 42
0.055188
  0
VERTEX
  8
0
 10
46.733092
 20
87.892821
 42
0.018473
  0
VERTEX
  8
0
 10
50.599493
 20
89.809106
 42
0.000000
  0
VERTEX
  8
0
 10
56.698986
 20
93.118212
 42
0.000000
  0
VERTEX
  8
0
 10
76.099493
 20
85.412513
 42
-0.001461
  0
VERTEX
  8
0
 10
83.589318
 20
82.412256
 42
-0.002281
  0
VERTEX
  8
0
 10
90.019302
 20
79.780536
 42
-0.000626
  0
VERTEX
  8
0
 10
95.606678
 20
77.455673
 42
-0.080276
  0
VERTEX
  8
0
 10
96.242812
 20
77.060595
 42
-0.511885
  0
VERTEX
  8
0
 10
96.206235
 20
76.661502
 42
-0.009402
  0
VERTEX
  8
0
 10
94.052347
 20
75.444299
 42
-0.014677
  0
VERTEX
  8
0
 10
91.235165
 20
74.026633
 42
-0.008283
  0
VERTEX
  8
0
 10
87.742812
 20
72.465767
 42
-0.011795
  0
VERTEX
  8
0
 10
82.345454
 20
70.309043
 42
-0.031207
  0
VERTEX
  8
0
 10
78.367598
 20
69.103916
 42
-0.031267
  0
VERTEX
  8
0
 10
74.275037
 20
68.404515
 42
-0.011879
  0
VERTEX
  8
0
 10
68.500000
 20
67.924148
 42
0.028129
  0
VERTEX
  8
0
 10
60.587444
 20
67.006361
 42
0.056086
  0
VERTEX
  8
0
 10
54.543297
 20
65.243624
 42
0.061610
  0
VERTEX
  8
0
 10
49.412413
 20
62.313428
 42
0.041449
  0
VERTEX
  8
0
 10
44.354578
 20
57.834186
 42
0.034911
  0
VERTEX
  8
0
 10
40.261284
 20
52.908307
 42
0.055768
  0
VERTEX
  8
0
 10
37.582622
 20
48.143356
 42
0.054607
  0
VERTEX
  8
0
 10
35.988142
 20
42.831253
 42
0.031931
  0
VERTEX
  8
0
 10
35.200676
 20
36.225929
 42
0.029710
  0
VERTEX
  8
0
 10
35.230073
 20
29.817217
 42
0.050873
  0
VERTEX
  8
0
 10
36.110895
 20
24.548525
 42
0.051467
  0
VERTEX
  8
0
 10
38.027994
 20
19.608001
 42
0.031212
  0
VERTEX
  8
0
 10
41.229969
 20
14.210082
 42
0.082365
  0
VERTEX
  8
0
 10
46.927467
 20
8.241389
 42
0.057413
  0
VERTEX
  8
0
 10
54.979293
 20
3.528220
 42
0.057140
  0
VERTEX
  8
0
 10
63.942058
 20
0.748593
 42
0.079080
  0
VERTEX
  8
0
 10
72.341480
 20
0.507153
 42
0.058626
  0
VERTEX
  8
0
 10
80.116178
 20
2.461028
 42
0.053960
  0
VERTEX
  8
0
 10
87.461651
 20
6.202880
 42
0.055437
  0
VERTEX
  8
0
 10
93.645835
 20
11.304031
 42
0.070759
  0
VERTEX
  8
0
 10
97.988516
 20
17.272280
 42
0.000000
  0
VERTEX
  8
0
 10
100.273662
 20
21.579822
 42
0.000000
  0
VERTEX
  8
0
 10
178.386831
 20
32.249196
 42
0.000000
  0
VERTEX
  8
0
 10
256.500000
 20
42.918569
 42
0.000000
  0
VERTEX
  8
0
 10
332.844663
 20
32.459285
 42
0.000216
  0
VERTEX
  8
0
 10
362.208791
 20
28.449301
 42
0.000351
  0
VERTEX
  8
0
 10
387.147987
 20
25.072415
 42
0.000037
  0
VERTEX
  8
0
 10
409.449253
 20
22.070343
 42
0.033447
  0
VERTEX
  8
0
 10
410.499642
 20
22.000000
 42
-0.184865
  0
VERTEX
  8
0
 10
411.156605
 20
21.748506
 42
-0.028057
  0
VERTEX
  8
0
 10
412.166586
 20
20.734666
 42
-0.028272
  0
VERTEX
  8
0
 10
413.271844
 20
19.342060
 42
-0.021064
  0
VERTEX
  8
0
 10
414.334331
 20
17.692480
 42
0.045541
  0
VERTEX
  8
0
 10
417.404838
 20
13.401588
 42
0.030575
  0
VERTEX
  8
0
 10
421.619605
 20
9.083249
 42
0.030681
  0
VERTEX
  8
0
 10
426.300083
 20
5.336398
 42
0.047965
  0
VERTEX
  8
0
 10
430.780302
 20
2.783895
 42
0.032316
  0
VERTEX
  8
0
 10
433.494563
 20
1.770301
 42
0.031954
  0
VERTEX
  8
0
 10
436.327000
 20
1.110388
 42
0.026310
  0
VERTEX
  8
0
 10
439.670937
 20
0.732911
 42
0.012527
  0
VERTEX
  8
0
 10
444.000000
 20
0.582422
 42
0.011796
  0
VERTEX
  8
0
 10
448.834630
 20
0.649598
 42
0.037086
  0
VERTEX
  8
0
 10
452.058012
 20
1.010902
 42
0.042848
  0
VERTEX
  8
0
 10
454.936449
 20
1.811885
 42
0.020150
  0
VERTEX
  8
0
 10
458.500000
 20
3.307376
 42
0.069093
  0
VERTEX
  8
0
 10
466.542693
 20
8.526304
 42
0.070449
  0
VERTEX
  8
0
 10
472.798467
 20
15.708595
 42
0.071190
  0
VERTEX
  8
0
 10
476.765451
 20
24.273374
 42
0.073033
  0
VERTEX
  8
0
 10
478.125000
 20
33.531448
 42
0.040659
  0
VERTEX
  8
0
 10
477.515132
 20
41.018887
 42
0.056460
  0
VERTEX
  8
0
 10
475.686792
 20
47.490397
 42
0.057828
  0
VERTEX
  8
0
 10
472.500089
 20
53.273049
 42
0.045534
  0
VERTEX
  8
0
 10
467.834186
 20
58.699250
 42
0.044216
  0
VERTEX
  8
0
 10
462.588446
 20
62.951811
 42
0.055223
  0
VERTEX
  8
0
 10
457.037843
 20
65.859209
 42
0.053952
  0
VERTEX
  8
0
 10
450.879349
 20
67.526360
 42
0.039517
  0
VERTEX
  8
0
 10
443.814798
 20
68.075519
 42
-0.015479
  0
VERTEX
  8
0
 10
438.808258
 20
68.223463
 42
-0.040977
  0
VERTEX
  8
0
 10
435.264590
 20
68.731544
 42
-0.035091
  0
VERTEX
  8
0
 10
431.552476
 20
69.857378
 42
-0.008966
  0
VERTEX
  8
0
 10
425.721681
 20
72.203559
 42
-0.008892
  0
VERTEX
  8
0
 10
422.026666
 20
73.845982
 42
-0.015663
  0
VERTEX
  8
0
 10
419.044375
 20
75.351043
 42
-0.010387
  0
VERTEX
  8
0
 10
416.775419
 20
76.648564
 42
-0.491329
  0
VERTEX
  8
0
 10
416.721681
 20
77.105057
 42
-0.093935
  0
VERTEX
  8
0
 10
417.402435
 20
77.558185
 42
-0.000894
  0
VERTEX
  8
0
 10
422.930792
 20
79.883650
 42
-0.002951
  0
VERTEX
  8
0
 10
429.325462
 20
82.515843
 42
-0.001901
  0
VERTEX
  8
0
 10
436.766120
 20
85.494484
 42
0.000000
  0
VERTEX
  8
0
 10
456.032241
 20
93.122217
 42
0.000000
  0
VERTEX
  8
0
 10
463.150477
 20
89.561108
 42
0.014003
  0
VERTEX
  8
0
 10
467.318783
 20
87.619753
 42
0.041568
  0
VERTEX
  8
0
 10
470.304923
 20
86.614327
 42
0.043687
  0
VERTEX
  8
0
 10
473.334096
 20
86.142966
 42
0.016764
  0
VERTEX
  8
0
 10
477.596844
 20
86.000000
 42
0.087261
  0
VERTEX
  8
0
 10
490.673148
 20
88.299619
 42
0.100902
  0
VERTEX
  8
0
 10
501.445730
 20
94.893758
 42
0.101712
  0
VERTEX
  8
0
 10
508.716977
 20
105.129415
 42
0.090047
  0
VERTEX
  8
0
 10
511.769675
 20
117.861326
 42
0.042119
  0
VERTEX
  8
0
 10
511.552718
 20
125.479355
 42
0.066043
  0
VERTEX
  8
0
 10
509.968433
 20
131.827938
 42
0.064837
  0
VERTEX
  8
0
 10
506.756608
 20
137.625012
 42
0.039010
  0
VERTEX
  8
0
 10
501.603364
 20
143.579194
 42
0.061093
  0
VERTEX
  8
0
 10
493.722728
 20
149.662218
 42
0.100334
  0
VERTEX
  8
0
 10
485.794885
 20
152.425047
 42
0.031118
  0
VERTEX
  8
0
 10
472.418509
 20
153.404880
 42
0.001434
  0
VERTEX
  8
0
 10
426.750000
 20
153.771896
 42
-0.000488
  0
VERTEX
  8
0
 10
404.222271
 20
153.910295
 42
-0.000813
  0
VERTEX
  8
0
 10
385.257812
 20
154.076138
 42
-0.000027
  0
VERTEX
  8
0
 10
368.125158
 20
154.254744
 42
-0.411148
  0
VERTEX
  8
0
 10
368.000000
 20
154.381220
 42
-0.078414
  0
VERTEX
  8
0
 10
368.036098
 20
154.609980
 42
-0.000689
  0
VERTEX
  8
0
 10
368.581717
 20
156.287895
 42
-0.002373
  0
VERTEX
  8
0
 10
369.221282
 20
158.214530
 42
-0.001526
  0
VERTEX
  8
0
 10
369.980313
 20
160.442779
 42
0.024244
  0
VERTEX
  8
0
 10
372.042636
 20
167.537571
 42
0.016724
  0
VERTEX
  8
0
 10
373.713104
 20
175.737752
 42
0.015544
  0
VERTEX
  8
0
 10
374.948506
 20
184.736675
 42
0.013408
  0
VERTEX
  8
0
 10
375.697131
 20
194.250000
 42
0.000000
  0
VERTEX
  8
0
 10
376.305331
 20
206.000000
 42
0.000000
  0
VERTEX
  8
0
 10
379.018309
 20
206.000000
 42
0.101497
  0
VERTEX
  8
0
 10
383.047249
 20
206.826363
 42
0.023384
  0
VERTEX
  8
0
 10
389.320180
 20
209.867075
 42
0.025038
  0
VERTEX
  8
0
 10
395.477010
 20
213.626518
 42
0.059528
  0
VERTEX
  8
0
 10
399.513498
 20
217.146620
 42
0.028346
  0
VERTEX
  8
0
 10
401.158636
 20
219.189211
 42
0.013407
  0
VERTEX
  8
0
 10
403.054133
 20
221.992541
 42
0.013240
  0
VERTEX
  8
0
 10
404.886259
 20
225.040316
 42
0.018231
  0
VERTEX
  8
0
 10
406.356813
 20
227.876622
 42
0.017128
  0
VERTEX
  8
0
 10
408.083503
 20
231.875518
 42
0.044053
  0
VERTEX
  8
0
 10
408.968851
 20
234.893982
 42
0.038764
  0
VERTEX
  8
0
 10
409.371152
 20
238.236811
 42
0.010869
  0
VERTEX
  8
0
 10
409.479294
 20
243.500000
 42
0.010784
  0
VERTEX
  8
0
 10
409.364571
 20
248.539456
 42
0.033854
  0
VERTEX
  8
0
 10
408.986337
 20
251.902071
 42
0.041229
  0
VERTEX
  8
0
 10
408.205682
 20
254.811956
 42
0.022886
  0
VERTEX
  8
0
 10
406.806682
 20
258.212682
 42
0.013868
  0
VERTEX
  8
0
 10
405.581294
 20
260.662650
 42
0.010281
  0
VERTEX
  8
0
 10
404.097657
 20
263.302171
 42
0.010408
  0
VERTEX
  8
0
 10
402.592835
 20
265.737695
 42
0.022963
  0
VERTEX
  8
0
 10
401.322408
 20
267.516535
 42
0.053684
  0
VERTEX
  8
0
 10
397.532957
 20
271.398287
 42
0.031296
  0
VERTEX
  8
0
 10
392.261069
 20
275.222714
 42
0.031324
  0
VERTEX
  8
0
 10
386.568379
 20
278.350388
 42
0.054957
  0
VERTEX
  8
0
 10
381.490138
 20
280.089621
 42
0.000000
  0
VERTEX
  8
0
 10
376.000000
 20
281.318260
 42
0.000000
  0
VERTEX
  8
0
 10
376.000000
 20
290.159130
 42
0.000000
  0
VERTEX
  8
0
 10
376.000000
 20
299.000000
 42
0.000000
  0
VERTEX
  8
0
 10
387.363510
 20
299.000000
 42
-0.013153
  0
VERTEX
  8
0
 10
396.737348
 20
298.753374
 42
-0.030434
  0
VERTEX
  8
0
 10
403.730101
 20
297.956570
 42
-0.037342
  0
VERTEX
  8
0
 10
409.635196
 20
296.455307
 42
-0.033153
  0
VERTEX
  8
0
 10
415.500000
 20
294.045314
 42
-0.056219
  0
VERTEX
  8
0
 10
422.679843
 20
289.458551
 42
-0.056335
  0
VERTEX
  8
0
 10
428.652011
 20
283.390530
 42
-0.034083
  0
VERTEX
  8
0
 10
435.159444
 20
273.811920
 42
-0.007582
  0
VERTEX
  8
0
 10
444.888648
 20
256.558099
 42
0.000000
  0
VERTEX
  8
0
 10
457.914681
 20
232.616197
 42
0.000000
  0
VERTEX
  8
0
 10
453.425640
 20
227.817049
 42
0.036151
  0
VERTEX
  8
0
 10
449.207253
 20
222.597914
 42
0.059436
  0
VERTEX
  8
0
 10
446.544886
 20
217.591451
 42
0.057908
  0
VERTEX
  8
0
 10
445.092827
 20
212.005784
 42
0.032460
  0
VERTEX
  8
0
 10
444.575230
 20
205.000000
 42
0.011402
  0
VERTEX
  8
0
 10
444.642815
 20
200.156539
 42
0.038005
  0
VERTEX
  8
0
 10
445.000400
 20
196.997904
 42
0.045268
  0
VERTEX
  8
0
 10
445.794096
 20
194.229141
 42
0.021713
  0
VERTEX
  8
0
 10
447.279350
 20
190.840339
 42
0.040075
  0
VERTEX
  8
0
 10
450.410987
 20
185.575390
 42
0.041268
  0
VERTEX
  8
0
 10
454.315034
 20
180.932708
 42
0.042101
  0
VERTEX
  8
0
 10
458.846795
 20
177.077017
 42
0.045637
  0
VERTEX
  8
0
 10
463.844616
 20
174.151360
 42
0.023114
  0
VERTEX
  8
0
 10
467.220645
 20
172.755035
 42
0.041921
  0
VERTEX
  8
0
 10
470.104801
 20
171.981106
 42
0.034199
  0
VERTEX
  8
0
 10
473.448855
 20
171.611773
 42
0.010663
  0
VERTEX
  8
0
 10
478.500000
 20
171.509208
 42
0.009926
  0
VERTEX
  8
0
 10
483.649423
 20
171.616715
 42
0.037585
  0
VERTEX
  8
0
 10
486.847312
 20
171.988893
 42
0.048334
  0
VERTEX
  8
0
 10
489.531229
 20
172.782766
 42
0.024899
  0
VERTEX
  8
0
 10
492.713085
 20
174.257347
 42
0.028167
  0
VERTEX
  8
0
 10
497.809189
 20
177.312628
 42
0.043807
  0
VERTEX
  8
0
 10
501.777505
 20
180.547671
 42
0.044711
  0
VERTEX
  8
0
 10
505.065118
 20
184.373157
 42
0.030934
  0
VERTEX
  8
0
 10
508.091903
 20
189.214782
 42
0.000000
  0
VERTEX
  8
0
 10
511.500000
 20
195.500000
 42
0.000000
  0
VERTEX
  8
0
 10
511.791302
 20
252.000000
 42
0.002096
  0
VERTEX
  8
0
 10
511.831145
 20
293.369927
 42
0.017453
  0
VERTEX
  8
0
 10
511.116598
 20
312.099238
 42
0.035344
  0
VERTEX
  8
0
 10
509.237530
 20
325.085938
 42
0.027146
  0
VERTEX
  8
0
 10
505.432610
 20
338.907691
 42
0.064241
  0
VERTEX
  8
0
 10
491.033144
 20
368.624667
 42
0.064784
  0
VERTEX
  8
0
 10
469.596890
 20
393.619391
 42
0.064474
  0
VERTEX
  8
0
 10
442.376081
 20
412.391594
 42
0.062582
  0
VERTEX
  8
0
 10
411.000000
 20
423.843292
 42
0.029474
  0
VERTEX
  8
0
 10
399.440417
 20
425.780318
 42
0.023112
  0
VERTEX
  8
0
 10
386.749046
 20
426.553915
 42
0.022871
  0
VERTEX
  8
0
 10
373.873913
 20
426.153737
 42
0.026777
  0
VERTEX
  8
0
 10
361.757592
 20
424.565400
 42
0.000000
  0
VERTEX
  8
0
 10
355.015184
 20
423.311382
 42
0.000000
  0
VERTEX
  8
0
 10
352.126836
 20
428.405691
 42
0.012161
  0
VERTEX
  8
0
 10
350.625300
 20
430.910046
 42
0.004542
  0
VERTEX
  8
0
 10
348.401046
 20
434.353547
 42
0.004497
  0
VERTEX
  8
0
 10
345.908311
 20
438.063779
 42
0.005433
  0
VERTEX
  8
0
 10
343.499275
 20
441.500000
 42
0.046573
  0
VERTEX
  8
0
 10
322.985449
 20
465.107793
 42
0.047047
  0
VERTEX
  8
0
 10
298.521560
 20
484.421903
 42
0.046394
  0
VERTEX
  8
0
 10
270.546146
 20
499.041574
 42
0.042877
  0
VERTEX
  8
0
 10
239.612443
 20
508.716792
 42
0.000000
  0
VERTEX
  8
0
 10
227.500000
 20
511.392728
 42
0.000000
  0
VERTEX
  8
0
 10
128.500000
 20
511.616860
 42
0.000735
  0
VERTEX
  8
0
 10
90.332585
 20
511.647169
 42
0.001172
  0
VERTEX
  8
0
 10
57.700000
 20
511.548655
 42
0.000220
  0
VERTEX
  8
0
 10
28.904357
 20
511.381601
 42
0.061411
  0
SEQEND
  0
POLYLINE
  8
0
 66
1
 70
1
  0
VERTEX
  8
0
 10
41.081688
 20
493.350638
 42
-0.074477
  0
VERTEX
  8
0
 10
45.188927
 20
490.948052
 42
-0.077692
  0
VERTEX
  8
0
 10
48.343881
 20
487.477180
 42
-0.076559
  0
VERTEX
  8
0
 10
50.322219
 20
483.161947
 42
-0.069371
  0
VERTEX
  8
0
 10
51.000000
 20
478.300302
 42
-0.041362
  0
VERTEX
  8
0
 10
50.633659
 20
473.879456
 42
-0.067973
  0
VERTEX
  8
0
 10
49.522305
 20
470.300615
 42
-0.071023
  0
VERTEX
  8
0
 10
47.535414
 20
467.258953
 42
-0.049727
  0
VERTEX
  8
0
 10
44.538487
 20
464.461558
 42
-0.104255
  0
VERTEX
  8
0
 10
38.848346
 20
461.755986
 42
-0.093514
  0
VERTEX
  8
0
 10
32.315198
 20
461.431693
 42
-0.093255
  0
VERTEX
  8
0
 10
26.097831
 20
463.511821
 42
-0.102952
  0
VERTEX
  8
0
 10
21.309086
 20
467.661414
 42
-0.105237
  0
VERTEX
  8
0
 10
18.577567
 20
473.435025
 42
-0.088566
  0
VERTEX
  8
0
 10
18.201406
 20
480.202582
 42
-0.090630
  0
VERTEX
  8
0
 10
20.177057
 20
486.546348
 42
-0.117877
  0
VERTEX
  8
0
 10
24.164646
 20
491.117238
 42
-0.049695
  0
VERTEX
  8
0
 10
28.349096
 20
493.510140
 42
-0.072350
  0
VERTEX
  8
0
 10
32.432548
 20
494.665414
 42
-0.073857
  0
VERTEX
  8
0
 10
36.612408
 20
494.597758
 42
-0.054298
  0
SEQEND
  0
POLYLINE
  8
0
 66
1
 70
1
  0
VERTEX
  8
0
 10
146.000000
 20
407.952792
 42
-0.030908
  0
VERTEX
  8
0
 10
157.457143
 20
405.399578
 42
-0.025148
  0
VERTEX
  8
0
 10
169.350186
 20
401.308000
 42
-0.024838
  0
VERTEX
  8
0
 10
180.942170
 20
395.973450
 42
-0.027830
  0
VERTEX
  8
0
 10
191.500000
 20
389.693330
 42
-0.031262
  0
VERTEX
  8
0
 10
198.344333
 20
384.438644
 42
-0.016271
  0
VERTEX
  8
0
 10
206.223935
 20
377.100923
 42
-0.016266
  0
VERTEX
  8
0
 10
213.651507
 20
369.222092
 42
-0.029642
  0
VERTEX
  8
0
 10
219.099529
 20
362.261928
 42
-0.029330
  0
VERTEX
  8
0
 10
223.477945
 20
355.059582
 42
-0.004473
  0
VERTEX
  8
0
 10
231.221343
 20
340.136000
 42
-0.003990
  0
VERTEX
  8
0
 10
238.744867
 20
325.015485
 42
-0.037696
  0
VERTEX
  8
0
 10
241.418842
 20
318.288812
 42
0.000000
  0
VERTEX
  8
0
 10
242.110139
 20
316.077624
 42
0.000000
  0
VERTEX
  8
0
 10
172.805069
 20
315.788812
 42
0.000000
  0
VERTEX
  8
0
 10
103.500000
 20
315.500000
 42
0.000000
  0
VERTEX
  8
0
 10
96.758449
 20
312.877182
 42
0.043702
  0
VERTEX
  8
0
 10
83.702450
 20
306.434884
 42
0.070536
  0
VERTEX
  8
0
 10
74.132123
 20
298.591189
 42
0.049295
  0
VERTEX
  8
0
 10
65.017600
 20
286.473307
 42
0.011957
  0
VERTEX
  8
0
 10
52.500000
 20
264.734780
 42
0.000000
  0
VERTEX
  8
0
 10
38.500000
 20
239.018830
 42
0.000000
  0
VERTEX
  8
0
 10
33.260727
 20
239.009415
 42
0.029045
  0
VERTEX
  8
0
 10
30.886689
 20
238.867109
 42
0.016966
  0
VERTEX
  8
0
 10
28.068176
 20
238.435731
 42
0.016930
  0
VERTEX
  8
0
 10
25.266757
 20
237.810286
 42
0.027408
  0
VERTEX
  8
0
 10
22.941237
 20
237.069670
 42
0.000000
  0
VERTEX
  8
0
 10
17.861021
 20
235.139340
 42
0.000000
  0
VERTEX
  8
0
 10
18.234892
 20
275.819670
 42
-0.000966
  0
VERTEX
  8
0
 10
18.529823
 20
302.337576
 42
-0.011677
  0
VERTEX
  8
0
 10
18.900871
 20
312.525236
 42
-0.028358
  0
VERTEX
  8
0
 10
19.682672
 20
319.207945
 42
-0.022763
  0
VERTEX
  8
0
 10
21.253718
 20
326.277349
 42
-0.067182
  0
VERTEX
  8
0
 10
33.307181
 20
354.917456
 42
-0.070196
  0
VERTEX
  8
0
 10
52.382885
 20
378.862923
 42
-0.070288
  0
VERTEX
  8
0
 10
77.314554
 20
396.571947
 42
-0.067637
  0
VERTEX
  8
0
 10
106.500000
 20
406.968022
 42
-0.029959
  0
VERTEX
  8
0
 10
115.228304
 20
408.262420
 42
-0.015601
  0
VERTEX
  8
0
 10
126.218837
 20
408.879922
 42
-0.015601
  0
VERTEX
  8
0
 10
137.224623
 20
408.810867
 42
-0.030008
  0
SEQEND
  0
POLYLINE
  8
0
 66
1
 70
1
  0
VERTEX
  8
0
 10
403.317325
 20
407.503894
 42
-0.067945
  0
VERTEX
  8
0
 10
431.226677
 20
398.615122
 42
-0.066283
  0
VERTEX
  8
0
 10
455.991706
 20
382.517549
 42
-0.066138
  0
VERTEX
  8
0
 10
475.726617
 20
360.463406
 42
-0.067120
  0
VERTEX
  8
0
 10
488.900856
 20
334.127207
 42
-0.021957
  0
VERTEX
  8
0
 10
491.965163
 20
323.702272
 42
-0.036080
  0
VERTEX
  8
0
 10
493.518650
 20
314.644277
 42
-0.019146
  0
VERTEX
  8
0
 10
494.261039
 20
302.168484
 42
-0.002356
  0
VERTEX
  8
0
 10
494.709720
 20
274.874158
 42
0.000000
  0
VERTEX
  8
0
 10
495.174329
 20
235.248317
 42
0.000000
  0
VERTEX
  8
0
 10
489.837164
 20
237.091513
 42
0.023676
  0
VERTEX
  8
0
 10
487.419613
 20
237.800281
 42
0.015181
  0
VERTEX
  8
0
 10
484.557164
 20
238.402859
 42
0.015258
  0
VERTEX
  8
0
 10
481.711713
 20
238.823041
 42
0.027444
  0
VERTEX
  8
0
 10
479.357437
 20
238.967354
 42
0.000000
  0
VERTEX
  8
0
 10
474.214874
 20
239.000000
 42
0.000000
  0
VERTEX
  8
0
 10
462.455183
 20
260.750000
 42
0.003830
  0
VERTEX
  8
0
 10
452.939892
 20
278.031169
 42
0.015535
  0
VERTEX
  8
0
 10
446.741999
 20
288.323079
 42
0.025380
  0
VERTEX
  8
0
 10
441.779973
 20
295.217180
 42
0.040993
  0
VERTEX
  8
0
 10
436.820129
 20
300.471811
 42
0.047335
  0
VERTEX
  8
0
 10
427.096933
 20
307.676600
 42
0.056030
  0
VERTEX
  8
0
 10
416.709621
 20
312.455107
 42
0.050502
  0
VERTEX
  8
0
 10
404.653847
 20
315.129545
 42
0.029355
  0
VERTEX
  8
0
 10
389.840037
 20
316.000000
 42
0.000000
  0
VERTEX
  8
0
 10
376.000000
 20
316.000000
 42
0.000000
  0
VERTEX
  8
0
 10
376.000000
 20
334.276234
 42
0.012485
  0
VERTEX
  8
0
 10
375.551093
 20
352.251906
 42
0.022675
  0
VERTEX
  8
0
 10
374.152885
 20
366.882481
 42
0.024601
  0
VERTEX
  8
0
 10
371.538171
 20
380.491904
 42
0.018232
  0
VERTEX
  8
0
 10
367.370934
 20
395.235340
 42
-0.002038
  0
VERTEX
  8
0
 10
366.045193
 20
399.404878
 42
-0.003092
  0
VERTEX
  8
0
 10
364.929752
 20
403.041793
 42
-0.001166
  0
VERTEX
  8
0
 10
363.997815
 20
406.175323
 42
-0.075829
  0
VERTEX
  8
0
 10
363.921535
 20
406.735340
 42
-0.396051
  0
VERTEX
  8
0
 10
365.498001
 20
408.360515
 42
-0.006728
  0
VERTEX
  8
0
 10
379.051465
 20
408.807416
 42
-0.015563
  0
VERTEX
  8
0
 10
392.730330
 20
408.648493
 42
-0.032488
  0
SEQEND
  0
POLYLINE
  8
0
 66
1
 70
1
  0
VERTEX
  8
0
 10
358.500000
 20
242.000000
 42
-0.001053
  0
VERTEX
  8
0
 10
358.439186
 20
213.120950
 42
-0.004406
  0
VERTEX
  8
0
 10
358.212890
 20
195.747291
 42
-0.006126
  0
VERTEX
  8
0
 10
357.824201
 20
184.349693
 42
-0.037331
  0
VERTEX
  8
0
 10
357.113101
 20
178.500000
 42
-0.067254
  0
VERTEX
  8
0
 10
347.502784
 20
150.433655
 42
-0.072027
  0
VERTEX
  8
0
 10
330.945590
 20
126.643421
 42
-0.072298
  0
VERTEX
  8
0
 10
308.380811
 20
108.595620
 42
-0.068533
  0
VERTEX
  8
0
 10
281.205812
 20
97.315896
 42
-0.013956
  0
VERTEX
  8
0
 10
275.568683
 20
96.003889
 42
-0.022231
  0
VERTEX
  8
0
 10
270.680030
 20
95.233472
 42
-0.018822
  0
VERTEX
  8
0
 10
265.199290
 20
94.825984
 42
-0.007068
  0
VERTEX
  8
0
 10
257.500000
 20
94.653216
 42
-0.022664
  0
VERTEX
  8
0
 10
244.297427
 20
95.142214
 42
-0.034753
  0
VERTEX
  8
0
 10
232.987303
 20
96.872637
 42
-0.035388
  0
VERTEX
  8
0
 10
222.175565
 20
100.123099
 42
-0.024680
  0
VERTEX
  8
0
 10
210.500000
 20
105.227446
 42
-0.055066
  0
VERTEX
  8
0
 10
192.151099
 20
117.027803
 42
-0.053811
  0
VERTEX
  8
0
 10
176.661689
 20
132.630942
 42
-0.053108
  0
VERTEX
  8
0
 10
164.690245
 20
151.386144
 42
-0.050960
  0
VERTEX
  8
0
 10
156.739135
 20
172.500000
 42
-0.037426
  0
VERTEX
  8
0
 10
155.505498
 20
179.146917
 42
-0.017944
  0
VERTEX
  8
0
 10
154.873861
 20
187.807256
 42
-0.007030
  0
VERTEX
  8
0
 10
154.534069
 20
202.667343
 42
-0.000638
  0
VERTEX
  8
0
 10
154.254902
 20
239.754724
 42
0.000000
  0
VERTEX
  8
0
 10
153.884497
 20
299.009447
 42
0.000000
  0
VERTEX
  8
0
 10
256.192249
 20
298.754724
 42
0.000000
  0
VERTEX
  8
0
 10
358.500000
 20
298.500000
 42
0.000000
  0
SEQEND
  0
POLYLINE
  8
0
 66
1
 70
1
  0
VERTEX
  8
0
 10
137.000000
 20
243.391592
 42
0.000000
  0
VERTEX
  8
0
 10
137.000000
 20
222.783184
 42
0.000000
  0
VERTEX
  8
0
 10
134.250000
 20
223.469450
 42
-0.067907
  0
VERTEX
  8
0
 10
131.258555
 20
224.664831
 42
-0.041634
  0
VERTEX
  8
0
 10
128.117207
 20
226.809268
 42
-0.039761
  0
VERTEX
  8
0
 10
125.195029
 20
229.596045
 42
-0.043697
  0
VERTEX
  8
0
 10
122.851534
 20
232.728590
 42
-0.084274
  0
VERTEX
  8
0
 10
120.871205
 20
237.590413
 42
-0.062189
  0
VERTEX
  8
0
 10
120.322226
 20
243.386378
 42
-0.060641
  0
VERTEX
  8
0
 10
121.220975
 20
249.296414
 42
-0.070628
  0
VERTEX
  8
0
 10
123.500000
 20
254.496251
 42
-0.057751
  0
VERTEX
  8
0
 10
126.036730
 20
257.701675
 42
-0.035492
  0
VERTEX
  8
0
 10
129.676437
 20
260.861896
 42
-0.034619
  0
VERTEX
  8
0
 10
133.434960
 20
263.296714
 42
-0.127084
  0
VERTEX
  8
0
 10
136.157284
 20
264.000000
 42
-0.400397
  0
VERTEX
  8
0
 10
136.499509
 20
263.673624
 42
-0.001633
  0
VERTEX
  8
0
 10
136.752452
 20
257.946280
 42
-0.006385
  0
VERTEX
  8
0
 10
136.939431
 20
251.293780
 42
-0.003832
  0
SEQEND
  0
POLYLINE
  8
0
 66
1
 70
1
  0
VERTEX
  8
0
 10
380.104131
 20
263.000000
 42
-0.154178
  0
VERTEX
  8
0
 10
380.669413
 20
262.821448
 42
-0.009831
  0
VERTEX
  8
0
 10
382.087357
 20
261.784226
 42
-0.013671
  0
VERTEX
  8
0
 10
383.746242
 20
260.446709
 42
-0.009704
  0
VERTEX
  8
0
 10
385.534760
 20
258.861194
 42
-0.112877
  0
VERTEX
  8
0
 10
391.075336
 20
250.784784
 42
-0.116329
  0
VERTEX
  8
0
 10
392.474427
 20
241.194363
 42
-0.118694
  0
VERTEX
  8
0
 10
389.442487
 20
232.137396
 42
-0.120931
  0
VERTEX
  8
0
 10
382.635564
 20
225.526578
 42
-0.010817
  0
VERTEX
  8
0
 10
380.899649
 20
224.559093
 42
-0.013590
  0
VERTEX
  8
0
 10
379.249344
 20
223.742182
 42
-0.011755
  0
VERTEX
  8
0
 10
377.843769
 20
223.133017
 42
-0.096662
  0
VERTEX
  8
0
 10
377.162142
 20
223.000000
 42
-0.387677
  0
VERTEX
  8
0
 10
376.570812
 20
223.539586
 42
-0.008777
  0
VERTEX
  8
0
 10
376.264099
 20
227.682974
 42
-0.011187
  0
VERTEX
  8
0
 10
376.056946
 20
233.780030
 42
-0.002897
  0
VERTEX
  8
0
 10
376.000000
 20
243.606989
 42
-0.001815
  0
VERTEX
  8
0
 10
376.043698
 20
255.643847
 42
-0.017918
  0
VERTEX
  8
0
 10
376.261826
 20
260.702525
 42
-0.049438
  0
VERTEX
  8
0
 10
376.704684
 20
263.168119
 42
-0.440794
  0
VERTEX
  8
0
 10
377.581787
 20
263.606989
 42
0.017341
  0
VERTEX
  8
0
 10
378.256380
 20
263.374620
 42
0.015225
  0
VERTEX
  8
0
 10
378.975213
 20
263.178303
 42
0.015478
  0
VERTEX
  8
0
 10
379.635045
 20
263.040972
 42
0.043589
  0
SEQEND
  0
POLYLINE
  8
0
 66
1
 70
1
  0
VERTEX
  8
0
 10
42.030039
 20
219.750000
 42
-0.056532
  0
VERTEX
  8
0
 10
46.084809
 20
217.089212
 42
-0.082875
  0
VERTEX
  8
0
 10
48.865661
 20
213.865326
 42
-0.082182
  0
VERTEX
  8
0
 10
50.463713
 20
209.891828
 42
-0.054651
  0
VERTEX
  8
0
 10
51.000000
 20
205.000000
 42
-0.054651
  0
VERTEX
  8
0
 10
50.463713
 20
200.108172
 42
-0.082182
  0
VERTEX
  8
0
 10
48.865661
 20
196.134674
 42
-0.082875
  0
VERTEX
  8
0
 10
46.084809
 20
192.910788
 42
-0.056532
  0
VERTEX
  8
0
 10
42.030039
 20
190.250000
 42
-0.041912
  0
VERTEX
  8
0
 10
38.183700
 20
188.695807
 42
-0.069282
  0
VERTEX
  8
0
 10
34.732182
 20
188.132100
 42
-0.069685
  0
VERTEX
  8
0
 10
31.272063
 20
188.533865
 42
-0.042915
  0
VERTEX
  8
0
 10
27.401069
 20
189.905434
 42
-0.062495
  0
VERTEX
  8
0
 10
23.331866
 20
192.406584
 42
-0.090758
  0
VERTEX
  8
0
 10
20.578801
 20
195.584919
 42
-0.084948
  0
VERTEX
  8
0
 10
19.015573
 20
199.696626
 42
-0.048494
  0
VERTEX
  8
0
 10
18.500000
 20
205.000000
 42
-0.048494
  0
VERTEX
  8
0
 10
19.015573
 20
210.303374
 42
-0.084948
  0
VERTEX
  8
0
 10
20.578801
 20
214.415081
 42
-0.090758
  0
VERTEX
  8
0
 10
23.331866
 20
217.593416
 42
-0.062495
  0
VERTEX
  8
0
 10
27.401069
 20
220.094566
 42
-0.042915
  0
VERTEX
  8
0
 10
31.272063
 20
221.466135
 42
-0.069685
  0
VERTEX
  8
0
 10
34.732182
 20
221.867900
 42
-0.069282
  0
VERTEX
  8
0
 10
38.183700
 20
221.304193
 42
-0.041912
  0
SEQEND
  0
POLYLINE
  8
0
 66
1
 70
1
  0
VERTEX
  8
0
 10
483.044357
 20
221.004200
 42
-0.078642
  0
VERTEX
  8
0
 10
486.141749
 20
219.591409
 42
-0.043378
  0
VERTEX
  8
0
 10
489.407392
 20
216.995692
 42
-0.043091
  0
VERTEX
  8
0
 10
492.217505
 20
213.832567
 42
-0.070040
  0
VERTEX
  8
0
 10
493.938666
 20
210.684900
 42
-0.153077
  0
VERTEX
  8
0
 10
494.469880
 20
201.332795
 42
-0.140681
  0
VERTEX
  8
0
 10
489.617254
 20
192.985414
 42
-0.140256
  0
VERTEX
  8
0
 10
481.062402
 20
188.466312
 42
-0.151922
  0
VERTEX
  8
0
 10
471.702258
 20
189.351044
 42
-0.099461
  0
VERTEX
  8
0
 10
466.284714
 20
193.010254
 42
-0.097630
  0
VERTEX
  8
0
 10
462.657900
 20
198.499932
 42
-0.098837
  0
VERTEX
  8
0
 10
461.413494
 20
204.896053
 42
-0.104760
  0
VERTEX
  8
0
 10
462.767520
 20
211.137306
 42
-0.071774
  0
VERTEX
  8
0
 10
466.335092
 20
216.756265
 42
-0.102587
  0
VERTEX
  8
0
 10
470.995806
 20
220.353614
 42
-0.104548
  0
VERTEX
  8
0
 10
476.633023
 20
221.760283
 42
-0.076945
  0
SEQEND
  0
POLYLINE
  8
0
 66
1
 70
1
  0
VERTEX
  8
0
 10
42.769694
 20
134.271235
 42
-0.071851
  0
VERTEX
  8
0
 10
46.088118
 20
132.106298
 42
-0.080129
  0
VERTEX
  8
0
 10
48.516541
 20
129.160146
 42
-0.072003
  0
VERTEX
  8
0
 10
50.071512
 20
125.330432
 42
-0.045151
  0
VERTEX
  8
0
 10
50.803421
 20
120.542543
 42
-0.015861
  0
VERTEX
  8
0
 10
50.902781
 20
117.201648
 42
-0.050818
  0
VERTEX
  8
0
 10
50.672817
 20
114.988503
 42
-0.063315
  0
VERTEX
  8
0
 10
50.036400
 20
113.139816
 42
-0.035815
  0
VERTEX
  8
0
 10
48.837604
 20
111.091948
 42
-0.039380
  0
VERTEX
  8
0
 10
45.807352
 20
107.344120
 42
-0.081473
  0
VERTEX
  8
0
 10
42.817361
 20
105.073166
 42
-0.081869
  0
VERTEX
  8
0
 10
39.268323
 20
103.882837
 42
-0.040079
  0
VERTEX
  8
0
 10
34.500000
 20
103.500000
 42
-0.037463
  0
VERTEX
  8
0
 10
29.919729
 20
103.843666
 42
-0.076353
  0
VERTEX
  8
0
 10
26.484339
 20
104.914615
 42
-0.078114
  0
VERTEX
  8
0
 10
23.578177
 20
106.948009
 42
-0.040784
  0
VERTEX
  8
0
 10
20.647500
 20
110.270317
 42
-0.094463
  0
VERTEX
  8
0
 10
18.854413
 20
113.954408
 42
-0.056611
  0
VERTEX
  8
0
 10
18.117460
 20
118.781768
 42
-0.056174
  0
VERTEX
  8
0
 10
18.481755
 20
123.706352
 42
-0.086962
  0
VERTEX
  8
0
 10
19.978498
 20
127.688129
 42
-0.083648
  0
VERTEX
  8
0
 10
24.305185
 20
132.825452
 42
-0.106082
  0
VERTEX
  8
0
 10
29.758571
 20
135.752207
 42
-0.103392
  0
VERTEX
  8
0
 10
36.043892
 20
136.225371
 42
-0.076069
  0
SEQEND
  0
POLYLINE
  8
0
 66
1
 70
1
  0
VERTEX
  8
0
 10
486.000000
 20
134.452196
 42
-0.096247
  0
VERTEX
  8
0
 10
491.009754
 20
130.568618
 42
-0.102401
  0
VERTEX
  8
0
 10
494.067801
 20
125.169747
 42
-0.099398
  0
VERTEX
  8
0
 10
494.784101
 20
118.865100
 42
-0.085528
  0
VERTEX
  8
0
 10
493.094566
 20
112.401069
 42
-0.063856
  0
VERTEX
  8
0
 10
490.818276
 20
108.720092
 42
-0.073725
  0
VERTEX
  8
0
 10
487.780397
 20
105.933730
 42
-0.071798
  0
VERTEX
  8
0
 10
483.994147
 20
104.096782
 42
-0.056465
  0
VERTEX
  8
0
 10
479.516155
 20
103.209782
 42
-0.128167
  0
VERTEX
  8
0
 10
470.770529
 20
104.730901
 42
-0.136063
  0
VERTEX
  8
0
 10
464.109822
 20
110.314051
 42
-0.138322
  0
VERTEX
  8
0
 10
461.342776
 20
118.450388
 42
-0.134115
  0
VERTEX
  8
0
 10
463.185675
 20
126.941457
 42
-0.088413
  0
VERTEX
  8
0
 10
467.403457
 20
132.412843
 42
-0.105302
  0
VERTEX
  8
0
 10
473.022804
 20
135.689236
 42
-0.106095
  0
VERTEX
  8
0
 10
479.455276
 20
136.377794
 42
-0.090943
  0
SEQEND
  0
POLYLINE
  8
0
 66
1
 70
1
  0
VERTEX
  8
0
 10
75.799660
 20
49.589276
 42
-0.160038
  0
VERTEX
  8
0
 10
83.675804
 20
41.498958
 42
-0.171529
  0
VERTEX
  8
0
 10
84.937248
 20
30.563709
 42
-0.174632
  0
VERTEX
  8
0
 10
79.057632
 20
21.404426
 42
-0.165059
  0
VERTEX
  8
0
 10
68.534748
 20
17.833333
 42
-0.147618
  0
VERTEX
  8
0
 10
59.484043
 20
20.564952
 42
-0.144412
  0
VERTEX
  8
0
 10
53.362159
 20
27.866866
 42
-0.143962
  0
VERTEX
  8
0
 10
52.172463
 20
37.341043
 42
-0.146491
  0
VERTEX
  8
0
 10
56.316612
 20
45.877498
 42
-0.092413
  0
VERTEX
  8
0
 10
60.332618
 20
48.890304
 42
-0.067871
  0
VERTEX
  8
0
 10
65.621635
 20
50.665311
 42
-0.068551
  0
VERTEX
  8
0
 10
71.133252
 20
50.948685
 42
-0.099301
  0
SEQEND
  0
POLYLINE
  8
0
 66
1
 70
1
  0
VERTEX
  8
0
 10
452.015602
 20
49.148389
 42
-0.142012
  0
VERTEX
  8
0
 10
458.361759
 20
42.987455
 42
-0.132614
  0
VERTEX
  8
0
 10
460.642336
 20
34.216360
 42
-0.132143
  0
VERTEX
  8
0
 10
458.200869
 20
25.465408
 42
-0.140592
  0
VERTEX
  8
0
 10
451.738235
 20
19.364636
 42
-0.094217
  0
VERTEX
  8
0
 10
446.495911
 20
17.803852
 42
-0.076273
  0
VERTEX
  8
0
 10
440.623781
 20
18.102172
 42
-0.076903
  0
VERTEX
  8
0
 10
435.156685
 20
20.138276
 42
-0.098886
  0
VERTEX
  8
0
 10
431.087871
 20
23.615420
 42
-0.135507
  0
VERTEX
  8
0
 10
427.419567
 20
32.361335
 42
-0.143056
  0
VERTEX
  8
0
 10
428.868708
 20
41.550474
 42
-0.144773
  0
VERTEX
  8
0
 10
435.010203
 20
48.438767
 42
-0.139673
  0
VERTEX
  8
0
 10
444.000000
 20
51.000000
 42
-0.033822
  0
VERTEX
  8
0
 10
445.989368
 20
50.865276
 42
-0.022949
  0
VERTEX
  8
0
 10
448.223704
 20
50.456089
 42
-0.023176
  0
VERTEX
  8
0
 10
450.354733
 20
49.858590
 42
-0.042212
  0
SEQEND
  0
POLYLINE
  8
0
 66
1
 70
1
  0
VERTEX
  8
0
 10
107.000000
 20
390.301306
 42
0.003313
  0
VERTEX
  8
0
 10
104.483373
 20
389.694344
 42
0.005036
  0
VERTEX
  8
0
 10
102.305610
 20
389.130470
 42
0.002014
  0
VERTEX
  8
0
 10
100.449875
 20
388.621953
 42
0.119070
  0
VERTEX
  8
0
 10
100.146756
 20
388.452992
 42
0.295644
  0
VERTEX
  8
0
 10
99.924870
 20
387.585283
 42
0.002062
  0
VERTEX
  8
0
 10
102.500924
 20
380.032163
 42
0.001997
  0
VERTEX
  8
0
 10
105.142295
 20
372.488556
 42
0.319872
  0
VERTEX
  8
0
 10
105.832122
 20
372.005577
 42
0.047542
  0
VERTEX
  8
0
 10
106.257665
 20
372.049719
 42
0.004065
  0
VERTEX
  8
0
 10
107.331936
 20
372.274769
 42
0.005347
  0
VERTEX
  8
0
 10
108.610803
 20
372.567912
 42
0.004118
  0
VERTEX
  8
0
 10
110.000000
 20
372.914146
 42
-0.006982
  0
VERTEX
  8
0
 10
111.615660
 20
373.307005
 42
-0.003883
  0
VERTEX
  8
0
 10
113.594960
 20
373.742965
 42
-0.003872
  0
VERTEX
  8
0
 10
115.605341
 20
374.153182
 42
-0.006254
  0
VERTEX
  8
0
 10
117.323269
 20
374.467627
 42
0.000000
  0
VERTEX
  8
0
 10
121.146539
 20
375.118117
 42
0.000000
  0
VERTEX
  8
0
 10
120.492880
 20
381.809058
 42
0.016434
  0
VERTEX
  8
0
 10
119.521772
 20
389.222611
 42
0.214694
  0
VERTEX
  8
0
 10
118.023310
 20
391.479688
 42
0.187897
  0
VERTEX
  8
0
 10
115.230049
 20
392.017712
 42
0.012214
  0
SEQEND
  0
POLYLINE
  8
0
 66
1
 70
1
  0
VERTEX
  8
0
 10
75.945913
 20
376.694901
 42
0.014235
  0
VERTEX
  8
0
 10
70.070387
 20
372.318204
 42
0.019135
  0
VERTEX
  8
0
 10
65.024927
 20
368.008044
 42
0.019706
  0
VERTEX
  8
0
 10
60.441331
 20
363.431410
 42
0.016699
  0
VERTEX
  8
0
 10
55.961735
 20
358.254960
 42
0.033535
  0
VERTEX
  8
0
 10
47.600404
 20
346.365693
 42
0.040503
  0
VERTEX
  8
0
 10
41.483451
 20
334.170288
 42
0.039020
  0
VERTEX
  8
0
 10
37.251093
 20
320.771019
 42
0.027761
  0
VERTEX
  8
0
 10
34.547818
 20
305.250000
 42
0.000000
  0
VERTEX
  8
0
 10
33.931114
 20
300.000000
 42
0.000000
  0
VERTEX
  8
0
 10
42.849060
 20
300.000000
 42
0.000000
  0
VERTEX
  8
0
 10
51.767006
 20
300.000000
 42
0.000000
  0
VERTEX
  8
0
 10
52.462747
 20
306.750000
 42
-0.036026
  0
VERTEX
  8
0
 10
53.818705
 20
314.431121
 42
-0.022623
  0
VERTEX
  8
0
 10
56.445004
 20
323.168529
 42
-0.022456
  0
VERTEX
  8
0
 10
59.896463
 20
331.756682
 42
-0.032047
  0
VERTEX
  8
0
 10
63.770260
 20
339.000000
 42
-0.032955
  0
VERTEX
  8
0
 10
68.437816
 20
345.523338
 42
-0.019436
  0
VERTEX
  8
0
 10
74.800239
 20
352.692952
 42
-0.018879
  0
VERTEX
  8
0
 10
81.332089
 20
359.005874
 42
-0.060167
  0
VERTEX
  8
0
 10
86.294734
 20
362.477404
 42
0.013432
  0
VERTEX
  8
0
 10
87.714394
 20
363.284760
 42
0.019771
  0
VERTEX
  8
0
 10
88.911578
 20
364.075091
 42
0.015605
  0
VERTEX
  8
0
 10
89.828861
 20
364.778553
 42
0.225027
  0
VERTEX
  8
0
 10
90.000000
 20
365.139560
 42
0.132254
  0
VERTEX
  8
0
 10
89.597986
 20
366.632834
 42
0.003033
  0
VERTEX
  8
0
 10
85.839775
 20
373.017348
 42
0.001803
  0
VERTEX
  8
0
 10
81.895696
 20
379.571780
 42
0.284400
  0
VERTEX
  8
0
 10
81.163555
 20
379.944901
 42
0.114263
  0
VERTEX
  8
0
 10
80.734735
 20
379.807356
 42
0.004789
  0
VERTEX
  8
0
 10
79.357156
 20
378.967485
 42
0.008054
  0
VERTEX
  8
0
 10
77.738917
 20
377.922954
 42
0.005617
  0
SEQEND
  0
POLYLINE
  8
0
 66
1
 70
1
  0
VERTEX
  8
0
 10
393.000000
 20
389.646691
 42
-0.015178
  0
VERTEX
  8
0
 10
392.960984
 20
388.361682
 42
-0.003573
  0
VERTEX
  8
0
 10
392.815241
 20
386.216992
 42
-0.003676
  0
VERTEX
  8
0
 10
392.611810
 20
383.752205
 42
-0.003610
  0
VERTEX
  8
0
 10
392.371034
 20
381.275764
 42
0.000000
  0
VERTEX
  8
0
 10
391.742069
 20
375.258146
 42
0.000000
  0
VERTEX
  8
0
 10
399.451573
 20
373.542945
 42
0.004603
  0
VERTEX
  8
0
 10
402.427053
 20
372.909650
 42
0.007382
  0
VERTEX
  8
0
 10
404.977957
 20
372.430321
 42
0.002428
  0
VERTEX
  8
0
 10
407.169874
 20
372.062813
 42
0.266483
  0
VERTEX
  8
0
 10
407.438686
 20
372.163871
 42
0.098774
  0
VERTEX
  8
0
 10
408.458594
 20
374.060319
 42
0.005228
  0
VERTEX
  8
0
 10
410.406777
 20
380.683850
 42
0.002443
  0
VERTEX
  8
0
 10
412.353706
 20
387.698924
 42
0.332238
  0
VERTEX
  8
0
 10
412.049905
 20
388.469157
 42
0.080139
  0
VERTEX
  8
0
 10
410.159648
 20
389.254209
 42
0.005312
  0
VERTEX
  8
0
 10
404.400758
 20
390.560642
 42
0.007129
  0
VERTEX
  8
0
 10
398.703784
 20
391.704785
 42
0.044671
  0
VERTEX
  8
0
 10
395.750000
 20
391.985219
 42
0.036241
  0
VERTEX
  8
0
 10
394.332054
 20
391.889968
 42
0.142245
  0
VERTEX
  8
0
 10
393.540572
 20
391.534501
 42
0.164785
  0
VERTEX
  8
0
 10
393.128038
 20
390.845432
 42
0.053254
  0
SEQEND
  0
POLYLINE
  8
0
 66
1
 70
1
  0
VERTEX
  8
0
 10
430.263609
 20
378.728987
 42
0.033656
  0
VERTEX
  8
0
 10
428.659967
 20
376.328370
 42
0.005870
  0
VERTEX
  8
0
 10
426.000873
 20
371.573518
 42
0.002663
  0
VERTEX
  8
0
 10
423.282462
 20
366.511742
 42
0.123003
  0
VERTEX
  8
0
 10
423.001788
 20
365.378273
 42
0.204516
  0
VERTEX
  8
0
 10
423.204994
 20
364.904926
 42
0.016028
  0
VERTEX
  8
0
 10
424.250963
 20
363.969299
 42
0.019771
  0
VERTEX
  8
0
 10
425.624158
 20
362.907552
 42
0.013756
  0
VERTEX
  8
0
 10
427.251788
 20
361.815086
 42
-0.039876
  0
VERTEX
  8
0
 10
431.044465
 20
358.971569
 42
-0.010422
  0
VERTEX
  8
0
 10
436.647774
 20
353.815178
 42
-0.010977
  0
VERTEX
  8
0
 10
442.145489
 20
348.303329
 42
-0.027784
  0
VERTEX
  8
0
 10
445.819007
 20
344.000000
 42
-0.040733
  0
VERTEX
  8
0
 10
450.543810
 20
336.622689
 42
-0.027597
  0
VERTEX
  8
0
 10
454.734539
 20
327.557683
 42
-0.027054
  0
VERTEX
  8
0
 10
458.002343
 20
317.819498
 42
-0.032877
  0
VERTEX
  8
0
 10
459.951178
 20
308.396030
 42
-0.000722
  0
VERTEX
  8
0
 10
460.353154
 20
305.475005
 42
-0.001110
  0
VERTEX
  8
0
 10
460.691909
 20
302.944757
 42
-0.000355
  0
VERTEX
  8
0
 10
460.979008
 20
300.751510
 42
-0.032374
  0
VERTEX
  8
0
 10
461.000000
 20
300.427641
 42
0.397060
  0
VERTEX
  8
0
 10
461.163227
 20
300.254502
 42
0.002378
  0
VERTEX
  8
0
 10
463.540414
 20
300.125619
 42
0.007718
  0
VERTEX
  8
0
 10
466.332127
 20
300.030739
 42
0.004635
  0
VERTEX
  8
0
 10
469.648217
 20
300.000000
 42
0.000000
  0
VERTEX
  8
0
 10
478.296435
 20
300.000000
 42
0.000000
  0
VERTEX
  8
0
 10
477.693719
 20
307.750000
 42
0.039132
  0
VERTEX
  8
0
 10
475.981187
 20
318.650172
 42
0.028322
  0
VERTEX
  8
0
 10
472.456027
 20
330.433556
 42
0.027977
  0
VERTEX
  8
0
 10
467.548773
 20
341.935697
 42
0.034542
  0
VERTEX
  8
0
 10
461.675532
 20
352.000000
 42
0.035864
  0
VERTEX
  8
0
 10
456.075219
 20
359.083308
 42
0.017951
  0
VERTEX
  8
0
 10
448.068896
 20
367.231767
 42
0.017589
  0
VERTEX
  8
0
 10
439.754141
 20
374.570451
 42
0.050605
  0
VERTEX
  8
0
 10
433.355005
 20
378.825674
 42
0.031316
  0
VERTEX
  8
0
 10
432.259863
 20
379.318800
 42
0.098251
  0
VERTEX
  8
0
 10
431.467659
 20
379.450394
 42
0.135759
  0
VERTEX
  8
0
 10
430.835418
 20
379.254032
 42
0.086105
  0
SEQEND
  0
POLYLINE
  8
0
 66
1
 70
1
  0
VERTEX
  8
0
 10
196.666667
 20
281.333333
 42
0.175595
  0
VERTEX
  8
0
 10
196.400587
 20
280.764832
 42
0.005553
  0
VERTEX
  8
0
 10
196.195833
 20
278.178457
 42
0.010168
  0
VERTEX
  8
0
 10
196.048321
 20
275.079176
 42
0.006806
  0
VERTEX
  8
0
 10
196.000000
 20
271.529500
 42
-0.006120
  0
VERTEX
  8
0
 10
195.927842
 20
265.634263
 42
-0.059265
  0
VERTEX
  8
0
 10
195.572325
 20
263.162836
 42
-0.102150
  0
VERTEX
  8
0
 10
194.681669
 20
261.386892
 42
-0.033154
  0
VERTEX
  8
0
 10
192.702393
 20
259.196167
 42
-0.033880
  0
VERTEX
  8
0
 10
190.459225
 20
257.298923
 42
-0.096291
  0
VERTEX
  8
0
 10
188.617001
 20
256.426415
 42
-0.056367
  0
VERTEX
  8
0
 10
186.071806
 20
256.073669
 42
-0.006275
  0
VERTEX
  8
0
 10
180.202393
 20
256.000000
 42
0.000000
  0
VERTEX
  8
0
 10
171.000000
 20
256.000000
 42
0.000000
  0
VERTEX
  8
0
 10
171.000000
 20
247.500000
 42
0.000000
  0
VERTEX
  8
0
 10
171.000000
 20
239.000000
 42
0.000000
  0
VERTEX
  8
0
 10
180.423077
 20
239.000000
 42
-0.005903
  0
VERTEX
  8
0
 10
186.406067
 20
238.929360
 42
-0.053979
  0
VERTEX
  8
0
 10
188.982908
 20
238.588630
 42
-0.097864
  0
VERTEX
  8
0
 10
190.795495
 20
237.747612
 42
-0.038986
  0
VERTEX
  8
0
 10
192.887362
 20
235.958792
 42
-0.041242
  0
VERTEX
  8
0
 10
194.659649
 20
233.867259
 42
-0.091575
  0
VERTEX
  8
0
 10
195.542111
 20
231.982453
 42
-0.050499
  0
VERTEX
  8
0
 10
195.962730
 20
229.278698
 42
-0.006000
  0
VERTEX
  8
0
 10
196.214285
 20
223.208792
 42
0.000000
  0
VERTEX
  8
0
 10
196.500000
 20
213.500000
 42
0.000000
  0
VERTEX
  8
0
 10
205.250000
 20
213.211067
 42
0.000000
  0
VERTEX
  8
0
 10
214.000000
 20
212.922134
 42
0.000000
  0
VERTEX
  8
0
 10
214.000000
 20
222.764900
 42
-0.005240
  0
VERTEX
  8
0
 10
214.067442
 20
229.200118
 42
-0.056749
  0
VERTEX
  8
0
 10
214.414938
 20
231.771325
 42
-0.104276
  0
VERTEX
  8
0
 10
215.303572
 20
233.585342
 42
-0.034440
  0
VERTEX
  8
0
 10
217.297607
 20
235.803833
 42
-0.033880
  0
VERTEX
  8
0
 10
219.540775
 20
237.701077
 42
-0.096291
  0
VERTEX
  8
0
 10
221.382999
 20
238.573585
 42
-0.056367
  0
VERTEX
  8
0
 10
223.928194
 20
238.926331
 42
-0.006275
  0
VERTEX
  8
0
 10
229.797607
 20
239.000000
 42
0.000000
  0
VERTEX
  8
0
 10
239.000000
 20
239.000000
 42
0.000000
  0
VERTEX
  8
0
 10
239.000000
 20
247.500000
 42
0.000000
  0
VERTEX
  8
0
 10
239.000000
 20
256.000000
 42
0.000000
  0
VERTEX
  8
0
 10
229.696167
 20
256.000000
 42
-0.005892
  0
VERTEX
  8
0
 10
223.673653
 20
256.070970
 42
-0.058658
  0
VERTEX
  8
0
 10
221.178557
 20
256.424492
 42
-0.102690
  0
VERTEX
  8
0
 10
219.393680
 20
257.314581
 42
-0.033453
  0
VERTEX
  8
0
 10
217.196167
 20
259.297607
 42
-0.034781
  0
VERTEX
  8
0
 10
215.288247
 20
261.561647
 42
-0.097717
  0
VERTEX
  8
0
 10
214.417324
 20
263.431488
 42
-0.054702
  0
VERTEX
  8
0
 10
214.070250
 20
266.049912
 42
-0.005622
  0
VERTEX
  8
0
 10
214.000000
 20
272.297607
 42
0.000000
  0
VERTEX
  8
0
 10
214.000000
 20
282.000000
 42
0.000000
  0
VERTEX
  8
0
 10
205.666667
 20
282.000000
 42
0.007459
  0
VERTEX
  8
0
 10
202.425165
 20
281.951643
 42
0.011027
  0
VERTEX
  8
0
 10
199.585417
 20
281.804167
 42
0.006456
  0
VERTEX
  8
0
 10
197.226806
 20
281.598804
 42
0.173108
  0
SEQEND
  0
POLYLINE
  8
0
 66
1
 70
1
  0
VERTEX
  8
0
 10
299.000000
 20
272.466667
 42
0.000000
  0
VERTEX
  8
0
 10
299.000000
 20
262.933333
 42
0.000000
  0
VERTEX
  8
0
 10
295.533333
 20
259.466667
 42
0.000000
  0
VERTEX
  8
0
 10
292.066667
 20
256.000000
 42
0.000000
  0
VERTEX
  8
0
 10
282.533333
 20
256.000000
 42
0.000000
  0
VERTEX
  8
0
 10
273.000000
 20
256.000000
 42
0.000000
  0
VERTEX
  8
0
 10
273.000000
 20
247.500000
 42
0.000000
  0
VERTEX
  8
0
 10
273.000000
 20
239.000000
 42
0.000000
  0
VERTEX
  8
0
 10
282.643639
 20
239.000000
 42
-0.005675
  0
VERTEX
  8
0
 10
288.871692
 20
238.929314
 42
-0.055676
  0
VERTEX
  8
0
 10
291.471482
 20
238.579014
 42
-0.098226
  0
VERTEX
  8
0
 10
293.338507
 20
237.697783
 42
-0.033530
  0
VERTEX
  8
0
 10
295.632991
 20
235.750000
 42
-0.033213
  0
VERTEX
  8
0
 10
297.661009
 20
233.499775
 42
-0.103982
  0
VERTEX
  8
0
 10
298.560201
 20
231.684343
 42
-0.057600
  0
VERTEX
  8
0
 10
298.914048
 20
229.128855
 42
-0.005356
  0
VERTEX
  8
0
 10
298.989352
 20
222.750000
 42
0.000000
  0
VERTEX
  8
0
 10
299.000000
 20
213.000000
 42
0.000000
  0
VERTEX
  8
0
 10
307.500000
 20
213.000000
 42
0.000000
  0
VERTEX
  8
0
 10
316.000000
 20
213.000000
 42
0.000000
  0
VERTEX
  8
0
 10
316.000000
 20
222.533333
 42
0.000000
  0
VERTEX
  8
0
 10
316.000000
 20
232.066667
 42
0.000000
  0
VERTEX
  8
0
 10
319.466667
 20
235.533333
 42
0.000000
  0
VERTEX
  8
0
 10
322.933333
 20
239.000000
 42
0.000000
  0
VERTEX
  8
0
 10
332.466667
 20
239.000000
 42
0.000000
  0
VERTEX
  8
0
 10
342.000000
 20
239.000000
 42
0.000000
  0
VERTEX
  8
0
 10
342.000000
 20
247.500000
 42
0.000000
  0
VERTEX
  8
0
 10
342.000000
 20
256.000000
 42
0.000000
  0
VERTEX
  8
0
 10
332.466667
 20
256.000000
 42
0.000000
  0
VERTEX
  8
0
 10
322.933333
 20
256.000000
 42
0.000000
  0
VERTEX
  8
0
 10
319.466667
 20
259.466667
 42
0.000000
  0
VERTEX
  8
0
 10
316.000000
 20
262.933333
 42
0.000000
  0
VERTEX
  8
0
 10
316.000000
 20
272.466667
 42
0.000000
  0
VERTEX
  8
0
 10
316.000000
 20
282.000000
 42
0.000000
  0
VERTEX
  8
0
 10
307.500000
 20
282.000000
 42
0.000000
  0
VERTEX
  8
0
 10
299.000000
 20
282.000000
 42
0.000000
  0
SEQEND
  0
POLYLINE
  8
0
 66
1
 70
1
  0
VERTEX
  8
0
 10
199.031280
 20
193.533296
 42
0.054356
  0
VERTEX
  8
0
 10
197.753413
 20
191.836842
 42
0.094185
  0
VERTEX
  8
0
 10
197.151670
 20
190.184055
 42
0.050601
  0
VERTEX
  8
0
 10
197.007507
 20
187.793327
 42
0.006885
  0
VERTEX
  8
0
 10
197.281617
 20
182.783296
 42
0.046420
  0
VERTEX
  8
0
 10
199.019646
 20
172.095052
 42
0.048448
  0
VERTEX
  8
0
 10
202.687778
 20
162.070897
 42
0.047583
  0
VERTEX
  8
0
 10
208.288128
 20
152.785263
 42
0.041915
  0
VERTEX
  8
0
 10
215.762910
 20
144.290013
 42
0.056037
  0
VERTEX
  8
0
 10
224.122716
 20
137.888925
 42
0.040484
  0
VERTEX
  8
0
 10
234.647322
 20
132.666758
 42
0.040380
  0
VERTEX
  8
0
 10
245.914112
 20
129.194451
 42
0.054613
  0
VERTEX
  8
0
 10
256.500000
 20
128.034727
 42
0.075855
  0
VERTEX
  8
0
 10
272.551419
 20
130.483968
 42
0.066474
  0
VERTEX
  8
0
 10
287.946673
 20
137.648991
 42
0.066456
  0
VERTEX
  8
0
 10
300.926016
 20
148.604872
 42
0.075734
  0
VERTEX
  8
0
 10
309.909831
 20
162.143967
 42
0.031035
  0
VERTEX
  8
0
 10
313.895509
 20
172.340971
 42
0.048862
  0
VERTEX
  8
0
 10
315.880305
 20
181.521816
 42
0.061201
  0
VERTEX
  8
0
 10
315.828737
 20
188.905673
 42
0.165529
  0
VERTEX
  8
0
 10
313.545455
 20
193.545455
 42
0.000000
  0
VERTEX
  8
0
 10
311.090909
 20
196.000000
 42
0.000000
  0
VERTEX
  8
0
 10
256.219769
 20
196.000000
 42
0.000000
  0
VERTEX
  8
0
 10
201.348628
 20
196.000000
 42
0.000000
  0
SEQEND
  0
ENDSEC
  0
EOF
