  0
SECTION
  2
HEADER
  9
$ACADVER
  1
AC1006
  9
$EXTMIN
 10
0.000000
 20
0.000000
 30
0.000000
  9
$EXTMAX
 10
512.000000
 20
512.000000
 30
0.000000
  0
ENDSEC
  0
SECTION
  2
ENTITIES
  0
POLYLINE
  8
0
 66
1
 70
1
  0
VERTEX
  8
0
 10
19.029753
 20
502.416525
 42
0.018326
  0
VERTEX
  8
0
 10
17.562921
 20
501.715370
 42
0.014367
  0
VERTEX
  8
0
 10
16.024831
 20
500.852445
 42
0.014601
  0
VERTEX
  8
0
 10
14.639160
 20
499.965819
 42
0.034208
  0
VERTEX
  8
0
 10
13.673344
 20
499.205667
 42
0.066127
  0
VERTEX
  8
0
 10
11.554894
 20
496.708576
 42
0.039521
  0
VERTEX
  8
0
 10
9.710858
 20
493.271941
 42
0.039459
  0
VERTEX
  8
0
 10
8.425973
 20
489.576326
 42
0.064427
  0
VERTEX
  8
0
 10
8.006161
 20
486.289838
 42
0.113491
  0
VERTEX
  8
0
 10
9.213585
 20
481.077689
 42
0.049818
  0
VERTEX
  8
0
 10
12.958278
 20
475.013706
 42
0.010461
  0
VERTEX
  8
0
 10
21.836684
 20
463.891665
 42
0.000290
  0
VERTEX
  8
0
 10
61.365758
 20
416.500000
 42
0.000311
  0
VERTEX
  8
0
 10
73.337692
 20
402.181766
 42
0.000479
  0
VERTEX
  8
0
 10
83.714512
 20
389.811022
 42
0.000148
  0
VERTEX
  8
0
 10
92.732289
 20
379.087799
 42
0.014433
  0
VERTEX
  8
0
 10
94.058210
 20
377.601352
 42
0.199652
  0
VERTEX
  8
0
 10
95.552624
 20
376.935009
 42
0.144161
  0
VERTEX
  8
0
 10
97.335824
 20
377.411367
 42
0.035946
  0
VERTEX
  8
0
 10
100.358478
 20
379.565856
 42
0.002309
  0
VERTEX
  8
0
 10
108.676426
 20
386.511471
 42
0.003289
  0
VERTEX
  8
0
 10
113.592243
 20
390.710553
 42
0.005245
  0
VERTEX
  8
0
 10
117.733075
 20
394.371709
 42
0.001435
  0
VERTEX
  8
0
 10
121.280504
 20
397.593659
 42
0.210679
  0
VERTEX
  8
0
 10
121.500000
 20
398.091461
 42
0.159450
  0
VERTEX
  8
0
 10
121.337911
 20
398.586815
 42
0.004883
  0
VERTEX
  8
0
 10
120.031250
 20
400.333613
 42
0.009162
  0
VERTEX
  8
0
 10
118.415964
 20
402.371080
 42
0.006158
  0
VERTEX
  8
0
 10
116.500000
 20
404.641324
 42
-0.003478
  0
VERTEX
  8
0
 10
113.098550
 20
408.628191
 42
-0.000173
  0
VERTEX
  8
0
 10
102.020872
 20
421.806118
 42
-0.000279
  0
VERTEX
  8
0
 10
88.871445
 20
437.477304
 42
-0.000202
  0
VERTEX
  8
0
 10
74.230627
 20
454.959981
 42
0.001727
  0
VERTEX
  8
0
 10
48.685019
 20
485.275731
 42
0.019506
  0
VERTEX
  8
0
 10
38.060770
 20
496.848932
 42
0.053416
  0
VERTEX
  8
0
 10
31.361903
 20
502.292530
 42
0.148148
  0
VERTEX
  8
0
 10
25.592716
 20
503.960858
 42
0.036103
  0
VERTEX
  8
0
 10
24.159359
 20
503.838972
 42
0.018527
  0
VERTEX
  8
0
 10
22.389100
 20
503.491064
 42
0.018313
  0
VERTEX
  8
0
 10
20.584248
 20
502.995970
 42
0.026232
  0
SEQEND
  0
POLYLINE
  8
0
 66
1
 70
1
  0
VERTEX
  8
0
 10
479.252623
 20
501.832868
 42
0.080397
  0
VERTEX
  8
0
 10
475.844442
 20
499.172898
 42
0.005819
  0
VERTEX
  8
0
 10
467.799847
 20
490.291375
 42
0.005572
  0
VERTEX
  8
0
 10
456.116850
 20
476.787008
 42
0.001398
  0
VERTEX
  8
0
 10
437.372460
 20
454.500000
 42
-0.000325
  0
VERTEX
  8
0
 10
422.581137
 20
436.836410
 42
-0.000449
  0
VERTEX
  8
0
 10
409.279722
 20
421.001955
 42
-0.000280
  0
VERTEX
  8
0
 10
398.069254
 20
407.696112
 42
-0.005551
  0
VERTEX
  8
0
 10
394.583647
 20
403.655591
 42
0.000000
  0
VERTEX
  8
0
 10
389.427621
 20
397.811182
 42
0.000000
  0
VERTEX
  8
0
 10
378.503345
 20
406.905591
 42
0.011068
  0
VERTEX
  8
0
 10
370.676040
 20
413.133701
 42
0.074054
  0
VERTEX
  8
0
 10
366.327822
 20
415.521201
 42
0.169267
  0
VERTEX
  8
0
 10
363.154788
 20
415.581303
 42
0.125704
  0
VERTEX
  8
0
 10
360.174314
 20
413.685549
 42
0.090040
  0
VERTEX
  8
0
 10
358.861691
 20
411.658229
 42
0.060939
  0
VERTEX
  8
0
 10
358.116927
 20
409.001017
 42
0.063074
  0
VERTEX
  8
0
 10
358.049779
 20
406.374501
 42
0.129251
  0
VERTEX
  8
0
 10
358.765313
 20
404.458996
 42
0.059161
  0
VERTEX
  8
0
 10
359.403699
 20
403.749598
 42
0.000769
  0
VERTEX
  8
0
 10
363.910748
 20
399.810030
 42
0.002213
  0
VERTEX
  8
0
 10
369.160637
 20
395.276104
 42
0.001449
  0
VERTEX
  8
0
 10
375.250000
 20
390.094565
 42
-0.001336
  0
VERTEX
  8
0
 10
381.288646
 20
384.958533
 42
-0.002188
  0
VERTEX
  8
0
 10
386.373438
 20
380.571634
 42
-0.000253
  0
VERTEX
  8
0
 10
390.883318
 20
376.642167
 42
-0.216689
  0
VERTEX
  8
0
 10
391.000000
 20
376.385569
 42
-0.407559
  0
VERTEX
  8
0
 10
390.845816
 20
376.227833
 42
-0.000435
  0
VERTEX
  8
0
 10
385.615838
 20
376.113261
 42
-0.003287
  0
VERTEX
  8
0
 10
379.699204
 20
376.027708
 42
-0.001971
  0
VERTEX
  8
0
 10
372.670937
 20
376.000000
 42
0.000000
  0
VERTEX
  8
0
 10
354.341875
 20
376.000000
 42
0.000000
  0
VERTEX
  8
0
 10
352.032194
 20
380.931265
 42
0.030691
  0
VERTEX
  8
0
 10
350.456919
 20
383.818959
 42
0.074060
  0
VERTEX
  8
0
 10
348.877501
 20
385.661690
 42
0.055013
  0
VERTEX
  8
0
 10
346.556392
 20
387.264767
 42
0.011273
  0
VERTEX
  8
0
 10
342.111257
 20
389.533738
 42
0.010000
  0
VERTEX
  8
0
 10
333.320880
 20
393.559022
 42
0.013926
  0
VERTEX
  8
0
 10
325.289865
 20
396.781342
 42
0.014858
  0
VERTEX
  8
0
 10
317.528534
 20
399.387920
 42
0.014484
  0
VERTEX
  8
0
 10
309.560366
 20
401.553132
 42
0.040172
  0
VERTEX
  8
0
 10
273.568495
 20
407.215985
 42
0.039710
  0
VERTEX
  8
0
 10
236.992519
 20
407.083493
 42
0.040866
  0
VERTEX
  8
0
 10
201.969339
 20
401.262911
 42
0.049329
  0
VERTEX
  8
0
 10
170.605018
 20
389.993159
 42
0.009070
  0
VERTEX
  8
0
 10
165.416717
 20
387.411834
 42
0.062230
  0
VERTEX
  8
0
 10
163.074506
 20
385.795281
 42
0.082998
  0
VERTEX
  8
0
 10
161.500754
 20
383.836266
 42
0.022514
  0
VERTEX
  8
0
 10
159.707537
 20
380.272041
 42
0.023696
  0
VERTEX
  8
0
 10
157.474091
 20
374.576864
 42
0.013528
  0
VERTEX
  8
0
 10
155.294717
 20
367.513932
 42
0.013357
  0
VERTEX
  8
0
 10
153.563710
 20
360.606068
 42
0.035161
  0
VERTEX
  8
0
 10
152.808802
 20
355.560759
 42
0.000000
  0
VERTEX
  8
0
 10
152.500000
 20
351.621519
 42
0.000000
  0
VERTEX
  8
0
 10
161.000000
 20
350.353082
 42
0.008689
  0
VERTEX
  8
0
 10
187.280233
 20
346.897047
 42
0.014148
  0
VERTEX
  8
0
 10
209.696919
 20
344.985101
 42
0.012438
  0
VERTEX
  8
0
 10
234.114978
 20
344.205505
 42
0.005088
  0
VERTEX
  8
0
 10
267.300772
 20
344.309567
 42
0.003230
  0
VERTEX
  8
0
 10
294.367109
 20
344.844777
 42
0.010247
  0
VERTEX
  8
0
 10
312.457783
 20
345.690664
 42
0.012963
  0
VERTEX
  8
0
 10
328.092170
 20
347.151112
 42
0.008264
  0
VERTEX
  8
0
 10
346.190917
 20
349.620347
 42
-0.007094
  0
VERTEX
  8
0
 10
350.399669
 20
350.204580
 42
-0.009748
  0
VERTEX
  8
0
 10
354.199358
 20
350.602130
 42
-0.006840
  0
VERTEX
  8
0
 10
357.369946
 20
350.827849
 42
-0.106348
  0
VERTEX
  8
0
 10
358.440917
 20
350.661046
 42
-0.283792
  0
VERTEX
  8
0
 10
359.360315
 20
349.455009
 42
-0.013666
  0
VERTEX
  8
0
 10
359.734636
 20
344.189681
 42
-0.009757
  0
VERTEX
  8
0
 10
359.953497
 20
335.120225
 42
-0.001153
  0
VERTEX
  8
0
 10
360.000000
 20
314.958555
 42
0.000000
  0
VERTEX
  8
0
 10
360.000000
 20
279.854340
 42
0.000000
  0
VERTEX
  8
0
 10
370.040369
 20
267.177170
 42
-0.000550
  0
VERTEX
  8
0
 10
375.868685
 20
259.801578
 42
-0.000092
  0
VERTEX
  8
0
 10
387.014366
 20
245.659700
 42
-0.000101
  0
VERTEX
  8
0
 10
400.107875
 20
229.033154
 42
-0.000090
  0
VERTEX
  8
0
 10
413.724946
 20
211.728192
 42
0.001271
  0
VERTEX
  8
0
 10
426.677463
 20
195.347560
 42
0.002106
  0
VERTEX
  8
0
 10
437.699337
 20
181.600447
 42
0.000188
  0
VERTEX
  8
0
 10
447.604452
 20
169.361705
 42
0.322645
  0
VERTEX
  8
0
 10
448.094833
 20
169.228192
 42
0.135049
  0
VERTEX
  8
0
 10
448.565594
 20
169.569169
 42
0.000761
  0
VERTEX
  8
0
 10
452.028455
 20
173.904818
 42
0.003180
  0
VERTEX
  8
0
 10
455.950097
 20
178.895049
 42
0.002007
  0
VERTEX
  8
0
 10
460.466848
 20
184.766933
 42
0.000000
  0
VERTEX
  8
0
 10
472.113185
 20
200.033866
 42
0.000000
  0
VERTEX
  8
0
 10
440.389497
 20
235.679221
 42
-0.000970
  0
VERTEX
  8
0
 10
428.322220
 20
249.291323
 42
-0.001703
  0
VERTEX
  8
0
 10
418.400914
 20
260.603973
 42
-0.000391
  0
VERTEX
  8
0
 10
409.952541
 20
270.318899
 42
-0.853566
  0
VERTEX
  8
0
 10
410.082904
 20
270.474262
 42
-0.011450
  0
VERTEX
  8
0
 10
411.187103
 20
269.776825
 42
-0.000037
  0
VERTEX
  8
0
 10
424.669666
 20
260.821137
 42
-0.000210
  0
VERTEX
  8
0
 10
439.918049
 20
250.681642
 42
-0.000132
  0
VERTEX
  8
0
 10
457.750000
 20
238.806618
 42
0.000000
  0
VERTEX
  8
0
 10
504.000000
 20
207.989287
 42
0.000000
  0
VERTEX
  8
0
 10
504.000000
 20
231.824898
 42
0.000000
  0
VERTEX
  8
0
 10
504.000000
 20
255.660510
 42
0.000000
  0
VERTEX
  8
0
 10
456.250000
 20
287.580255
 42
0.000000
  0
VERTEX
  8
0
 10
408.500000
 20
319.500000
 42
0.000000
  0
VERTEX
  8
0
 10
408.000000
 20
332.500000
 42
0.005339
  0
VERTEX
  8
0
 10
407.619582
 20
340.238301
 42
0.030449
  0
VERTEX
  8
0
 10
407.124163
 20
344.323649
 42
0.048261
  0
VERTEX
  8
0
 10
406.234997
 20
347.439210
 42
0.027565
  0
VERTEX
  8
0
 10
404.603798
 20
351.000000
 42
-0.005611
  0
VERTEX
  8
0
 10
403.196379
 20
353.747083
 42
-0.002143
  0
VERTEX
  8
0
 10
401.296179
 20
357.602176
 42
-0.002122
  0
VERTEX
  8
0
 10
399.268079
 20
361.806813
 42
-0.002603
  0
VERTEX
  8
0
 10
397.410825
 20
365.752090
 42
0.000000
  0
VERTEX
  8
0
 10
393.114053
 20
375.004179
 42
0.000000
  0
VERTEX
  8
0
 10
401.307027
 20
368.107283
 42
0.022776
  0
VERTEX
  8
0
 10
413.473466
 20
358.777901
 42
0.049823
  0
VERTEX
  8
0
 10
423.717356
 20
353.060433
 42
0.058385
  0
VERTEX
  8
0
 10
433.798533
 20
350.020600
 42
0.044409
  0
VERTEX
  8
0
 10
445.301622
 20
349.011869
 42
0.041716
  0
VERTEX
  8
0
 10
457.205712
 20
350.022241
 42
0.056379
  0
VERTEX
  8
0
 10
467.576598
 20
353.012237
 42
0.056573
  0
VERTEX
  8
0
 10
476.990830
 20
358.233261
 42
0.042396
  0
VERTEX
  8
0
 10
486.033647
 20
365.913916
 42
0.025305
  0
VERTEX
  8
0
 10
491.503713
 20
372.009940
 42
0.034013
  0
VERTEX
  8
0
 10
495.769302
 20
378.077693
 42
0.035415
  0
VERTEX
  8
0
 10
499.043546
 20
384.461211
 42
0.031427
  0
VERTEX
  8
0
 10
501.535769
 20
391.500000
 42
0.041959
  0
VERTEX
  8
0
 10
502.450465
 20
396.165653
 42
0.014212
  0
VERTEX
  8
0
 10
503.012819
 20
403.067181
 42
0.008175
  0
VERTEX
  8
0
 10
503.404482
 20
413.783825
 42
0.001632
  0
VERTEX
  8
0
 10
503.728335
 20
432.924431
 42
0.001881
  0
VERTEX
  8
0
 10
503.895109
 20
449.783792
 42
0.005919
  0
VERTEX
  8
0
 10
503.830518
 20
461.098230
 42
0.006367
  0
VERTEX
  8
0
 10
503.591659
 20
468.983959
 42
0.062100
  0
VERTEX
  8
0
 10
503.037917
 20
472.267780
 42
0.007974
  0
VERTEX
  8
0
 10
502.224022
 20
474.834696
 42
0.172970
  0
VERTEX
  8
0
 10
501.742887
 20
475.447588
 42
0.305024
  0
VERTEX
  8
0
 10
501.120588
 20
475.429277
 42
0.023743
  0
VERTEX
  8
0
 10
499.747129
 20
474.343349
 42
-0.029219
  0
VERTEX
  8
0
 10
498.954081
 20
473.730310
 42
-0.730599
  0
VERTEX
  8
0
 10
498.810210
 20
473.842498
 42
-0.067455
  0
VERTEX
  8
0
 10
499.176928
 20
474.533122
 42
-0.004806
  0
VERTEX
  8
0
 10
500.466082
 20
476.292157
 42
0.174105
  0
VERTEX
  8
0
 10
503.723216
 20
486.922856
 42
0.162832
  0
VERTEX
  8
0
 10
499.599501
 20
497.546009
 42
0.166863
  0
VERTEX
  8
0
 10
490.016097
 20
503.382277
 42
0.181607
  0
SEQEND
  0
POLYLINE
  8
0
 66
1
 70
1
  0
VERTEX
  8
0
 10
496.000000
 20
469.654988
 42
-0.191119
  0
VERTEX
  8
0
 10
495.918017
 20
469.448340
 42
-0.007508
  0
VERTEX
  8
0
 10
495.339063
 20
468.851732
 42
-0.012381
  0
VERTEX
  8
0
 10
494.612165
 20
468.159969
 42
-0.008332
  0
VERTEX
  8
0
 10
493.750000
 20
467.404988
 42
0.000000
  0
VERTEX
  8
0
 10
491.500000
 20
465.500000
 42
0.000000
  0
VERTEX
  8
0
 10
493.404988
 20
467.750000
 42
-0.010402
  0
VERTEX
  8
0
 10
494.598996
 20
469.102181
 42
-0.048385
  0
VERTEX
  8
0
 10
495.373826
 20
469.795506
 42
-0.197337
  0
VERTEX
  8
0
 10
495.789444
 20
469.898791
 42
-0.372044
  0
SEQEND
  0
POLYLINE
  8
0
 66
1
 70
1
  0
VERTEX
  8
0
 10
489.654988
 20
462.171259
 42
0.151610
  0
VERTEX
  8
0
 10
488.711968
 20
460.139954
 42
0.020843
  0
VERTEX
  8
0
 10
488.278081
 20
455.438512
 42
0.011212
  0
VERTEX
  8
0
 10
488.049297
 20
447.247765
 42
0.001375
  0
VERTEX
  8
0
 10
488.000000
 20
429.327810
 42
-0.001527
  0
VERTEX
  8
0
 10
487.943850
 20
410.938046
 42
-0.011805
  0
VERTEX
  8
0
 10
487.688298
 20
402.340839
 42
-0.025670
  0
VERTEX
  8
0
 10
487.125314
 20
396.981080
 42
-0.043873
  0
VERTEX
  8
0
 10
486.040555
 20
392.617875
 42
-0.057046
  0
VERTEX
  8
0
 10
481.812506
 20
383.759861
 42
-0.058779
  0
VERTEX
  8
0
 10
475.727385
 20
376.184336
 42
-0.058296
  0
VERTEX
  8
0
 10
467.996850
 20
370.182310
 42
-0.054503
  0
VERTEX
  8
0
 10
458.917076
 20
365.964959
 42
-0.020402
  0
VERTEX
  8
0
 10
455.213532
 20
364.879385
 42
-0.032674
  0
VERTEX
  8
0
 10
451.972821
 20
364.292994
 42
-0.028121
  0
VERTEX
  8
0
 10
448.356208
 20
364.084962
 42
-0.011061
  0
VERTEX
  8
0
 10
443.364779
 20
364.189246
 42
-0.011895
  0
VERTEX
  8
0
 10
438.042931
 20
364.545266
 42
-0.037512
  0
VERTEX
  8
0
 10
434.517896
 20
365.134320
 42
-0.039851
  0
VERTEX
  8
0
 10
431.234760
 20
366.223139
 42
-0.014784
  0
VERTEX
  8
0
 10
426.805743
 20
368.251444
 42
-0.076770
  0
VERTEX
  8
0
 10
420.078129
 20
372.976150
 42
-0.331470
  0
VERTEX
  8
0
 10
419.323239
 20
377.505365
 42
-0.054603
  0
VERTEX
  8
0
 10
424.205931
 20
384.891856
 42
-0.001072
  0
VERTEX
  8
0
 10
453.289501
 20
419.750000
 42
-0.000584
  0
VERTEX
  8
0
 10
467.541228
 20
436.716840
 42
-0.000967
  0
VERTEX
  8
0
 10
479.615829
 20
451.001562
 42
-0.000049
  0
VERTEX
  8
0
 10
490.524568
 20
463.853950
 42
-0.220188
  0
VERTEX
  8
0
 10
490.840137
 20
464.000000
 42
-0.545445
  0
VERTEX
  8
0
 10
490.915648
 20
463.882740
 42
-0.037131
  0
VERTEX
  8
0
 10
490.685807
 20
463.462807
 42
-0.026845
  0
VERTEX
  8
0
 10
490.257247
 20
462.873410
 42
-0.013299
  0
SEQEND
  0
POLYLINE
  8
0
 66
1
 70
1
  0
VERTEX
  8
0
 10
186.985949
 20
317.710971
 42
0.050229
  0
VERTEX
  8
0
 10
182.578503
 20
314.780292
 42
0.067178
  0
VERTEX
  8
0
 10
179.310453
 20
311.268497
 42
0.070458
  0
VERTEX
  8
0
 10
177.198431
 20
307.157870
 42
0.062883
  0
VERTEX
  8
0
 10
176.205031
 20
302.458866
 42
0.024718
  0
VERTEX
  8
0
 10
176.088493
 20
298.961778
 42
0.080066
  0
VERTEX
  8
0
 10
176.493689
 20
296.682085
 42
0.057907
  0
VERTEX
  8
0
 10
177.661058
 20
294.273931
 42
0.008751
  0
VERTEX
  8
0
 10
180.621943
 20
289.799352
 42
0.026528
  0
VERTEX
  8
0
 10
188.455288
 20
279.603686
 42
0.090741
  0
VERTEX
  8
0
 10
194.921504
 20
274.356999
 42
0.119441
  0
VERTEX
  8
0
 10
201.789184
 20
272.508626
 42
0.064258
  0
VERTEX
  8
0
 10
210.562059
 20
273.417071
 42
0.031512
  0
VERTEX
  8
0
 10
217.407016
 20
275.493473
 42
0.019620
  0
VERTEX
  8
0
 10
225.145622
 20
278.735810
 42
0.018148
  0
VERTEX
  8
0
 10
232.089304
 20
282.282987
 42
0.080082
  0
VERTEX
  8
0
 10
235.683388
 20
285.121093
 42
0.054375
  0
VERTEX
  8
0
 10
237.727570
 20
287.901747
 42
0.059655
  0
VERTEX
  8
0
 10
239.048999
 20
290.974712
 42
0.048993
  0
VERTEX
  8
0
 10
239.772284
 20
294.755195
 42
0.022786
  0
VERTEX
  8
0
 10
240.000000
 20
299.749375
 42
0.042302
  0
VERTEX
  8
0
 10
239.489987
 20
305.766781
 42
0.068643
  0
VERTEX
  8
0
 10
237.945619
 20
310.652185
 42
0.077443
  0
VERTEX
  8
0
 10
235.310925
 20
314.521332
 42
0.072201
  0
VERTEX
  8
0
 10
231.566094
 20
317.514134
 42
0.046833
  0
VERTEX
  8
0
 10
228.495393
 20
318.946628
 42
0.057969
  0
VERTEX
  8
0
 10
225.422962
 20
319.656585
 42
0.025329
  0
VERTEX
  8
0
 10
220.702058
 20
319.943174
 42
0.002496
  0
VERTEX
  8
0
 10
209.319426
 20
320.000000
 42
0.002743
  0
VERTEX
  8
0
 10
198.331207
 20
319.939714
 42
0.022795
  0
VERTEX
  8
0
 10
193.357237
 20
319.658113
 42
0.048941
  0
VERTEX
  8
0
 10
190.097251
 20
318.997485
 42
0.047207
  0
SEQEND
  0
POLYLINE
  8
0
 66
1
 70
1
  0
VERTEX
  8
0
 10
280.479054
 20
317.570451
 42
0.040238
  0
VERTEX
  8
0
 10
278.761637
 20
316.343080
 42
0.025085
  0
VERTEX
  8
0
 10
276.952154
 20
314.653678
 42
0.025056
  0
VERTEX
  8
0
 10
275.316466
 20
312.786631
 42
0.039348
  0
VERTEX
  8
0
 10
274.129068
 20
311.015857
 42
0.032724
  0
VERTEX
  8
0
 10
272.898810
 20
308.446820
 42
0.055815
  0
VERTEX
  8
0
 10
272.265563
 20
306.155785
 42
0.040262
  0
VERTEX
  8
0
 10
272.043923
 20
303.308065
 42
0.009879
  0
VERTEX
  8
0
 10
272.150014
 20
298.606926
 42
0.010225
  0
VERTEX
  8
0
 10
272.446158
 20
293.895216
 42
0.043954
  0
VERTEX
  8
0
 10
272.924185
 20
291.128199
 42
0.062302
  0
VERTEX
  8
0
 10
273.789776
 20
288.982024
 42
0.036003
  0
VERTEX
  8
0
 10
275.317061
 20
286.649781
 42
0.078165
  0
VERTEX
  8
0
 10
278.887294
 20
283.235816
 42
0.030929
  0
VERTEX
  8
0
 10
284.710010
 20
279.704409
 42
0.028547
  0
VERTEX
  8
0
 10
291.842906
 20
276.465359
 42
0.025361
  0
VERTEX
  8
0
 10
299.583158
 20
273.913469
 42
0.053802
  0
VERTEX
  8
0
 10
308.823736
 20
272.419786
 42
0.117173
  0
VERTEX
  8
0
 10
315.845883
 20
273.701410
 42
0.100742
  0
VERTEX
  8
0
 10
322.203374
 20
278.188579
 42
0.033324
  0
VERTEX
  8
0
 10
329.500000
 20
287.051875
 42
0.007178
  0
VERTEX
  8
0
 10
333.188897
 20
292.354987
 42
0.050705
  0
VERTEX
  8
0
 10
334.670500
 20
295.118746
 42
0.073728
  0
VERTEX
  8
0
 10
335.310883
 20
297.695574
 42
0.024102
  0
VERTEX
  8
0
 10
335.500000
 20
301.616472
 42
0.016366
  0
VERTEX
  8
0
 10
335.383663
 20
305.169748
 42
0.058354
  0
VERTEX
  8
0
 10
334.972387
 20
307.404065
 42
0.067895
  0
VERTEX
  8
0
 10
334.091491
 20
309.303754
 42
0.027670
  0
VERTEX
  8
0
 10
332.421335
 20
311.618150
 42
0.031494
  0
VERTEX
  8
0
 10
330.929052
 20
313.241379
 42
0.019027
  0
VERTEX
  8
0
 10
328.975496
 20
314.976981
 42
0.019027
  0
VERTEX
  8
0
 10
326.895409
 20
316.559220
 42
0.031463
  0
VERTEX
  8
0
 10
325.014051
 20
317.710971
 42
0.047308
  0
VERTEX
  8
0
 10
321.899110
 20
318.998253
 42
0.049044
  0
VERTEX
  8
0
 10
318.635138
 20
319.657618
 42
0.022750
  0
VERTEX
  8
0
 10
313.648664
 20
319.936295
 42
0.002715
  0
VERTEX
  8
0
 10
302.592716
 20
319.990540
 42
0.002493
  0
VERTEX
  8
0
 10
291.243340
 20
319.928023
 42
0.024633
  0
VERTEX
  8
0
 10
286.480604
 20
319.643114
 42
0.056930
  0
VERTEX
  8
0
 10
283.424562
 20
318.950923
 42
0.050941
  0
SEQEND
  0
POLYLINE
  8
0
 66
1
 70
1
  0
VERTEX
  8
0
 10
247.000000
 20
268.377525
 42
0.001189
  0
VERTEX
  8
0
 10
236.394304
 20
253.906753
 42
0.026492
  0
VERTEX
  8
0
 10
233.554023
 20
249.544205
 42
0.083099
  0
VERTEX
  8
0
 10
232.385726
 20
246.424590
 42
0.048166
  0
VERTEX
  8
0
 10
232.000000
 20
242.429764
 42
0.052207
  0
VERTEX
  8
0
 10
232.405278
 20
238.558909
 42
0.096117
  0
VERTEX
  8
0
 10
233.634872
 20
235.652951
 42
0.107031
  0
VERTEX
  8
0
 10
235.751481
 20
233.618469
 42
0.076766
  0
VERTEX
  8
0
 10
238.784387
 20
232.339268
 42
0.069727
  0
VERTEX
  8
0
 10
241.606584
 20
232.037061
 42
0.042526
  0
VERTEX
  8
0
 10
244.940931
 20
232.430845
 42
0.042976
  0
VERTEX
  8
0
 10
248.062966
 20
233.357255
 42
0.090548
  0
VERTEX
  8
0
 10
250.203902
 20
234.684529
 42
-0.119250
  0
VERTEX
  8
0
 10
252.713864
 20
236.049816
 42
-0.074679
  0
VERTEX
  8
0
 10
256.053172
 20
236.424455
 42
-0.071144
  0
VERTEX
  8
0
 10
259.528546
 20
235.794175
 42
-0.086480
  0
VERTEX
  8
0
 10
262.438199
 20
234.227273
 42
0.115398
  0
VERTEX
  8
0
 10
266.444400
 20
232.357174
 42
0.084717
  0
VERTEX
  8
0
 10
271.360782
 20
232.170616
 42
0.085742
  0
VERTEX
  8
0
 10
276.005840
 20
233.618539
 42
0.123264
  0
VERTEX
  8
0
 10
279.234687
 20
236.442036
 42
0.107432
  0
VERTEX
  8
0
 10
279.522350
 20
237.136046
 42
0.014623
  0
VERTEX
  8
0
 10
279.758058
 20
238.699336
 42
0.016274
  0
VERTEX
  8
0
 10
279.925037
 20
240.594917
 42
0.013085
  0
VERTEX
  8
0
 10
279.984687
 20
242.640809
 42
0.051105
  0
VERTEX
  8
0
 10
279.600932
 20
246.498891
 42
0.081678
  0
VERTEX
  8
0
 10
278.423709
 20
249.586525
 42
0.025726
  0
VERTEX
  8
0
 10
275.561350
 20
253.967905
 42
0.001179
  0
VERTEX
  8
0
 10
265.000000
 20
268.377525
 42
0.002629
  0
VERTEX
  8
0
 10
261.705297
 20
272.801664
 42
0.004249
  0
VERTEX
  8
0
 10
258.850000
 20
276.527658
 42
0.000900
  0
VERTEX
  8
0
 10
256.317058
 20
279.763432
 42
0.230148
  0
VERTEX
  8
0
 10
256.000000
 20
279.917536
 42
0.230148
  0
VERTEX
  8
0
 10
255.682942
 20
279.763432
 42
0.000900
  0
VERTEX
  8
0
 10
253.150000
 20
276.527658
 42
0.004249
  0
VERTEX
  8
0
 10
250.294703
 20
272.801664
 42
0.002629
  0
SEQEND
  0
POLYLINE
  8
0
 66
1
 70
1
  0
VERTEX
  8
0
 10
176.000000
 20
230.020236
 42
0.022778
  0
VERTEX
  8
0
 10
176.363067
 20
222.054847
 42
0.058765
  0
VERTEX
  8
0
 10
177.552818
 20
216.431319
 42
0.049527
  0
VERTEX
  8
0
 10
180.143003
 20
210.706054
 42
0.012596
  0
VERTEX
  8
0
 10
185.469023
 20
202.000000
 42
-0.007787
  0
VERTEX
  8
0
 10
191.432548
 20
192.459204
 42
-0.016250
  0
VERTEX
  8
0
 10
195.714461
 20
184.814350
 42
-0.020674
  0
VERTEX
  8
0
 10
198.610906
 20
178.609305
 42
-0.046679
  0
VERTEX
  8
0
 10
200.152623
 20
173.662063
 42
0.027093
  0
VERTEX
  8
0
 10
201.294742
 20
169.419555
 42
0.028774
  0
VERTEX
  8
0
 10
202.870629
 20
165.412255
 42
0.030745
  0
VERTEX
  8
0
 10
204.657190
 20
162.092275
 42
0.080906
  0
VERTEX
  8
0
 10
206.426912
 20
160.060658
 42
0.080507
  0
VERTEX
  8
0
 10
207.267589
 20
159.565764
 42
0.393436
  0
VERTEX
  8
0
 10
207.735530
 20
159.751733
 42
0.103714
  0
VERTEX
  8
0
 10
207.960336
 20
160.685894
 42
0.007368
  0
VERTEX
  8
0
 10
208.000000
 20
163.377555
 42
0.000000
  0
VERTEX
  8
0
 10
208.000000
 20
168.000000
 42
0.000000
  0
VERTEX
  8
0
 10
216.000000
 20
168.000000
 42
0.000000
  0
VERTEX
  8
0
 10
224.000000
 20
168.000000
 42
0.000000
  0
VERTEX
  8
0
 10
224.000000
 20
160.000000
 42
0.000000
  0
VERTEX
  8
0
 10
224.000000
 20
152.000000
 42
0.000000
  0
VERTEX
  8
0
 10
228.000000
 20
152.000000
 42
0.000000
  0
VERTEX
  8
0
 10
232.000000
 20
152.000000
 42
0.000000
  0
VERTEX
  8
0
 10
232.000000
 20
160.000000
 42
0.000000
  0
VERTEX
  8
0
 10
232.000000
 20
168.000000
 42
0.000000
  0
VERTEX
  8
0
 10
240.000000
 20
168.000000
 42
0.000000
  0
VERTEX
  8
0
 10
248.000000
 20
168.000000
 42
0.000000
  0
VERTEX
  8
0
 10
248.000000
 20
160.000000
 42
0.000000
  0
VERTEX
  8
0
 10
248.000000
 20
152.000000
 42
0.000000
  0
VERTEX
  8
0
 10
256.000000
 20
152.000000
 42
0.000000
  0
VERTEX
  8
0
 10
264.000000
 20
152.000000
 42
0.000000
  0
VERTEX
  8
0
 10
264.000000
 20
160.000000
 42
0.000000
  0
VERTEX
  8
0
 10
264.000000
 20
168.000000
 42
0.000000
  0
VERTEX
  8
0
 10
272.000000
 20
168.000000
 42
0.000000
  0
VERTEX
  8
0
 10
280.000000
 20
168.000000
 42
0.000000
  0
VERTEX
  8
0
 10
280.000000
 20
160.000000
 42
0.000000
  0
VERTEX
  8
0
 10
280.000000
 20
152.000000
 42
0.000000
  0
VERTEX
  8
0
 10
284.000000
 20
152.000000
 42
0.000000
  0
VERTEX
  8
0
 10
288.000000
 20
152.000000
 42
0.000000
  0
VERTEX
  8
0
 10
288.000000
 20
160.000000
 42
0.000000
  0
VERTEX
  8
0
 10
288.000000
 20
168.000000
 42
0.000000
  0
VERTEX
  8
0
 10
296.000000
 20
168.000000
 42
0.000000
  0
VERTEX
  8
0
 10
304.000000
 20
168.000000
 42
0.000000
  0
VERTEX
  8
0
 10
304.000000
 20
163.377555
 42
0.007419
  0
VERTEX
  8
0
 10
304.039838
 20
160.692826
 42
0.103043
  0
VERTEX
  8
0
 10
304.264404
 20
159.755033
 42
0.392345
  0
VERTEX
  8
0
 10
304.731553
 20
159.567027
 42
0.082074
  0
VERTEX
  8
0
 10
305.565937
 20
160.054723
 42
0.076273
  0
VERTEX
  8
0
 10
307.294472
 20
162.002541
 42
0.035615
  0
VERTEX
  8
0
 10
308.923281
 20
164.967325
 42
0.030366
  0
VERTEX
  8
0
 10
310.393508
 20
168.752762
 42
0.020143
  0
VERTEX
  8
0
 10
311.634504
 20
173.246153
 42
-0.045877
  0
VERTEX
  8
0
 10
313.372878
 20
178.476545
 42
-0.017515
  0
VERTEX
  8
0
 10
316.698179
 20
185.403005
 42
-0.014752
  0
VERTEX
  8
0
 10
321.386316
 20
193.742744
 42
-0.008531
  0
VERTEX
  8
0
 10
327.485750
 20
203.500000
 42
0.015525
  0
VERTEX
  8
0
 10
332.156866
 20
211.210228
 42
0.050793
  0
VERTEX
  8
0
 10
334.542056
 20
216.665944
 42
0.055916
  0
VERTEX
  8
0
 10
335.659010
 20
222.206280
 42
0.021809
  0
VERTEX
  8
0
 10
336.000000
 20
230.020236
 42
0.011159
  0
VERTEX
  8
0
 10
335.832516
 20
237.524043
 42
0.203248
  0
VERTEX
  8
0
 10
334.823035
 20
239.637160
 42
0.241805
  0
VERTEX
  8
0
 10
332.696850
 20
240.179146
 42
0.015943
  0
VERTEX
  8
0
 10
326.386260
 20
238.522066
 42
0.059857
  0
VERTEX
  8
0
 10
318.583302
 20
235.146929
 42
0.072916
  0
VERTEX
  8
0
 10
312.367222
 20
230.187818
 42
0.066808
  0
VERTEX
  8
0
 10
307.452655
 20
223.280657
 42
0.040902
  0
VERTEX
  8
0
 10
303.523501
 20
214.070567
 42
0.006690
  0
VERTEX
  8
0
 10
302.029112
 20
209.374645
 42
0.049010
  0
VERTEX
  8
0
 10
301.568523
 20
207.064260
 42
0.091372
  0
VERTEX
  8
0
 10
301.712368
 20
205.343541
 42
0.053814
  0
VERTEX
  8
0
 10
302.467008
 20
203.416024
 42
-0.069147
  0
VERTEX
  8
0
 10
303.189857
 20
201.389432
 42
-0.026057
  0
VERTEX
  8
0
 10
303.648061
 20
198.406923
 42
-0.018451
  0
VERTEX
  8
0
 10
303.912868
 20
194.238241
 42
-0.006509
  0
VERTEX
  8
0
 10
303.993839
 20
188.250000
 42
0.000000
  0
VERTEX
  8
0
 10
304.000000
 20
176.000000
 42
0.000000
  0
VERTEX
  8
0
 10
296.000000
 20
176.000000
 42
0.000000
  0
VERTEX
  8
0
 10
288.000000
 20
176.000000
 42
0.000000
  0
VERTEX
  8
0
 10
288.000000
 20
184.000000
 42
0.000000
  0
VERTEX
  8
0
 10
288.000000
 20
192.000000
 42
0.000000
  0
VERTEX
  8
0
 10
284.000000
 20
192.000000
 42
0.000000
  0
VERTEX
  8
0
 10
280.000000
 20
192.000000
 42
0.000000
  0
VERTEX
  8
0
 10
280.000000
 20
184.000000
 42
0.000000
  0
VERTEX
  8
0
 10
280.000000
 20
176.000000
 42
0.000000
  0
VERTEX
  8
0
 10
272.000000
 20
176.000000
 42
0.000000
  0
VERTEX
  8
0
 10
264.000000
 20
176.000000
 42
0.000000
  0
VERTEX
  8
0
 10
264.000000
 20
184.000000
 42
0.000000
  0
VERTEX
  8
0
 10
264.000000
 20
192.000000
 42
0.000000
  0
VERTEX
  8
0
 10
256.000000
 20
192.000000
 42
0.000000
  0
VERTEX
  8
0
 10
248.000000
 20
192.000000
 42
0.000000
  0
VERTEX
  8
0
 10
248.000000
 20
184.000000
 42
0.000000
  0
VERTEX
  8
0
 10
248.000000
 20
176.000000
 42
0.000000
  0
VERTEX
  8
0
 10
240.000000
 20
176.000000
 42
0.000000
  0
VERTEX
  8
0
 10
232.000000
 20
176.000000
 42
0.000000
  0
VERTEX
  8
0
 10
232.000000
 20
184.000000
 42
0.000000
  0
VERTEX
  8
0
 10
232.000000
 20
192.000000
 42
0.000000
  0
VERTEX
  8
0
 10
228.000000
 20
192.000000
 42
0.000000
  0
VERTEX
  8
0
 10
224.000000
 20
192.000000
 42
0.000000
  0
VERTEX
  8
0
 10
224.000000
 20
184.000000
 42
0.000000
  0
VERTEX
  8
0
 10
224.000000
 20
176.000000
 42
0.000000
  0
VERTEX
  8
0
 10
216.000000
 20
176.000000
 42
0.000000
  0
VERTEX
  8
0
 10
208.000000
 20
176.000000
 42
0.000000
  0
VERTEX
  8
0
 10
208.006161
 20
188.250000
 42
-0.006509
  0
VERTEX
  8
0
 10
208.087132
 20
194.238241
 42
-0.018451
  0
VERTEX
  8
0
 10
208.351939
 20
198.406923
 42
-0.026057
  0
VERTEX
  8
0
 10
208.810143
 20
201.389432
 42
-0.069147
  0
VERTEX
  8
0
 10
209.532992
 20
203.416024
 42
0.053814
  0
VERTEX
  8
0
 10
210.287632
 20
205.343541
 42
0.091372
  0
VERTEX
  8
0
 10
210.431477
 20
207.064260
 42
0.049010
  0
VERTEX
  8
0
 10
209.970888
 20
209.374645
 42
0.006690
  0
VERTEX
  8
0
 10
208.476499
 20
214.070567
 42
0.040902
  0
VERTEX
  8
0
 10
204.547345
 20
223.280657
 42
0.066808
  0
VERTEX
  8
0
 10
199.632778
 20
230.187818
 42
0.072916
  0
VERTEX
  8
0
 10
193.416698
 20
235.146929
 42
0.059857
  0
VERTEX
  8
0
 10
185.613740
 20
238.522066
 42
0.015943
  0
VERTEX
  8
0
 10
179.303150
 20
240.179146
 42
0.241805
  0
VERTEX
  8
0
 10
177.176965
 20
239.637160
 42
0.203248
  0
VERTEX
  8
0
 10
176.167484
 20
237.524043
 42
0.011159
  0
SEQEND
  0
POLYLINE
  8
0
 66
1
 70
1
  0
VERTEX
  8
0
 10
348.175600
 20
235.396866
 42
0.064573
  0
VERTEX
  8
0
 10
341.709885
 20
225.093221
 42
0.053365
  0
VERTEX
  8
0
 10
337.569747
 20
212.798428
 42
0.052781
  0
VERTEX
  8
0
 10
336.093725
 20
199.759519
 42
0.059773
  0
VERTEX
  8
0
 10
337.501937
 20
187.255303
 42
0.030995
  0
VERTEX
  8
0
 10
339.333197
 20
181.196595
 42
0.024027
  0
VERTEX
  8
0
 10
342.039920
 20
174.857211
 42
0.024504
  0
VERTEX
  8
0
 10
345.234814
 20
169.017042
 42
0.040969
  0
VERTEX
  8
0
 10
348.538433
 20
164.500000
 42
0.000000
  0
VERTEX
  8
0
 10
352.000000
 20
160.500000
 42
0.000000
  0
VERTEX
  8
0
 10
355.461567
 20
164.500000
 42
0.040969
  0
VERTEX
  8
0
 10
358.765186
 20
169.017042
 42
0.024504
  0
VERTEX
  8
0
 10
361.960080
 20
174.857211
 42
0.024027
  0
VERTEX
  8
0
 10
364.666803
 20
181.196595
 42
0.030995
  0
VERTEX
  8
0
 10
366.498063
 20
187.255303
 42
0.059773
  0
VERTEX
  8
0
 10
367.906275
 20
199.759519
 42
0.052781
  0
VERTEX
  8
0
 10
366.430253
 20
212.798428
 42
0.053365
  0
VERTEX
  8
0
 10
362.290115
 20
225.093221
 42
0.064573
  0
VERTEX
  8
0
 10
355.824400
 20
235.396866
 42
0.013130
  0
VERTEX
  8
0
 10
354.624491
 20
236.777069
 42
0.018324
  0
VERTEX
  8
0
 10
353.475854
 20
237.941579
 42
0.014891
  0
VERTEX
  8
0
 10
352.479030
 20
238.826210
 42
0.175792
  0
VERTEX
  8
0
 10
352.000000
 20
239.000000
 42
0.175792
  0
VERTEX
  8
0
 10
351.520970
 20
238.826210
 42
0.014891
  0
VERTEX
  8
0
 10
350.524146
 20
237.941579
 42
0.018324
  0
VERTEX
  8
0
 10
349.375509
 20
236.777069
 42
0.013130
  0
SEQEND
  0
POLYLINE
  8
0
 66
1
 70
1
  0
VERTEX
  8
0
 10
345.401069
 20
158.094566
 42
0.092304
  0
VERTEX
  8
0
 10
340.690761
 20
154.799758
 42
0.090244
  0
VERTEX
  8
0
 10
337.437402
 20
150.006652
 42
0.091277
  0
VERTEX
  8
0
 10
336.105034
 20
144.423961
 42
0.097219
  0
VERTEX
  8
0
 10
336.897671
 20
138.863696
 42
-0.066305
  0
VERTEX
  8
0
 10
337.341274
 20
136.708696
 42
-0.147900
  0
VERTEX
  8
0
 10
336.974633
 20
135.092465
 42
-0.061544
  0
VERTEX
  8
0
 10
335.525978
 20
133.145456
 42
-0.004860
  0
VERTEX
  8
0
 10
331.019937
 20
128.520071
 42
0.011137
  0
VERTEX
  8
0
 10
326.561175
 20
123.826767
 42
0.065749
  0
VERTEX
  8
0
 10
324.633141
 20
121.045686
 42
0.155549
  0
VERTEX
  8
0
 10
324.292273
 20
119.014389
 42
0.162157
  0
VERTEX
  8
0
 10
325.200000
 20
117.200000
 42
0.163187
  0
VERTEX
  8
0
 10
327.019396
 20
116.294327
 42
0.155254
  0
VERTEX
  8
0
 10
329.059184
 20
116.643830
 42
0.065217
  0
VERTEX
  8
0
 10
331.859524
 20
118.592687
 42
0.010952
  0
VERTEX
  8
0
 10
336.606256
 20
123.105547
 42
-0.007651
  0
VERTEX
  8
0
 10
340.393702
 20
126.754287
 42
-0.035750
  0
VERTEX
  8
0
 10
342.747836
 20
128.657889
 42
-0.068228
  0
VERTEX
  8
0
 10
344.449002
 20
129.526871
 42
-0.162239
  0
VERTEX
  8
0
 10
345.851933
 20
129.546995
 42
-0.173711
  0
VERTEX
  8
0
 10
347.030712
 20
128.648424
 42
-0.103024
  0
VERTEX
  8
0
 10
347.677359
 20
126.982037
 42
-0.033220
  0
VERTEX
  8
0
 10
348.001836
 20
123.696083
 42
-0.002891
  0
VERTEX
  8
0
 10
348.222162
 20
115.298711
 42
0.003814
  0
VERTEX
  8
0
 10
348.435374
 20
107.707273
 42
0.025381
  0
VERTEX
  8
0
 10
348.762144
 20
103.937167
 42
0.054577
  0
VERTEX
  8
0
 10
349.305477
 20
101.775556
 42
0.164832
  0
VERTEX
  8
0
 10
350.250000
 20
100.612378
 42
0.051687
  0
VERTEX
  8
0
 10
351.165729
 20
100.160094
 42
0.089104
  0
VERTEX
  8
0
 10
352.000000
 20
100.010230
 42
0.089104
  0
VERTEX
  8
0
 10
352.834271
 20
100.160094
 42
0.051687
  0
VERTEX
  8
0
 10
353.750000
 20
100.612378
 42
0.164832
  0
VERTEX
  8
0
 10
354.694523
 20
101.775556
 42
0.054577
  0
VERTEX
  8
0
 10
355.237856
 20
103.937167
 42
0.025381
  0
VERTEX
  8
0
 10
355.564626
 20
107.707273
 42
0.003814
  0
VERTEX
  8
0
 10
355.777838
 20
115.298711
 42
-0.002891
  0
VERTEX
  8
0
 10
355.998164
 20
123.696083
 42
-0.033220
  0
VERTEX
  8
0
 10
356.322641
 20
126.982037
 42
-0.103024
  0
VERTEX
  8
0
 10
356.969288
 20
128.648424
 42
-0.173711
  0
VERTEX
  8
0
 10
358.148067
 20
129.546995
 42
-0.163525
  0
VERTEX
  8
0
 10
359.556157
 20
129.523268
 42
-0.067538
  0
VERTEX
  8
0
 10
361.272028
 20
128.638888
 42
-0.035323
  0
VERTEX
  8
0
 10
363.654195
 20
126.707043
 42
-0.007511
  0
VERTEX
  8
0
 10
367.500000
 20
123.000000
 42
0.007599
  0
VERTEX
  8
0
 10
371.322046
 20
119.317149
 42
0.034809
  0
VERTEX
  8
0
 10
373.712690
 20
117.375744
 42
0.065558
  0
VERTEX
  8
0
 10
375.434845
 20
116.475778
 42
0.165988
  0
VERTEX
  8
0
 10
376.828619
 20
116.445606
 42
0.070459
  0
VERTEX
  8
0
 10
377.668865
 20
116.849438
 42
0.049213
  0
VERTEX
  8
0
 10
378.482809
 20
117.517191
 42
0.049213
  0
VERTEX
  8
0
 10
379.150562
 20
118.331135
 42
0.070459
  0
VERTEX
  8
0
 10
379.554394
 20
119.171381
 42
0.166093
  0
VERTEX
  8
0
 10
379.523926
 20
120.565580
 42
0.065501
  0
VERTEX
  8
0
 10
378.622659
 20
122.288977
 42
0.034774
  0
VERTEX
  8
0
 10
376.678893
 20
124.681966
 42
0.007587
  0
VERTEX
  8
0
 10
372.991230
 20
128.508829
 42
0.000000
  0
VERTEX
  8
0
 10
365.771366
 20
135.777202
 42
0.000000
  0
VERTEX
  8
0
 10
366.984746
 20
139.453780
 42
0.095332
  0
VERTEX
  8
0
 10
367.683075
 20
144.850457
 42
0.089403
  0
VERTEX
  8
0
 10
366.362184
 20
150.254237
 42
0.088966
  0
VERTEX
  8
0
 10
363.229064
 20
154.878070
 42
0.093184
  0
VERTEX
  8
0
 10
358.729340
 20
158.036180
 42
0.034653
  0
VERTEX
  8
0
 10
355.059112
 20
159.404496
 42
0.070917
  0
VERTEX
  8
0
 10
352.026417
 20
159.850375
 42
0.071698
  0
VERTEX
  8
0
 10
349.011412
 20
159.429277
 42
0.036110
  0
SEQEND
  0
POLYLINE
  8
0
 66
1
 70
1
  0
VERTEX
  8
0
 10
349.070023
 20
90.584373
 42
0.161810
  0
VERTEX
  8
0
 10
348.088338
 20
88.067450
 42
0.033832
  0
VERTEX
  8
0
 10
348.167958
 20
83.269089
 42
0.032559
  0
VERTEX
  8
0
 10
348.875639
 20
78.565200
 42
0.201635
  0
VERTEX
  8
0
 10
350.250000
 20
76.608624
 42
0.146908
  0
VERTEX
  8
0
 10
352.393461
 20
76.018228
 42
0.219739
  0
VERTEX
  8
0
 10
354.109707
 20
76.859061
 42
0.120885
  0
VERTEX
  8
0
 10
355.276998
 20
79.325498
 42
0.037195
  0
VERTEX
  8
0
 10
355.802421
 20
83.437883
 42
0.028883
  0
VERTEX
  8
0
 10
355.782513
 20
87.396506
 42
0.089023
  0
VERTEX
  8
0
 10
355.147665
 20
89.986709
 42
0.147862
  0
VERTEX
  8
0
 10
353.883869
 20
91.452499
 42
0.142368
  0
VERTEX
  8
0
 10
352.000000
 20
92.000000
 42
0.068103
  0
VERTEX
  8
0
 10
351.241916
 20
91.896264
 42
0.044552
  0
VERTEX
  8
0
 10
350.415336
 20
91.584160
 42
0.044234
  0
VERTEX
  8
0
 10
349.648786
 20
91.126240
 42
0.062876
  0
SEQEND
  0
ENDSEC
  0
EOF
