  0
SECTION
  2
HEADER
  9
$ACADVER
  1
AC1006
  9
$EXTMIN
 10
0.000000
 20
0.000000
 30
0.000000
  9
$EXTMAX
 10
292.000000
 20
291.000000
 30
0.000000
  0
ENDSEC
  0
SECTION
  2
ENTITIES
  0
POLYLINE
  8
0
 66
1
 70
1
  0
VERTEX
  8
0
 10
164.533624
 20
271.441780
 42
0.013992
  0
VERTEX
  8
0
 10
163.285756
 20
270.017365
 42
0.003403
  0
VERTEX
  8
0
 10
161.308951
 20
267.595890
 42
0.003487
  0
VERTEX
  8
0
 10
159.079703
 20
264.787049
 42
0.003466
  0
VERTEX
  8
0
 10
156.885330
 20
261.941780
 42
-0.008987
  0
VERTEX
  8
0
 10
154.786666
 20
259.281873
 42
-0.013393
  0
VERTEX
  8
0
 10
152.848554
 20
257.039550
 42
-0.008378
  0
VERTEX
  8
0
 10
151.170308
 20
255.260666
 42
-0.202460
  0
VERTEX
  8
0
 10
150.553956
 20
255.001367
 42
-0.036970
  0
VERTEX
  8
0
 10
149.826614
 20
255.056169
 42
-0.001620
  0
VERTEX
  8
0
 10
147.312725
 20
255.442154
 42
-0.002740
  0
VERTEX
  8
0
 10
144.332970
 20
255.926306
 42
-0.001952
  0
VERTEX
  8
0
 10
141.000000
 20
256.500000
 42
0.005836
  0
VERTEX
  8
0
 10
137.507422
 20
257.073271
 42
0.006040
  0
VERTEX
  8
0
 10
134.042187
 20
257.557846
 42
0.005848
  0
VERTEX
  8
0
 10
131.032996
 20
257.905933
 42
0.025767
  0
VERTEX
  8
0
 10
129.250000
 20
257.998633
 42
0.025196
  0
VERTEX
  8
0
 10
127.409665
 20
257.906613
 42
0.152819
  0
VERTEX
  8
0
 10
126.542407
 20
257.536224
 42
0.180035
  0
VERTEX
  8
0
 10
126.117522
 20
256.772368
 42
0.037859
  0
VERTEX
  8
0
 10
126.000000
 20
255.222506
 42
0.047128
  0
VERTEX
  8
0
 10
126.116210
 20
253.992327
 42
0.029503
  0
VERTEX
  8
0
 10
126.470587
 20
252.589044
 42
0.029488
  0
VERTEX
  8
0
 10
126.988180
 20
251.235784
 42
0.046719
  0
VERTEX
  8
0
 10
127.601999
 20
250.157839
 42
-0.027827
  0
VERTEX
  8
0
 10
128.172411
 20
249.238594
 42
-0.040659
  0
VERTEX
  8
0
 10
128.559373
 20
248.368484
 42
-0.047137
  0
VERTEX
  8
0
 10
128.735999
 20
247.655936
 42
-0.237885
  0
VERTEX
  8
0
 10
128.611528
 20
247.278194
 42
-0.106410
  0
VERTEX
  8
0
 10
128.101805
 20
246.949045
 42
-0.001894
  0
VERTEX
  8
0
 10
125.032484
 20
245.802269
 42
-0.004651
  0
VERTEX
  8
0
 10
121.425805
 20
244.508266
 42
-0.003074
  0
VERTEX
  8
0
 10
117.259529
 20
243.085748
 42
0.047351
  0
VERTEX
  8
0
 10
98.905284
 20
234.944043
 42
0.050763
  0
VERTEX
  8
0
 10
82.868237
 20
223.649825
 42
0.050959
  0
VERTEX
  8
0
 10
69.487070
 20
209.399410
 42
0.048407
  0
VERTEX
  8
0
 10
59.000397
 20
192.500000
 42
0.062694
  0
VERTEX
  8
0
 10
50.590861
 20
168.219573
 42
0.065971
  0
VERTEX
  8
0
 10
48.661981
 20
143.036510
 42
0.065423
  0
VERTEX
  8
0
 10
53.364884
 20
118.039582
 42
0.060023
  0
VERTEX
  8
0
 10
64.436462
 20
94.308615
 42
0.000000
  0
VERTEX
  8
0
 10
67.043452
 20
90.117230
 42
0.000000
  0
VERTEX
  8
0
 10
59.440936
 20
86.308615
 42
0.023481
  0
VERTEX
  8
0
 10
52.661492
 20
82.504225
 42
0.019027
  0
VERTEX
  8
0
 10
45.760881
 20
77.819862
 42
0.019431
  0
VERTEX
  8
0
 10
39.721191
 20
73.002507
 42
0.046221
  0
VERTEX
  8
0
 10
35.741908
 20
68.868058
 42
0.063381
  0
VERTEX
  8
0
 10
33.643006
 20
65.423892
 42
0.059299
  0
VERTEX
  8
0
 10
32.415096
 20
61.485897
 42
0.061694
  0
VERTEX
  8
0
 10
32.175249
 20
57.530677
 42
0.082696
  0
VERTEX
  8
0
 10
32.984810
 20
54.036672
 42
0.068191
  0
VERTEX
  8
0
 10
33.871422
 20
52.519538
 42
0.050586
  0
VERTEX
  8
0
 10
35.219320
 20
51.118655
 42
0.040746
  0
VERTEX
  8
0
 10
37.107614
 20
49.764475
 42
0.021423
  0
VERTEX
  8
0
 10
39.646838
 20
48.384357
 42
0.028375
  0
VERTEX
  8
0
 10
43.000203
 20
46.973374
 42
0.039095
  0
VERTEX
  8
0
 10
46.154422
 20
46.122808
 42
0.027824
  0
VERTEX
  8
0
 10
50.127383
 20
45.604960
 42
0.007470
  0
VERTEX
  8
0
 10
56.483615
 20
45.229249
 42
0.024113
  0
VERTEX
  8
0
 10
67.079616
 20
45.272860
 42
0.018292
  0
VERTEX
  8
0
 10
78.656557
 20
46.304921
 42
0.010331
  0
VERTEX
  8
0
 10
89.247485
 20
47.863948
 42
0.265372
  0
VERTEX
  8
0
 10
91.413780
 20
49.635911
 42
0.282523
  0
VERTEX
  8
0
 10
91.177861
 20
50.901560
 42
0.190520
  0
VERTEX
  8
0
 10
89.822853
 20
51.571697
 42
0.054892
  0
VERTEX
  8
0
 10
86.640926
 20
51.486046
 42
0.009016
  0
VERTEX
  8
0
 10
80.551533
 20
50.536948
 42
-0.024983
  0
VERTEX
  8
0
 10
71.321412
 20
49.398749
 42
-0.018450
  0
VERTEX
  8
0
 10
61.034067
 20
49.029859
 42
-0.018353
  0
VERTEX
  8
0
 10
51.516166
 20
49.389366
 42
-0.053606
  0
VERTEX
  8
0
 10
45.061741
 20
50.574305
 42
-0.041501
  0
VERTEX
  8
0
 10
40.484532
 20
52.358207
 42
-0.080913
  0
VERTEX
  8
0
 10
37.295006
 20
54.616296
 42
-0.110140
  0
VERTEX
  8
0
 10
35.598456
 20
57.240735
 42
-0.138850
  0
VERTEX
  8
0
 10
35.372459
 20
60.112297
 42
-0.119113
  0
VERTEX
  8
0
 10
37.827642
 20
65.402684
 42
-0.042397
  0
VERTEX
  8
0
 10
43.585809
 20
71.505409
 42
-0.036871
  0
VERTEX
  8
0
 10
51.665867
 20
77.724587
 42
-0.026794
  0
VERTEX
  8
0
 10
61.466001
 20
83.449587
 42
0.000000
  0
VERTEX
  8
0
 10
68.793348
 20
87.219018
 42
0.000000
  0
VERTEX
  8
0
 10
77.146674
 20
78.809016
 42
0.012228
  0
VERTEX
  8
0
 10
80.832229
 20
75.275618
 42
0.009525
  0
VERTEX
  8
0
 10
85.001938
 20
71.612459
 42
0.009652
  0
VERTEX
  8
0
 10
89.020253
 20
68.346588
 42
0.022984
  0
VERTEX
  8
0
 10
92.157797
 20
66.119891
 42
0.000000
  0
VERTEX
  8
0
 10
98.815594
 20
61.840770
 42
0.000000
  0
VERTEX
  8
0
 10
97.157797
 20
58.949509
 42
0.017578
  0
VERTEX
  8
0
 10
96.206132
 20
57.145668
 42
0.131212
  0
VERTEX
  8
0
 10
96.025457
 20
56.203069
 42
0.158315
  0
VERTEX
  8
0
 10
96.358856
 20
55.381670
 42
0.028979
  0
VERTEX
  8
0
 10
97.500000
 20
54.175108
 42
0.070418
  0
VERTEX
  8
0
 10
98.800094
 20
53.257304
 42
0.011116
  0
VERTEX
  8
0
 10
101.621021
 20
51.888111
 42
0.012150
  0
VERTEX
  8
0
 10
105.043693
 20
50.419414
 42
0.010350
  0
VERTEX
  8
0
 10
108.720497
 20
49.033996
 42
-0.007241
  0
VERTEX
  8
0
 10
112.320231
 20
47.703120
 42
-0.010024
  0
VERTEX
  8
0
 10
115.505564
 20
46.398762
 42
-0.006937
  0
VERTEX
  8
0
 10
118.116493
 20
45.224704
 42
-0.112816
  0
VERTEX
  8
0
 10
118.870667
 20
44.638012
 42
-0.110843
  0
VERTEX
  8
0
 10
119.304986
 20
43.770556
 42
-0.006007
  0
VERTEX
  8
0
 10
120.011418
 20
40.772294
 42
-0.009124
  0
VERTEX
  8
0
 10
120.749516
 20
37.152188
 42
-0.006515
  0
VERTEX
  8
0
 10
121.448579
 20
33.076181
 42
0.003313
  0
VERTEX
  8
0
 10
122.117184
 20
29.022072
 42
0.004880
  0
VERTEX
  8
0
 10
122.762639
 20
25.471668
 42
0.002367
  0
VERTEX
  8
0
 10
123.353770
 20
22.468107
 42
0.088861
  0
VERTEX
  8
0
 10
123.607426
 20
21.826181
 42
0.139135
  0
VERTEX
  8
0
 10
123.955312
 20
21.508065
 42
0.042821
  0
VERTEX
  8
0
 10
124.622346
 20
21.242691
 42
0.039122
  0
VERTEX
  8
0
 10
125.455380
 20
21.060907
 42
0.034175
  0
VERTEX
  8
0
 10
126.345450
 20
21.000000
 42
0.156675
  0
VERTEX
  8
0
 10
127.754716
 20
21.452706
 42
0.038239
  0
VERTEX
  8
0
 10
129.647700
 20
23.040961
 42
0.026159
  0
VERTEX
  8
0
 10
132.118526
 20
25.725517
 42
0.008196
  0
VERTEX
  8
0
 10
135.536433
 20
29.993289
 42
-0.006431
  0
VERTEX
  8
0
 10
138.277588
 20
33.440893
 42
-0.009865
  0
VERTEX
  8
0
 10
140.748202
 20
36.348458
 42
-0.004798
  0
VERTEX
  8
0
 10
142.893642
 20
38.728250
 42
-0.206641
  0
VERTEX
  8
0
 10
143.500000
 20
38.999031
 42
-0.036621
  0
VERTEX
  8
0
 10
144.218974
 20
38.955294
 42
-0.000993
  0
VERTEX
  8
0
 10
147.346707
 20
38.527426
 42
-0.002056
  0
VERTEX
  8
0
 10
151.021966
 20
38.001806
 42
-0.001407
  0
VERTEX
  8
0
 10
155.190917
 20
37.376081
 42
0.007091
  0
VERTEX
  8
0
 10
159.399669
 20
36.793216
 42
0.009743
  0
VERTEX
  8
0
 10
163.199358
 20
36.396821
 42
0.006836
  0
VERTEX
  8
0
 10
166.369942
 20
36.172000
 42
0.106279
  0
VERTEX
  8
0
 10
167.440917
 20
36.338954
 42
0.186422
  0
VERTEX
  8
0
 10
168.597593
 20
37.384588
 42
0.150220
  0
VERTEX
  8
0
 10
168.881456
 20
39.048695
 42
0.085559
  0
VERTEX
  8
0
 10
168.158714
 20
41.385470
 42
0.031557
  0
VERTEX
  8
0
 10
166.397617
 20
44.365482
 42
-0.022748
  0
VERTEX
  8
0
 10
165.462316
 20
45.886355
 42
-0.034986
  0
VERTEX
  8
0
 10
164.810071
 20
47.286577
 42
-0.038351
  0
VERTEX
  8
0
 10
164.474463
 20
48.414016
 42
-0.274308
  0
VERTEX
  8
0
 10
164.647617
 20
48.931686
 42
-0.097390
  0
VERTEX
  8
0
 10
165.306649
 20
49.307619
 42
-0.004641
  0
VERTEX
  8
0
 10
167.735293
 20
50.098845
 42
-0.007462
  0
VERTEX
  8
0
 10
170.658159
 20
50.973417
 42
-0.005290
  0
VERTEX
  8
0
 10
173.961892
 20
51.870826
 42
0.054914
  0
VERTEX
  8
0
 10
194.678339
 20
59.772180
 42
0.055922
  0
VERTEX
  8
0
 10
213.040664
 20
71.955939
 42
0.055625
  0
VERTEX
  8
0
 10
228.328175
 20
87.972535
 42
0.053272
  0
VERTEX
  8
0
 10
239.965929
 20
107.189203
 42
0.021949
  0
VERTEX
  8
0
 10
244.217757
 20
117.410681
 42
0.036829
  0
VERTEX
  8
0
 10
246.757148
 20
126.353336
 42
0.034356
  0
VERTEX
  8
0
 10
248.060722
 20
135.996258
 42
0.016423
  0
VERTEX
  8
0
 10
248.471523
 20
148.500000
 42
0.017615
  0
VERTEX
  8
0
 10
248.004063
 20
161.764401
 42
0.039038
  0
VERTEX
  8
0
 10
246.507811
 20
171.766624
 42
0.039852
  0
VERTEX
  8
0
 10
243.497879
 20
181.287751
 42
0.019103
  0
VERTEX
  8
0
 10
238.219750
 20
192.979394
 42
-0.000267
  0
VERTEX
  8
0
 10
236.004955
 20
197.430381
 42
-0.000407
  0
VERTEX
  8
0
 10
234.088004
 20
201.295850
 42
-0.000139
  0
VERTEX
  8
0
 10
232.435004
 20
204.638234
 42
-0.010971
  0
VERTEX
  8
0
 10
232.186221
 20
205.170733
 42
-0.304650
  0
VERTEX
  8
0
 10
232.252665
 20
205.543678
 42
-0.032491
  0
VERTEX
  8
0
 10
232.938037
 20
206.167091
 42
-0.031304
  0
VERTEX
  8
0
 10
233.938868
 20
206.867406
 42
-0.019680
  0
VERTEX
  8
0
 10
235.186221
 20
207.562841
 42
0.023049
  0
VERTEX
  8
0
 10
239.744370
 20
210.144537
 42
0.011470
  0
VERTEX
  8
0
 10
245.281386
 20
213.806895
 42
0.011419
  0
VERTEX
  8
0
 10
250.579600
 20
217.671094
 42
0.026270
  0
VERTEX
  8
0
 10
254.334734
 20
220.869551
 42
0.075699
  0
VERTEX
  8
0
 10
260.252182
 20
228.468247
 42
0.149149
  0
VERTEX
  8
0
 10
261.865545
 20
235.876920
 42
0.173262
  0
VERTEX
  8
0
 10
259.018430
 20
242.170850
 42
0.109082
  0
VERTEX
  8
0
 10
252.221562
 20
246.678153
 42
0.087237
  0
VERTEX
  8
0
 10
242.578430
 20
248.574958
 42
0.016517
  0
VERTEX
  8
0
 10
224.585824
 20
248.343849
 42
0.010042
  0
VERTEX
  8
0
 10
206.228520
 20
247.131276
 42
0.287107
  0
VERTEX
  8
0
 10
202.600083
 20
244.400216
 42
0.274596
  0
VERTEX
  8
0
 10
202.820320
 20
243.113922
 42
0.200163
  0
VERTEX
  8
0
 10
204.143891
 20
242.441366
 42
0.052843
  0
VERTEX
  8
0
 10
207.369108
 20
242.539949
 42
0.007384
  0
VERTEX
  8
0
 10
213.977807
 20
243.544923
 42
-0.026379
  0
VERTEX
  8
0
 10
224.484570
 20
244.736551
 42
-0.022136
  0
VERTEX
  8
0
 10
235.695899
 20
244.915073
 42
-0.021363
  0
VERTEX
  8
0
 10
245.670155
 20
244.205095
 42
-0.088471
  0
VERTEX
  8
0
 10
251.435466
 20
242.483000
 42
-0.028227
  0
VERTEX
  8
0
 10
253.080962
 20
241.533877
 42
-0.021514
  0
VERTEX
  8
0
 10
254.771016
 20
240.320564
 42
-0.021937
  0
VERTEX
  8
0
 10
256.260063
 20
239.041883
 42
-0.046757
  0
VERTEX
  8
0
 10
257.264131
 20
237.906154
 42
-0.029764
  0
VERTEX
  8
0
 10
258.283096
 20
236.319885
 42
-0.108778
  0
VERTEX
  8
0
 10
258.628349
 20
235.182765
 42
-0.097487
  0
VERTEX
  8
0
 10
258.483014
 20
233.938611
 42
-0.021326
  0
VERTEX
  8
0
 10
257.733517
 20
231.906154
 42
-0.086409
  0
VERTEX
  8
0
 10
255.221485
 20
227.972557
 42
-0.022434
  0
VERTEX
  8
0
 10
249.889494
 20
222.642447
 42
-0.023010
  0
VERTEX
  8
0
 10
243.430451
 20
217.264164
 42
-0.028076
  0
VERTEX
  8
0
 10
236.905746
 20
212.874696
 42
0.000000
  0
VERTEX
  8
0
 10
229.860411
 20
208.689140
 42
0.000000
  0
VERTEX
  8
0
 10
221.680206
 20
216.980438
 42
0.011805
  0
VERTEX
  8
0
 10
217.990845
 20
220.547412
 42
0.008159
  0
VERTEX
  8
0
 10
213.657566
 20
224.414476
 42
0.008232
  0
VERTEX
  8
0
 10
209.368210
 20
227.996836
 42
0.016671
  0
VERTEX
  8
0
 10
205.856191
 20
230.644702
 42
-0.013174
  0
VERTEX
  8
0
 10
202.672371
 20
233.010387
 42
-0.021759
  0
VERTEX
  8
0
 10
200.129480
 20
235.191149
 42
-0.023403
  0
VERTEX
  8
0
 10
198.300880
 20
237.070907
 42
-0.120301
  0
VERTEX
  8
0
 10
197.627698
 20
238.347234
 42
0.141187
  0
VERTEX
  8
0
 10
196.835301
 20
239.710792
 42
0.062996
  0
VERTEX
  8
0
 10
195.152139
 20
240.958823
 42
0.033171
  0
VERTEX
  8
0
 10
192.183429
 20
242.377830
 42
0.006856
  0
VERTEX
  8
0
 10
186.771507
 20
244.451144
 42
-0.003717
  0
VERTEX
  8
0
 10
182.775332
 20
245.953379
 42
-0.005390
  0
VERTEX
  8
0
 10
179.271855
 20
247.343743
 42
-0.002869
  0
VERTEX
  8
0
 10
176.333327
 20
248.566465
 42
-0.086806
  0
VERTEX
  8
0
 10
175.664595
 20
248.998148
 42
-0.146527
  0
VERTEX
  8
0
 10
175.269196
 20
249.667738
 42
-0.004370
  0
VERTEX
  8
0
 10
174.507468
 20
252.867765
 42
-0.008358
  0
VERTEX
  8
0
 10
173.698930
 20
256.694307
 42
-0.005632
  0
VERTEX
  8
0
 10
172.898564
 20
261.086296
 42
0.011978
  0
VERTEX
  8
0
 10
171.195217
 20
269.804605
 42
0.116160
  0
VERTEX
  8
0
 10
169.574461
 20
273.175450
 42
0.350232
  0
VERTEX
  8
0
 10
167.484072
 20
273.637564
 42
0.092056
  0
SEQEND
  0
POLYLINE
  8
0
 66
1
 70
1
  0
VERTEX
  8
0
 10
169.430754
 20
256.584843
 42
0.010279
  0
VERTEX
  8
0
 10
170.088886
 20
252.700555
 42
0.014037
  0
VERTEX
  8
0
 10
170.851259
 20
249.233878
 42
0.010807
  0
VERTEX
  8
0
 10
171.621203
 20
246.409656
 42
0.136622
  0
VERTEX
  8
0
 10
172.200871
 20
245.483692
 42
0.078757
  0
VERTEX
  8
0
 10
173.138003
 20
244.866069
 42
0.006435
  0
VERTEX
  8
0
 10
175.835568
 20
243.685089
 42
0.008513
  0
VERTEX
  8
0
 10
179.112472
 20
242.365743
 42
0.006448
  0
VERTEX
  8
0
 10
182.750000
 20
241.026223
 42
-0.005833
  0
VERTEX
  8
0
 10
186.292059
 20
239.726812
 42
-0.009476
  0
VERTEX
  8
0
 10
189.265636
 20
238.531453
 42
-0.003659
  0
VERTEX
  8
0
 10
191.747929
 20
237.457016
 42
-0.322512
  0
VERTEX
  8
0
 10
191.941526
 20
237.127374
 42
-0.247063
  0
VERTEX
  8
0
 10
191.710958
 20
236.773417
 42
-0.002450
  0
VERTEX
  8
0
 10
188.979906
 20
235.266832
 42
-0.007270
  0
VERTEX
  8
0
 10
185.756717
 20
233.569623
 42
-0.004563
  0
VERTEX
  8
0
 10
181.941526
 20
231.674607
 42
0.000000
  0
VERTEX
  8
0
 10
172.000000
 20
226.849214
 42
0.000000
  0
VERTEX
  8
0
 10
172.000000
 20
221.571298
 42
-0.009335
  0
VERTEX
  8
0
 10
171.953940
 20
219.104528
 42
-0.004791
  0
VERTEX
  8
0
 10
171.808881
 20
216.015242
 42
-0.004759
  0
VERTEX
  8
0
 10
171.598709
 20
212.836374
 42
-0.007152
  0
VERTEX
  8
0
 10
171.349382
 20
210.068605
 42
0.000000
  0
VERTEX
  8
0
 10
170.698764
 20
203.843827
 42
0.000000
  0
VERTEX
  8
0
 10
162.599382
 20
211.889351
 42
0.000000
  0
VERTEX
  8
0
 10
154.500000
 20
219.934875
 42
0.000000
  0
VERTEX
  8
0
 10
144.145434
 20
216.905337
 42
-0.005199
  0
VERTEX
  8
0
 10
140.141315
 20
215.778879
 42
-0.008270
  0
VERTEX
  8
0
 10
136.690569
 20
214.907678
 42
-0.003078
  0
VERTEX
  8
0
 10
133.739021
 20
214.233367
 42
-0.256367
  0
VERTEX
  8
0
 10
133.307626
 20
214.359041
 42
-0.305415
  0
VERTEX
  8
0
 10
133.226724
 20
214.773966
 42
-0.003735
  0
VERTEX
  8
0
 10
134.362963
 20
217.404457
 42
-0.009499
  0
VERTEX
  8
0
 10
135.790984
 20
220.483909
 42
-0.005885
  0
VERTEX
  8
0
 10
137.578859
 20
224.047821
 42
0.004668
  0
VERTEX
  8
0
 10
139.400508
 20
227.657122
 42
0.006756
  0
VERTEX
  8
0
 10
140.936706
 20
230.881961
 42
0.003749
  0
VERTEX
  8
0
 10
142.172088
 20
233.622144
 42
0.104390
  0
VERTEX
  8
0
 10
142.333333
 20
234.386050
 42
0.129329
  0
VERTEX
  8
0
 10
142.136803
 20
235.133148
 42
0.004498
  0
VERTEX
  8
0
 10
140.622712
 20
237.756492
 42
0.008124
  0
VERTEX
  8
0
 10
138.741233
 20
240.834235
 42
0.005560
  0
VERTEX
  8
0
 10
136.509943
 20
244.269313
 42
-0.005873
  0
VERTEX
  8
0
 10
134.311525
 20
247.658426
 42
-0.009585
  0
VERTEX
  8
0
 10
132.536774
 20
250.589005
 42
-0.003705
  0
VERTEX
  8
0
 10
131.106902
 20
253.098270
 42
-0.335816
  0
VERTEX
  8
0
 10
131.161788
 20
253.495121
 42
-0.224017
  0
VERTEX
  8
0
 10
131.581276
 20
253.645704
 42
-0.004161
  0
VERTEX
  8
0
 10
133.974172
 20
253.394886
 42
-0.009351
  0
VERTEX
  8
0
 10
136.802513
 20
253.020920
 42
-0.006010
  0
VERTEX
  8
0
 10
140.068511
 20
252.486545
 42
0.011105
  0
VERTEX
  8
0
 10
148.849081
 20
251.141603
 42
0.117204
  0
VERTEX
  8
0
 10
152.432544
 20
251.514046
 42
0.127567
  0
VERTEX
  8
0
 10
155.338997
 20
253.462895
 42
0.014057
  0
VERTEX
  8
0
 10
160.536674
 20
259.655721
 42
-0.006662
  0
VERTEX
  8
0
 10
163.188303
 20
262.911618
 42
-0.011939
  0
VERTEX
  8
0
 10
165.463980
 20
265.502769
 42
-0.006859
  0
VERTEX
  8
0
 10
167.342494
 20
267.486106
 42
-0.568580
  0
VERTEX
  8
0
 10
167.677976
 20
267.405721
 42
-0.034305
  0
VERTEX
  8
0
 10
167.835336
 20
266.742754
 42
-0.000969
  0
VERTEX
  8
0
 10
168.309092
 20
263.853478
 42
-0.001972
  0
VERTEX
  8
0
 10
168.846679
 20
260.449664
 42
-0.001354
  0
SEQEND
  0
POLYLINE
  8
0
 66
1
 70
1
  0
VERTEX
  8
0
 10
115.392067
 20
225.174639
 42
-0.312461
  0
VERTEX
  8
0
 10
115.362864
 20
224.614902
 42
-0.008688
  0
VERTEX
  8
0
 10
113.765690
 20
222.620315
 42
-0.014874
  0
VERTEX
  8
0
 10
111.694858
 20
220.270270
 42
-0.009294
  0
VERTEX
  8
0
 10
109.139152
 20
217.638086
 42
-0.003761
  0
VERTEX
  8
0
 10
104.631762
 20
213.232036
 42
-0.067330
  0
VERTEX
  8
0
 10
103.000990
 20
212.037890
 42
-0.238089
  0
VERTEX
  8
0
 10
101.833470
 20
212.002718
 42
-0.099798
  0
VERTEX
  8
0
 10
100.533080
 20
212.963446
 42
0.065657
  0
VERTEX
  8
0
 10
99.447067
 20
213.885834
 42
0.061788
  0
VERTEX
  8
0
 10
98.137177
 20
214.517874
 42
0.052259
  0
VERTEX
  8
0
 10
96.522064
 20
214.881960
 42
0.029332
  0
VERTEX
  8
0
 10
94.511679
 20
215.000000
 42
-0.015297
  0
VERTEX
  8
0
 10
92.861075
 20
215.050509
 42
-0.019948
  0
VERTEX
  8
0
 10
91.357749
 20
215.202973
 42
-0.017938
  0
VERTEX
  8
0
 10
90.137639
 20
215.421009
 42
-0.144159
  0
VERTEX
  8
0
 10
89.642360
 20
215.690973
 42
-0.349999
  0
VERTEX
  8
0
 10
89.586956
 20
216.183358
 42
-0.018231
  0
VERTEX
  8
0
 10
90.545770
 20
217.591625
 42
-0.022308
  0
VERTEX
  8
0
 10
91.921961
 20
219.297538
 42
-0.013598
  0
VERTEX
  8
0
 10
93.688102
 20
221.190973
 42
0.000000
  0
VERTEX
  8
0
 10
98.424816
 20
226.000000
 42
0.000000
  0
VERTEX
  8
0
 10
106.653391
 20
226.000000
 42
-0.009370
  0
VERTEX
  8
0
 10
109.843664
 20
225.940211
 42
-0.014174
  0
VERTEX
  8
0
 10
112.614664
 20
225.757550
 42
-0.008828
  0
VERTEX
  8
0
 10
114.883972
 20
225.502720
 42
-0.225652
  0
SEQEND
  0
POLYLINE
  8
0
 66
1
 70
1
  0
VERTEX
  8
0
 10
89.000000
 20
193.291792
 42
0.000000
  0
VERTEX
  8
0
 10
89.000000
 20
171.583584
 42
0.000000
  0
VERTEX
  8
0
 10
93.514451
 20
176.014183
 42
0.000000
  0
VERTEX
  8
0
 10
98.028903
 20
180.444782
 42
0.000000
  0
VERTEX
  8
0
 10
102.738984
 20
175.734700
 42
0.000000
  0
VERTEX
  8
0
 10
107.449065
 20
171.024619
 42
0.000000
  0
VERTEX
  8
0
 10
102.512252
 20
166.012439
 42
0.000000
  0
VERTEX
  8
0
 10
97.575439
 20
161.000259
 42
0.000000
  0
VERTEX
  8
0
 10
93.287719
 20
165.208338
 42
0.000000
  0
VERTEX
  8
0
 10
89.000000
 20
169.416416
 42
0.000000
  0
VERTEX
  8
0
 10
89.000000
 20
161.318992
 42
0.009736
  0
VERTEX
  8
0
 10
89.083401
 20
157.036094
 42
0.036118
  0
VERTEX
  8
0
 10
89.382761
 20
154.353810
 42
0.057023
  0
VERTEX
  8
0
 10
89.965833
 20
152.450536
 42
0.069235
  0
VERTEX
  8
0
 10
90.939305
 20
150.860784
 42
0.000000
  0
VERTEX
  8
0
 10
92.878610
 20
148.500000
 42
0.000000
  0
VERTEX
  8
0
 10
99.881980
 20
155.416295
 42
0.000000
  0
VERTEX
  8
0
 10
106.885351
 20
162.332590
 42
0.000000
  0
VERTEX
  8
0
 10
111.942675
 20
157.248605
 42
0.000000
  0
VERTEX
  8
0
 10
117.000000
 20
152.164620
 42
0.000000
  0
VERTEX
  8
0
 10
117.000000
 20
129.396761
 42
0.001722
  0
VERTEX
  8
0
 10
117.048172
 20
115.412868
 42
0.018152
  0
VERTEX
  8
0
 10
117.294922
 20
109.703343
 42
0.047283
  0
VERTEX
  8
0
 10
117.852271
 20
106.532321
 42
0.122027
  0
VERTEX
  8
0
 10
118.981704
 20
104.519476
 42
0.000000
  0
VERTEX
  8
0
 10
120.963407
 20
102.410049
 42
0.000000
  0
VERTEX
  8
0
 10
113.987152
 20
95.487250
 42
0.000000
  0
VERTEX
  8
0
 10
107.010896
 20
88.564452
 42
0.000000
  0
VERTEX
  8
0
 10
102.005448
 20
93.494634
 42
0.000000
  0
VERTEX
  8
0
 10
97.000000
 20
98.424816
 42
0.000000
  0
VERTEX
  8
0
 10
97.000000
 20
121.057421
 42
0.001590
  0
VERTEX
  8
0
 10
96.954551
 20
135.353158
 42
0.019718
  0
VERTEX
  8
0
 10
96.705908
 20
140.779640
 42
0.056833
  0
VERTEX
  8
0
 10
96.114939
 20
143.713622
 42
0.131481
  0
VERTEX
  8
0
 10
94.904612
 20
145.586325
 42
0.019299
  0
VERTEX
  8
0
 10
93.535367
 20
146.732549
 42
0.195390
  0
VERTEX
  8
0
 10
92.834108
 20
146.928486
 42
0.180109
  0
VERTEX
  8
0
 10
92.164250
 20
146.588342
 42
0.015972
  0
VERTEX
  8
0
 10
90.904612
 20
145.130528
 42
0.098515
  0
VERTEX
  8
0
 10
89.860143
 20
143.145002
 42
0.047958
  0
VERTEX
  8
0
 10
89.311198
 20
140.321494
 42
0.021292
  0
VERTEX
  8
0
 10
89.056101
 20
135.567000
 42
0.002756
  0
VERTEX
  8
0
 10
89.000000
 20
125.389216
 42
-0.003936
  0
VERTEX
  8
0
 10
88.947516
 20
118.721416
 42
-0.006557
  0
VERTEX
  8
0
 10
88.785499
 20
113.108082
 42
-0.001721
  0
VERTEX
  8
0
 10
88.566205
 20
108.282284
 42
-0.399976
  0
VERTEX
  8
0
 10
88.269783
 20
108.000000
 42
-0.185796
  0
VERTEX
  8
0
 10
87.788874
 20
108.185092
 42
-0.002082
  0
VERTEX
  8
0
 10
85.177943
 20
110.564188
 42
-0.006093
  0
VERTEX
  8
0
 10
82.183994
 20
113.383256
 42
-0.003892
  0
VERTEX
  8
0
 10
78.769783
 20
116.729151
 42
0.000000
  0
VERTEX
  8
0
 10
70.000000
 20
125.458301
 42
0.000000
  0
VERTEX
  8
0
 10
70.000000
 20
134.414699
 42
0.007331
  0
VERTEX
  8
0
 10
69.925430
 20
139.500548
 42
0.040335
  0
VERTEX
  8
0
 10
69.624705
 20
142.224672
 42
0.073187
  0
VERTEX
  8
0
 10
68.982150
 20
144.060474
 42
0.067952
  0
VERTEX
  8
0
 10
67.825686
 20
145.685549
 42
0.000000
  0
VERTEX
  8
0
 10
65.651372
 20
148.000000
 42
0.000000
  0
VERTEX
  8
0
 10
67.825686
 20
150.314451
 42
0.108747
  0
VERTEX
  8
0
 10
69.082490
 20
152.422837
 42
0.058368
  0
VERTEX
  8
0
 10
69.699937
 20
155.402951
 42
0.020306
  0
VERTEX
  8
0
 10
69.953785
 20
160.789678
 42
0.001621
  0
VERTEX
  8
0
 10
70.000000
 20
175.044669
 42
0.000000
  0
VERTEX
  8
0
 10
70.000000
 20
197.460435
 42
0.000000
  0
VERTEX
  8
0
 10
78.729151
 20
206.230217
 42
-0.004127
  0
VERTEX
  8
0
 10
82.130672
 20
209.591622
 42
-0.006440
  0
VERTEX
  8
0
 10
85.120550
 20
212.423876
 42
-0.002310
  0
VERTEX
  8
0
 10
87.724273
 20
214.805276
 42
-0.186159
  0
VERTEX
  8
0
 10
88.229151
 20
215.000000
 42
-0.402420
  0
VERTEX
  8
0
 10
88.542802
 20
214.698781
 42
-0.001234
  0
VERTEX
  8
0
 10
88.773563
 20
208.623214
 42
-0.005546
  0
VERTEX
  8
0
 10
88.944599
 20
201.615725
 42
-0.003328
  0
SEQEND
  0
POLYLINE
  8
0
 66
1
 70
1
  0
VERTEX
  8
0
 10
157.516745
 20
210.982851
 42
0.000000
  0
VERTEX
  8
0
 10
161.439386
 20
206.965702
 42
0.000000
  0
VERTEX
  8
0
 10
156.736842
 20
202.263158
 42
0.000000
  0
VERTEX
  8
0
 10
152.034298
 20
197.560614
 42
0.000000
  0
VERTEX
  8
0
 10
148.017149
 20
201.483255
 42
0.000000
  0
VERTEX
  8
0
 10
144.000000
 20
205.405896
 42
0.000000
  0
VERTEX
  8
0
 10
144.000000
 20
178.857935
 42
0.001325
  0
VERTEX
  8
0
 10
144.044240
 20
162.163477
 42
0.016410
  0
VERTEX
  8
0
 10
144.286164
 20
155.819563
 42
0.045675
  0
VERTEX
  8
0
 10
144.841668
 20
152.425257
 42
0.146465
  0
VERTEX
  8
0
 10
146.015904
 20
150.485607
 42
0.016320
  0
VERTEX
  8
0
 10
147.313052
 20
149.386527
 42
0.176211
  0
VERTEX
  8
0
 10
147.954789
 20
149.172827
 42
0.203855
  0
VERTEX
  8
0
 10
148.535131
 20
149.438695
 42
0.022821
  0
VERTEX
  8
0
 10
149.484100
 20
150.580620
 42
0.120022
  0
VERTEX
  8
0
 10
150.223756
 20
152.287836
 42
0.023113
  0
VERTEX
  8
0
 10
150.642739
 20
155.657063
 42
0.015319
  0
VERTEX
  8
0
 10
150.888733
 20
160.901903
 42
0.003595
  0
VERTEX
  8
0
 10
150.968197
 20
169.690983
 42
-0.004177
  0
VERTEX
  8
0
 10
151.046102
 20
177.325772
 42
-0.011246
  0
VERTEX
  8
0
 10
151.268827
 20
182.748631
 42
-0.007935
  0
VERTEX
  8
0
 10
151.585569
 20
186.728996
 42
-0.234656
  0
VERTEX
  8
0
 10
152.105450
 20
187.565172
 42
-0.308946
  0
VERTEX
  8
0
 10
152.875083
 20
187.529964
 42
-0.010007
  0
VERTEX
  8
0
 10
155.441286
 20
185.517617
 42
-0.015608
  0
VERTEX
  8
0
 10
158.533159
 20
182.826318
 42
-0.008905
  0
VERTEX
  8
0
 10
162.105450
 20
179.395038
 42
0.000000
  0
VERTEX
  8
0
 10
171.000000
 20
170.541699
 42
0.000000
  0
VERTEX
  8
0
 10
171.000000
 20
161.585301
 42
0.007331
  0
VERTEX
  8
0
 10
171.074570
 20
156.499452
 42
0.040335
  0
VERTEX
  8
0
 10
171.375295
 20
153.775328
 42
0.073187
  0
VERTEX
  8
0
 10
172.017850
 20
151.939526
 42
0.067952
  0
VERTEX
  8
0
 10
173.174314
 20
150.314451
 42
0.000000
  0
VERTEX
  8
0
 10
175.348628
 20
148.000000
 42
0.000000
  0
VERTEX
  8
0
 10
173.174314
 20
145.685549
 42
0.097163
  0
VERTEX
  8
0
 10
171.938298
 20
143.716135
 42
0.065066
  0
VERTEX
  8
0
 10
171.312495
 20
141.123016
 42
0.024458
  0
VERTEX
  8
0
 10
171.050619
 20
136.609003
 42
0.002261
  0
VERTEX
  8
0
 10
171.000000
 20
125.414699
 42
0.000000
  0
VERTEX
  8
0
 10
171.000000
 20
107.458301
 42
0.000000
  0
VERTEX
  8
0
 10
162.105450
 20
98.604962
 42
-0.008905
  0
VERTEX
  8
0
 10
158.533159
 20
95.173682
 42
-0.015608
  0
VERTEX
  8
0
 10
155.441286
 20
92.482383
 42
-0.010007
  0
VERTEX
  8
0
 10
152.875083
 20
90.470036
 42
-0.308946
  0
VERTEX
  8
0
 10
152.105450
 20
90.434828
 42
-0.244889
  0
VERTEX
  8
0
 10
151.560662
 20
91.350100
 42
-0.004100
  0
VERTEX
  8
0
 10
151.266674
 20
97.422800
 42
-0.007592
  0
VERTEX
  8
0
 10
151.060058
 20
105.688841
 42
-0.002452
  0
VERTEX
  8
0
 10
151.000000
 20
117.936572
 42
0.001744
  0
VERTEX
  8
0
 10
150.948266
 20
132.765974
 42
0.011765
  0
VERTEX
  8
0
 10
150.724092
 20
140.112060
 42
0.018157
  0
VERTEX
  8
0
 10
150.329092
 20
144.472270
 42
0.190096
  0
VERTEX
  8
0
 10
149.481242
 20
146.015567
 42
0.060619
  0
VERTEX
  8
0
 10
148.611729
 20
146.574906
 42
0.151530
  0
VERTEX
  8
0
 10
147.873172
 20
146.686357
 42
0.117307
  0
VERTEX
  8
0
 10
147.078933
 20
146.364937
 42
0.029377
  0
VERTEX
  8
0
 10
145.981242
 20
145.483025
 42
0.125357
  0
VERTEX
  8
0
 10
144.871220
 20
143.810087
 42
0.058818
  0
VERTEX
  8
0
 10
144.303374
 20
141.257613
 42
0.022969
  0
VERTEX
  8
0
 10
144.051058
 20
136.713774
 42
0.002385
  0
VERTEX
  8
0
 10
144.000000
 20
126.011679
 42
-0.003696
  0
VERTEX
  8
0
 10
143.949535
 20
119.184945
 42
-0.005807
  0
VERTEX
  8
0
 10
143.794706
 20
113.321054
 42
-0.001891
  0
VERTEX
  8
0
 10
143.583693
 20
108.274951
 42
-0.187094
  0
VERTEX
  8
0
 10
143.301128
 20
107.634462
 42
-0.385548
  0
VERTEX
  8
0
 10
142.765492
 20
107.607965
 42
-0.005407
  0
VERTEX
  8
0
 10
140.075344
 20
109.861730
 42
-0.011726
  0
VERTEX
  8
0
 10
136.917715
 20
112.696799
 42
-0.007060
  0
VERTEX
  8
0
 10
133.301128
 20
116.198045
 42
0.000000
  0
VERTEX
  8
0
 10
124.000000
 20
125.460499
 42
0.000000
  0
VERTEX
  8
0
 10
124.000000
 20
134.415798
 42
0.007332
  0
VERTEX
  8
0
 10
123.925424
 20
139.500916
 42
0.040338
  0
VERTEX
  8
0
 10
123.624690
 20
142.224815
 42
0.073186
  0
VERTEX
  8
0
 10
122.982132
 20
144.060527
 42
0.067948
  0
VERTEX
  8
0
 10
121.825686
 20
145.685549
 42
0.000000
  0
VERTEX
  8
0
 10
119.651372
 20
148.000000
 42
0.000000
  0
VERTEX
  8
0
 10
121.825686
 20
150.314451
 42
0.097238
  0
VERTEX
  8
0
 10
123.061843
 20
152.284745
 42
0.065026
  0
VERTEX
  8
0
 10
123.687598
 20
154.880171
 42
0.024428
  0
VERTEX
  8
0
 10
123.949414
 20
159.399452
 42
0.002256
  0
VERTEX
  8
0
 10
124.000000
 20
170.612155
 42
0.000000
  0
VERTEX
  8
0
 10
124.000000
 20
188.595408
 42
0.000000
  0
VERTEX
  8
0
 10
137.332923
 20
201.797704
 42
-0.005128
  0
VERTEX
  8
0
 10
142.548758
 20
206.857559
 42
-0.007866
  0
VERTEX
  8
0
 10
147.179387
 20
211.121826
 42
-0.003425
  0
VERTEX
  8
0
 10
151.185720
 20
214.647379
 42
-0.180627
  0
VERTEX
  8
0
 10
152.129975
 20
215.000000
 42
-0.140521
  0
VERTEX
  8
0
 10
152.922270
 20
214.772846
 42
-0.020589
  0
VERTEX
  8
0
 10
154.316292
 20
213.819963
 42
-0.021910
  0
VERTEX
  8
0
 10
155.907558
 20
212.521056
 42
-0.017227
  0
SEQEND
  0
POLYLINE
  8
0
 66
1
 70
1
  0
VERTEX
  8
0
 10
193.363158
 20
202.042841
 42
0.000000
  0
VERTEX
  8
0
 10
198.000000
 20
197.085682
 42
0.000000
  0
VERTEX
  8
0
 10
198.000000
 20
174.697829
 42
0.001686
  0
VERTEX
  8
0
 10
198.046781
 20
160.826139
 42
0.018932
  0
VERTEX
  8
0
 10
198.292545
 20
155.319954
 42
0.051376
  0
VERTEX
  8
0
 10
198.854018
 20
152.321752
 42
0.137722
  0
VERTEX
  8
0
 10
200.000000
 20
150.500000
 42
0.020664
  0
VERTEX
  8
0
 10
201.281240
 20
149.433378
 42
0.164695
  0
VERTEX
  8
0
 10
202.000000
 20
149.190025
 42
0.164695
  0
VERTEX
  8
0
 10
202.718760
 20
149.433378
 42
0.020664
  0
VERTEX
  8
0
 10
204.000000
 20
150.500000
 42
0.122276
  0
VERTEX
  8
0
 10
205.119719
 20
152.165517
 42
0.060977
  0
VERTEX
  8
0
 10
205.694553
 20
154.657089
 42
0.023771
  0
VERTEX
  8
0
 10
205.948586
 20
159.077224
 42
0.002469
  0
VERTEX
  8
0
 10
206.000000
 20
169.488321
 42
-0.003801
  0
VERTEX
  8
0
 10
206.050435
 20
176.123305
 42
-0.005961
  0
VERTEX
  8
0
 10
206.205146
 20
181.825673
 42
-0.001991
  0
VERTEX
  8
0
 10
206.416146
 20
186.726561
 42
-0.186723
  0
VERTEX
  8
0
 10
206.698368
 20
187.365035
 42
-0.383581
  0
VERTEX
  8
0
 10
207.231275
 20
187.393227
 42
-0.006009
  0
VERTEX
  8
0
 10
209.777070
 20
185.284757
 42
-0.012380
  0
VERTEX
  8
0
 10
212.773357
 20
182.611478
 42
-0.007458
  0
VERTEX
  8
0
 10
216.198368
 20
179.302551
 42
0.000000
  0
VERTEX
  8
0
 10
225.000000
 20
170.541699
 42
0.000000
  0
VERTEX
  8
0
 10
225.000000
 20
161.585301
 42
0.007331
  0
VERTEX
  8
0
 10
225.074570
 20
156.499452
 42
0.040335
  0
VERTEX
  8
0
 10
225.375295
 20
153.775328
 42
0.073187
  0
VERTEX
  8
0
 10
226.017850
 20
151.939526
 42
0.067952
  0
VERTEX
  8
0
 10
227.174314
 20
150.314451
 42
0.000000
  0
VERTEX
  8
0
 10
229.348628
 20
148.000000
 42
0.000000
  0
VERTEX
  8
0
 10
227.174314
 20
145.685549
 42
0.109150
  0
VERTEX
  8
0
 10
225.916799
 20
143.572146
 42
0.058117
  0
VERTEX
  8
0
 10
225.299687
 20
140.577182
 42
0.020175
  0
VERTEX
  8
0
 10
225.046084
 20
135.157383
 42
0.001603
  0
VERTEX
  8
0
 10
225.000000
 20
120.786019
 42
0.000000
  0
VERTEX
  8
0
 10
225.000000
 20
98.200940
 42
0.000000
  0
VERTEX
  8
0
 10
216.437292
 20
89.580208
 42
-0.008274
  0
VERTEX
  8
0
 10
213.087187
 20
86.317213
 42
-0.013310
  0
VERTEX
  8
0
 10
210.114550
 20
83.661980
 42
-0.007035
  0
VERTEX
  8
0
 10
207.580706
 20
81.577641
 42
-0.316988
  0
VERTEX
  8
0
 10
206.937292
 20
81.538756
 42
-0.246002
  0
VERTEX
  8
0
 10
206.545071
 20
82.200866
 42
-0.002329
  0
VERTEX
  8
0
 10
206.267904
 20
88.005228
 42
-0.006872
  0
VERTEX
  8
0
 10
206.065213
 20
94.917898
 42
-0.003893
  0
VERTEX
  8
0
 10
206.000000
 20
103.294311
 42
0.000000
  0
VERTEX
  8
0
 10
206.000000
 20
124.470588
 42
0.000000
  0
VERTEX
  8
0
 10
201.774453
 20
120.245041
 42
0.000000
  0
VERTEX
  8
0
 10
197.548906
 20
116.019494
 42
0.000000
  0
VERTEX
  8
0
 10
192.772832
 20
120.723752
 42
0.000000
  0
VERTEX
  8
0
 10
187.996758
 20
125.428010
 42
0.000000
  0
VERTEX
  8
0
 10
192.710659
 20
130.213875
 42
0.000000
  0
VERTEX
  8
0
 10
197.424561
 20
134.999741
 42
0.000000
  0
VERTEX
  8
0
 10
201.712281
 20
130.791662
 42
0.000000
  0
VERTEX
  8
0
 10
206.000000
 20
126.583584
 42
0.000000
  0
VERTEX
  8
0
 10
206.000000
 20
135.136804
 42
0.007625
  0
VERTEX
  8
0
 10
205.927249
 20
139.907228
 42
0.040747
  0
VERTEX
  8
0
 10
205.636638
 20
142.492338
 42
0.076158
  0
VERTEX
  8
0
 10
205.030840
 20
144.175833
 42
0.084649
  0
VERTEX
  8
0
 10
203.964058
 20
145.532527
 42
0.101165
  0
VERTEX
  8
0
 10
202.554449
 20
146.365880
 42
0.212358
  0
VERTEX
  8
0
 10
201.312118
 20
146.258496
 42
0.065178
  0
VERTEX
  8
0
 10
199.617628
 20
145.010273
 42
0.004122
  0
VERTEX
  8
0
 10
195.182643
 20
140.681243
 42
0.000000
  0
VERTEX
  8
0
 10
188.437169
 20
133.987458
 42
0.000000
  0
VERTEX
  8
0
 10
183.718585
 20
138.778078
 42
0.000000
  0
VERTEX
  8
0
 10
179.000000
 20
143.568698
 42
0.000000
  0
VERTEX
  8
0
 10
179.000000
 20
166.129362
 42
0.001668
  0
VERTEX
  8
0
 10
178.953334
 20
180.116008
 42
0.018805
  0
VERTEX
  8
0
 10
178.707781
 20
185.658150
 42
0.051080
  0
VERTEX
  8
0
 10
178.146765
 20
188.673436
 42
0.138171
  0
VERTEX
  8
0
 10
177.000000
 20
190.500000
 42
-0.024768
  0
VERTEX
  8
0
 10
176.234438
 20
191.265090
 42
-0.028694
  0
VERTEX
  8
0
 10
175.587500
 20
192.067053
 42
-0.029638
  0
VERTEX
  8
0
 10
175.127260
 20
192.797609
 42
-0.126396
  0
VERTEX
  8
0
 10
175.000000
 20
193.292982
 42
-0.189872
  0
VERTEX
  8
0
 10
175.503002
 20
194.569807
 42
-0.002802
  0
VERTEX
  8
0
 10
181.147666
 20
200.554616
 42
-0.002682
  0
VERTEX
  8
0
 10
186.873598
 20
206.493726
 42
-0.202269
  0
VERTEX
  8
0
 10
188.073879
 20
207.000000
 42
-0.185195
  0
VERTEX
  8
0
 10
188.480639
 20
206.843989
 42
-0.005128
  0
VERTEX
  8
0
 10
189.896735
 20
205.543835
 42
-0.009893
  0
VERTEX
  8
0
 10
191.538970
 20
203.942526
 42
-0.006552
  0
SEQEND
  0
POLYLINE
  8
0
 66
1
 70
1
  0
VERTEX
  8
0
 10
148.014183
 20
93.485549
 42
0.000000
  0
VERTEX
  8
0
 10
152.444782
 20
88.971097
 42
0.000000
  0
VERTEX
  8
0
 10
147.722391
 20
84.248707
 42
0.000000
  0
VERTEX
  8
0
 10
143.000000
 20
79.526316
 42
0.000000
  0
VERTEX
  8
0
 10
138.277609
 20
84.248707
 42
0.000000
  0
VERTEX
  8
0
 10
133.555218
 20
88.971097
 42
0.000000
  0
VERTEX
  8
0
 10
137.985817
 20
93.485549
 42
-0.006146
  0
VERTEX
  8
0
 10
139.725995
 20
95.215600
 42
-0.009297
  0
VERTEX
  8
0
 10
141.286355
 20
96.673880
 42
-0.004653
  0
VERTEX
  8
0
 10
142.631481
 20
97.862468
 42
-0.180521
  0
VERTEX
  8
0
 10
143.000000
 20
98.000000
 42
-0.180521
  0
VERTEX
  8
0
 10
143.368519
 20
97.862468
 42
-0.004653
  0
VERTEX
  8
0
 10
144.713645
 20
96.673880
 42
-0.009297
  0
VERTEX
  8
0
 10
146.274005
 20
95.215600
 42
-0.006146
  0
SEQEND
  0
POLYLINE
  8
0
 66
1
 70
1
  0
VERTEX
  8
0
 10
150.487601
 20
76.950383
 42
-0.003202
  0
VERTEX
  8
0
 10
154.642885
 20
78.122282
 42
-0.005187
  0
VERTEX
  8
0
 10
158.192262
 20
79.059312
 42
-0.001231
  0
VERTEX
  8
0
 10
161.291539
 20
79.835106
 42
-0.262868
  0
VERTEX
  8
0
 10
161.577870
 20
79.755463
 42
-0.313609
  0
VERTEX
  8
0
 10
161.627403
 20
79.479515
 42
-0.001320
  0
VERTEX
  8
0
 10
160.273339
 20
76.548897
 42
-0.005598
  0
VERTEX
  8
0
 10
158.667760
 20
73.196537
 42
-0.003420
  0
VERTEX
  8
0
 10
156.701710
 20
69.274696
 42
0.000000
  0
VERTEX
  8
0
 10
151.515632
 20
59.103847
 42
0.000000
  0
VERTEX
  8
0
 10
157.819010
 20
49.946451
 42
-0.004301
  0
VERTEX
  8
0
 10
160.209395
 20
46.408985
 42
-0.007073
  0
VERTEX
  8
0
 10
162.162961
 20
43.371230
 42
-0.002031
  0
VERTEX
  8
0
 10
163.792300
 20
40.733277
 42
-0.346618
  0
VERTEX
  8
0
 10
163.755378
 20
40.422044
 42
-0.231534
  0
VERTEX
  8
0
 10
163.416130
 20
40.305711
 42
-0.001629
  0
VERTEX
  8
0
 10
160.316954
 20
40.704454
 42
-0.005772
  0
VERTEX
  8
0
 10
156.740890
 20
41.218470
 42
-0.003609
  0
VERTEX
  8
0
 10
152.565483
 20
41.898817
 42
0.009086
  0
VERTEX
  8
0
 10
144.347595
 20
43.145606
 42
0.138746
  0
VERTEX
  8
0
 10
141.530798
 20
42.739072
 42
0.112889
  0
VERTEX
  8
0
 10
139.126136
 20
40.934106
 42
0.005167
  0
VERTEX
  8
0
 10
132.534640
 20
32.976007
 42
0.000000
  0
VERTEX
  8
0
 10
126.569281
 20
25.620450
 42
0.000000
  0
VERTEX
  8
0
 10
125.304084
 20
34.060225
 42
0.004492
  0
VERTEX
  8
0
 10
123.560410
 20
45.019373
 42
0.110525
  0
VERTEX
  8
0
 10
122.407988
 20
47.847657
 42
0.146696
  0
VERTEX
  8
0
 10
120.190014
 20
49.613545
 42
0.009708
  0
VERTEX
  8
0
 10
112.473311
 20
52.532893
 42
-0.002846
  0
VERTEX
  8
0
 10
108.457760
 20
53.989374
 42
-0.004668
  0
VERTEX
  8
0
 10
105.076535
 20
55.273599
 42
-0.000929
  0
VERTEX
  8
0
 10
102.131236
 20
56.430143
 42
-0.307902
  0
VERTEX
  8
0
 10
102.000000
 20
56.623052
 42
-0.275050
  0
VERTEX
  8
0
 10
102.124016
 20
56.831438
 42
-0.000878
  0
VERTEX
  8
0
 10
104.907757
 20
58.335574
 42
-0.004421
  0
VERTEX
  8
0
 10
108.103614
 20
60.018876
 42
-0.002711
  0
VERTEX
  8
0
 10
111.898746
 20
61.949188
 42
0.000000
  0
VERTEX
  8
0
 10
121.797492
 20
66.916612
 42
0.000000
  0
VERTEX
  8
0
 10
122.525036
 20
78.560594
 42
0.000000
  0
VERTEX
  8
0
 10
123.252580
 20
90.204577
 42
0.000000
  0
VERTEX
  8
0
 10
131.479914
 20
82.019981
 42
0.000000
  0
VERTEX
  8
0
 10
139.707249
 20
73.835385
 42
0.000000
  0
SEQEND
  0
POLYLINE
  8
0
 66
1
 70
1
  0
VERTEX
  8
0
 10
195.500000
 20
83.000000
 42
0.066139
  0
VERTEX
  8
0
 10
196.517316
 20
82.137638
 42
0.055459
  0
VERTEX
  8
0
 10
197.785425
 20
81.508946
 42
0.050120
  0
VERTEX
  8
0
 10
199.284507
 20
81.127290
 42
0.037302
  0
VERTEX
  8
0
 10
200.988321
 20
81.000000
 42
-0.015534
  0
VERTEX
  8
0
 10
202.442096
 20
80.954824
 42
-0.020181
  0
VERTEX
  8
0
 10
203.767658
 20
80.818494
 42
-0.018265
  0
VERTEX
  8
0
 10
204.843508
 20
80.623425
 42
-0.143346
  0
VERTEX
  8
0
 10
205.284559
 20
80.382108
 42
-0.324673
  0
VERTEX
  8
0
 10
205.355844
 20
79.933330
 42
-0.019172
  0
VERTEX
  8
0
 10
204.644943
 20
78.658477
 42
-0.023004
  0
VERTEX
  8
0
 10
203.598972
 20
77.106465
 42
-0.014307
  0
VERTEX
  8
0
 10
202.239463
 20
75.382108
 42
0.000000
  0
VERTEX
  8
0
 10
198.576475
 20
71.000000
 42
0.000000
  0
VERTEX
  8
0
 10
189.288238
 20
71.000000
 42
-0.007300
  0
VERTEX
  8
0
 10
185.726857
 20
71.051999
 42
-0.012124
  0
VERTEX
  8
0
 10
182.728420
 20
71.212409
 42
-0.005770
  0
VERTEX
  8
0
 10
180.262178
 20
71.433069
 42
-0.384996
  0
VERTEX
  8
0
 10
180.000000
 20
71.723095
 42
-0.194827
  0
VERTEX
  8
0
 10
180.425860
 20
72.774527
 42
-0.001932
  0
VERTEX
  8
0
 10
186.206193
 20
78.693689
 42
-0.001903
  0
VERTEX
  8
0
 10
192.036779
 20
84.573397
 42
-0.199013
  0
VERTEX
  8
0
 10
193.066124
 20
85.000000
 42
-0.154238
  0
VERTEX
  8
0
 10
193.407504
 20
84.892127
 42
-0.018934
  0
VERTEX
  8
0
 10
194.038434
 20
84.412500
 42
-0.020963
  0
VERTEX
  8
0
 10
194.761261
 20
83.765923
 42
-0.015886
  0
SEQEND
  0
POLYLINE
  8
0
 66
1
 70
1
  0
VERTEX
  8
0
 10
212.000000
 20
263.373893
 42
0.010556
  0
VERTEX
  8
0
 10
205.948222
 20
262.476669
 42
0.005341
  0
VERTEX
  8
0
 10
198.364221
 20
261.104619
 42
0.005152
  0
VERTEX
  8
0
 10
191.072402
 20
259.626770
 42
0.016420
  0
VERTEX
  8
0
 10
186.250000
 20
258.430760
 42
0.018447
  0
VERTEX
  8
0
 10
183.936925
 20
257.682586
 42
0.044817
  0
VERTEX
  8
0
 10
182.314931
 20
256.920376
 42
0.066325
  0
VERTEX
  8
0
 10
181.320976
 20
256.146847
 42
0.196734
  0
VERTEX
  8
0
 10
181.000000
 20
255.362659
 42
0.332477
  0
VERTEX
  8
0
 10
181.707817
 20
254.415865
 42
0.097473
  0
VERTEX
  8
0
 10
183.631378
 20
254.237337
 42
0.027611
  0
VERTEX
  8
0
 10
187.659023
 20
254.874899
 42
0.002563
  0
VERTEX
  8
0
 10
197.500000
 20
257.047940
 42
-0.035635
  0
VERTEX
  8
0
 10
209.275454
 20
258.842260
 42
-0.017020
  0
VERTEX
  8
0
 10
224.578578
 20
259.545770
 42
-0.016367
  0
VERTEX
  8
0
 10
239.387579
 20
259.237277
 42
-0.055186
  0
VERTEX
  8
0
 10
248.928602
 20
257.660128
 42
-0.046847
  0
VERTEX
  8
0
 10
260.557249
 20
253.180463
 42
-0.100638
  0
VERTEX
  8
0
 10
268.102064
 20
247.301508
 42
-0.138585
  0
VERTEX
  8
0
 10
271.346125
 20
240.280836
 42
-0.131307
  0
VERTEX
  8
0
 10
270.530176
 20
232.439842
 42
-0.061639
  0
VERTEX
  8
0
 10
268.307286
 20
228.251514
 42
-0.025415
  0
VERTEX
  8
0
 10
264.353372
 20
223.176605
 42
-0.025287
  0
VERTEX
  8
0
 10
259.666547
 20
218.277489
 42
-0.037759
  0
VERTEX
  8
0
 10
255.065336
 20
214.545278
 42
0.034419
  0
VERTEX
  8
0
 10
252.556812
 20
212.538117
 42
0.094693
  0
VERTEX
  8
0
 10
251.212412
 20
210.726164
 42
0.271753
  0
VERTEX
  8
0
 10
251.307037
 20
209.563061
 42
0.244433
  0
VERTEX
  8
0
 10
252.389991
 20
209.000000
 42
0.123895
  0
VERTEX
  8
0
 10
253.220140
 20
209.208910
 42
0.011080
  0
VERTEX
  8
0
 10
255.106134
 20
210.276838
 42
0.013898
  0
VERTEX
  8
0
 10
257.321652
 20
211.681895
 42
0.010403
  0
VERTEX
  8
0
 10
259.684531
 20
213.346682
 42
0.075601
  0
VERTEX
  8
0
 10
271.254465
 20
224.918915
 42
0.145934
  0
VERTEX
  8
0
 10
275.639730
 20
237.138261
 42
0.174210
  0
VERTEX
  8
0
 10
272.314580
 20
248.272216
 42
0.116492
  0
VERTEX
  8
0
 10
262.074457
 20
256.962015
 42
0.037542
  0
VERTEX
  8
0
 10
255.507563
 20
259.712909
 42
0.031122
  0
VERTEX
  8
0
 10
248.179691
 20
261.657751
 42
0.026868
  0
VERTEX
  8
0
 10
239.670377
 20
262.887074
 42
0.016239
  0
VERTEX
  8
0
 10
229.500000
 20
263.470231
 42
0.003457
  0
VERTEX
  8
0
 10
223.883198
 20
263.570701
 42
0.004119
  0
VERTEX
  8
0
 10
218.584375
 20
263.585183
 42
0.003575
  0
VERTEX
  8
0
 10
214.118159
 20
263.528663
 42
0.026574
  0
SEQEND
  0
POLYLINE
  8
0
 66
1
 70
1
  0
VERTEX
  8
0
 10
240.250000
 20
205.779505
 42
0.082341
  0
VERTEX
  8
0
 10
238.750217
 20
204.723033
 42
0.154639
  0
VERTEX
  8
0
 10
238.064579
 20
203.424968
 42
0.264721
  0
VERTEX
  8
0
 10
238.414913
 20
202.429736
 42
0.180616
  0
VERTEX
  8
0
 10
239.565741
 20
202.000000
 42
0.080163
  0
VERTEX
  8
0
 10
241.401951
 20
202.296294
 42
0.064285
  0
VERTEX
  8
0
 10
243.208617
 20
203.165360
 42
0.070465
  0
VERTEX
  8
0
 10
244.555297
 20
204.340428
 42
0.180072
  0
VERTEX
  8
0
 10
245.000000
 20
205.535184
 42
0.179432
  0
VERTEX
  8
0
 10
244.657908
 20
206.457757
 42
0.205115
  0
VERTEX
  8
0
 10
243.818192
 20
206.869628
 42
0.097820
  0
VERTEX
  8
0
 10
242.367361
 20
206.659801
 42
0.027688
  0
SEQEND
  0
POLYLINE
  8
0
 66
1
 70
1
  0
VERTEX
  8
0
 10
51.250000
 20
90.779505
 42
0.080169
  0
VERTEX
  8
0
 10
49.678842
 20
89.682870
 42
0.181089
  0
VERTEX
  8
0
 10
49.066000
 20
88.391640
 42
0.278472
  0
VERTEX
  8
0
 10
49.554222
 20
87.402107
 42
0.143286
  0
VERTEX
  8
0
 10
50.928571
 20
87.000000
 42
0.113402
  0
VERTEX
  8
0
 10
52.637291
 20
87.392593
 42
0.070743
  0
VERTEX
  8
0
 10
54.348697
 20
88.545746
 42
0.081021
  0
VERTEX
  8
0
 10
55.472967
 20
89.950543
 42
0.273213
  0
VERTEX
  8
0
 10
55.450174
 20
91.080620
 42
0.107562
  0
VERTEX
  8
0
 10
54.863601
 20
91.688120
 42
0.166563
  0
VERTEX
  8
0
 10
54.165267
 20
91.872790
 42
0.081362
  0
VERTEX
  8
0
 10
53.132920
 20
91.626783
 42
0.013268
  0
SEQEND
  0
POLYLINE
  8
0
 66
1
 70
1
  0
VERTEX
  8
0
 10
34.348164
 20
80.677388
 42
0.021150
  0
VERTEX
  8
0
 10
29.510944
 20
76.790636
 42
0.034635
  0
VERTEX
  8
0
 10
25.806500
 20
73.063792
 42
0.037582
  0
VERTEX
  8
0
 10
22.865553
 20
69.097376
 42
0.031504
  0
VERTEX
  8
0
 10
20.354600
 20
64.500000
 42
0.251465
  0
VERTEX
  8
0
 10
21.287325
 20
47.802821
 42
0.166870
  0
VERTEX
  8
0
 10
36.399857
 20
35.289571
 42
0.092739
  0
VERTEX
  8
0
 10
65.098174
 20
30.187553
 42
0.050241
  0
VERTEX
  8
0
 10
100.859675
 20
34.115672
 42
0.005373
  0
VERTEX
  8
0
 10
108.057920
 20
35.729478
 42
0.044126
  0
VERTEX
  8
0
 10
111.247105
 20
36.784527
 42
0.140737
  0
VERTEX
  8
0
 10
112.572568
 20
37.872520
 42
0.247433
  0
VERTEX
  8
0
 10
112.736262
 20
39.244907
 42
0.199347
  0
VERTEX
  8
0
 10
112.106109
 20
39.907986
 42
0.116683
  0
VERTEX
  8
0
 10
111.012447
 20
40.112658
 42
0.044246
  0
VERTEX
  8
0
 10
109.051127
 20
39.844769
 42
0.006129
  0
VERTEX
  8
0
 10
105.051362
 20
38.881048
 42
-0.041731
  0
VERTEX
  8
0
 10
77.783531
 20
34.332698
 42
-0.055882
  0
VERTEX
  8
0
 10
52.740871
 20
35.078713
 42
-0.068271
  0
VERTEX
  8
0
 10
33.279722
 20
40.627652
 42
-0.178322
  0
VERTEX
  8
0
 10
22.967007
 20
50.568154
 42
-0.017498
  0
VERTEX
  8
0
 10
21.786388
 20
53.241648
 42
-0.063202
  0
VERTEX
  8
0
 10
21.318439
 20
55.039592
 42
-0.074395
  0
VERTEX
  8
0
 10
21.352696
 20
56.740925
 42
-0.030621
  0
VERTEX
  8
0
 10
21.879513
 20
58.992188
 42
-0.054146
  0
VERTEX
  8
0
 10
23.850990
 20
63.664506
 42
-0.037259
  0
VERTEX
  8
0
 10
27.013024
 20
68.470296
 42
-0.034719
  0
VERTEX
  8
0
 10
31.137837
 20
73.118161
 42
-0.031401
  0
VERTEX
  8
0
 10
36.000000
 20
77.320714
 42
0.014209
  0
VERTEX
  8
0
 10
40.112006
 20
80.635021
 42
0.056776
  0
VERTEX
  8
0
 10
42.315158
 20
82.997303
 42
0.227132
  0
VERTEX
  8
0
 10
42.569406
 20
84.316173
 42
0.341004
  0
VERTEX
  8
0
 10
41.683333
 20
85.000000
 42
0.121818
  0
VERTEX
  8
0
 10
40.818429
 20
84.786103
 42
0.011908
  0
VERTEX
  8
0
 10
38.925010
 20
83.730233
 42
0.014517
  0
VERTEX
  8
0
 10
36.703829
 20
82.332873
 42
0.011001
  0
SEQEND
  0
ENDSEC
  0
EOF
