  0
SECTION
  2
HEADER
  9
$ACADVER
  1
AC1006
  9
$EXTMIN
 10
0.000000
 20
0.000000
 30
0.000000
  9
$EXTMAX
 10
512.000000
 20
512.000000
 30
0.000000
  0
ENDSEC
  0
SECTION
  2
ENTITIES
  0
POLYLINE
  8
0
 66
1
 70
1
  0
VERTEX
  8
0
 10
51.346687
 20
487.958795
 42
0.106018
  0
VERTEX
  8
0
 10
31.471805
 20
479.861528
 42
0.096886
  0
VERTEX
  8
0
 10
15.909863
 20
464.114974
 42
0.080551
  0
VERTEX
  8
0
 10
5.419153
 20
440.970947
 42
0.049053
  0
VERTEX
  8
0
 10
0.423265
 20
411.296713
 42
0.004381
  0
VERTEX
  8
0
 10
0.029843
 20
404.747886
 42
0.049858
  0
VERTEX
  8
0
 10
0.155047
 20
402.162659
 42
0.108589
  0
VERTEX
  8
0
 10
0.810757
 20
400.443376
 42
0.051222
  0
VERTEX
  8
0
 10
2.317874
 20
398.591217
 42
0.082137
  0
VERTEX
  8
0
 10
4.890447
 20
396.748834
 42
0.107174
  0
VERTEX
  8
0
 10
7.692136
 20
396.051170
 42
0.113038
  0
VERTEX
  8
0
 10
10.418753
 20
396.588576
 42
0.099548
  0
VERTEX
  8
0
 10
12.785486
 20
398.271660
 42
0.082859
  0
VERTEX
  8
0
 10
13.926008
 20
399.979310
 42
0.048637
  0
VERTEX
  8
0
 10
14.715592
 20
402.312539
 42
0.027774
  0
VERTEX
  8
0
 10
15.341009
 20
405.879348
 42
0.006220
  0
VERTEX
  8
0
 10
15.992094
 20
412.021660
 42
-0.015138
  0
VERTEX
  8
0
 10
17.321962
 20
422.740268
 42
-0.021516
  0
VERTEX
  8
0
 10
19.198510
 20
432.155099
 42
-0.023702
  0
VERTEX
  8
0
 10
21.691730
 20
440.597450
 42
-0.027194
  0
VERTEX
  8
0
 10
24.879828
 20
448.376993
 42
-0.024486
  0
VERTEX
  8
0
 10
28.133583
 20
454.443976
 42
-0.028098
  0
VERTEX
  8
0
 10
31.831998
 20
459.880083
 42
-0.025667
  0
VERTEX
  8
0
 10
35.362284
 20
464.029830
 42
-0.206502
  0
VERTEX
  8
0
 10
37.611167
 20
465.000000
 42
-0.103653
  0
VERTEX
  8
0
 10
39.345446
 20
464.636567
 42
-0.008383
  0
VERTEX
  8
0
 10
43.601011
 20
462.685371
 42
-0.011155
  0
VERTEX
  8
0
 10
48.577670
 20
460.163795
 42
-0.008833
  0
VERTEX
  8
0
 10
53.844683
 20
457.224894
 42
0.000000
  0
VERTEX
  8
0
 10
58.189366
 20
454.698981
 42
0.000000
  0
VERTEX
  8
0
 10
55.266963
 20
453.470202
 42
0.071562
  0
VERTEX
  8
0
 10
50.060007
 20
450.342580
 42
0.051013
  0
VERTEX
  8
0
 10
45.244509
 20
445.523931
 42
0.048624
  0
VERTEX
  8
0
 10
41.276929
 20
439.546156
 42
0.050071
  0
VERTEX
  8
0
 10
38.584298
 20
432.971907
 42
0.027049
  0
VERTEX
  8
0
 10
37.286837
 20
427.542931
 42
0.060657
  0
VERTEX
  8
0
 10
37.035906
 20
423.318972
 42
0.081607
  0
VERTEX
  8
0
 10
37.793838
 20
420.002585
 42
0.099795
  0
VERTEX
  8
0
 10
39.550923
 20
417.358168
 42
0.042801
  0
VERTEX
  8
0
 10
41.268994
 20
415.911503
 42
0.107158
  0
VERTEX
  8
0
 10
42.770423
 20
415.275297
 42
0.063140
  0
VERTEX
  8
0
 10
44.846419
 20
415.148117
 42
0.008108
  0
VERTEX
  8
0
 10
49.300923
 20
415.510363
 42
0.000000
  0
VERTEX
  8
0
 10
56.500000
 20
416.213481
 42
0.000000
  0
VERTEX
  8
0
 10
53.803614
 20
413.356740
 42
0.075755
  0
VERTEX
  8
0
 10
50.044579
 20
407.924289
 42
0.053685
  0
VERTEX
  8
0
 10
47.520618
 20
400.941055
 42
0.053296
  0
VERTEX
  8
0
 10
46.526727
 20
393.515998
 42
0.071147
  0
VERTEX
  8
0
 10
47.309454
 20
386.768189
 42
0.121234
  0
VERTEX
  8
0
 10
48.634433
 20
384.336053
 42
0.090350
  0
VERTEX
  8
0
 10
51.075326
 20
382.478668
 42
0.083234
  0
VERTEX
  8
0
 10
54.213853
 20
381.493441
 42
0.081060
  0
VERTEX
  8
0
 10
57.532272
 20
381.572032
 42
-0.035523
  0
VERTEX
  8
0
 10
59.265988
 20
381.771292
 42
-0.052750
  0
VERTEX
  8
0
 10
60.790246
 20
381.676685
 42
-0.055995
  0
VERTEX
  8
0
 10
62.192381
 20
381.274612
 42
-0.047261
  0
VERTEX
  8
0
 10
63.558202
 20
380.553821
 42
-0.067609
  0
VERTEX
  8
0
 10
65.955060
 20
378.472505
 42
-0.140830
  0
VERTEX
  8
0
 10
67.001812
 20
376.254320
 42
-0.129159
  0
VERTEX
  8
0
 10
66.754821
 20
373.684083
 42
-0.052657
  0
VERTEX
  8
0
 10
65.190370
 20
370.509815
 42
0.017252
  0
VERTEX
  8
0
 10
63.838868
 20
368.195911
 42
0.003382
  0
VERTEX
  8
0
 10
61.581985
 20
363.937714
 42
0.003585
  0
VERTEX
  8
0
 10
59.019748
 20
358.936175
 42
0.003317
  0
VERTEX
  8
0
 10
56.461343
 20
353.767510
 42
0.000000
  0
VERTEX
  8
0
 10
50.263792
 20
341.035020
 42
0.000000
  0
VERTEX
  8
0
 10
43.313458
 20
345.916049
 42
-0.029535
  0
VERTEX
  8
0
 10
36.865342
 20
351.038286
 42
-0.023479
  0
VERTEX
  8
0
 10
30.526684
 20
357.275182
 42
-0.024012
  0
VERTEX
  8
0
 10
25.025500
 20
363.826007
 42
-0.040226
  0
VERTEX
  8
0
 10
21.146752
 20
369.876043
 42
0.018805
  0
VERTEX
  8
0
 10
18.897322
 20
373.739097
 42
0.081156
  0
VERTEX
  8
0
 10
17.137408
 20
375.718132
 42
0.114389
  0
VERTEX
  8
0
 10
15.161193
 20
376.682989
 42
0.056661
  0
VERTEX
  8
0
 10
12.372758
 20
377.000000
 42
0.127708
  0
VERTEX
  8
0
 10
10.028498
 20
376.391309
 42
0.063969
  0
VERTEX
  8
0
 10
7.548142
 20
374.560535
 42
0.064378
  0
VERTEX
  8
0
 10
5.633175
 20
372.185697
 42
0.138380
  0
VERTEX
  8
0
 10
5.000000
 20
369.941688
 42
0.082910
  0
VERTEX
  8
0
 10
5.206284
 20
368.706209
 42
0.012245
  0
VERTEX
  8
0
 10
6.090163
 20
366.324594
 42
0.013524
  0
VERTEX
  8
0
 10
7.290262
 20
363.539853
 42
0.011259
  0
VERTEX
  8
0
 10
8.711193
 20
360.646233
 42
0.051343
  0
VERTEX
  8
0
 10
13.460377
 20
353.422371
 42
0.023034
  0
VERTEX
  8
0
 10
21.047677
 20
344.948201
 42
0.022960
  0
VERTEX
  8
0
 10
29.685498
 20
336.924016
 42
0.036712
  0
VERTEX
  8
0
 10
37.822684
 20
331.000000
 42
-0.025568
  0
VERTEX
  8
0
 10
42.981731
 20
327.417104
 42
-0.207522
  0
VERTEX
  8
0
 10
44.338479
 20
324.953658
 42
-0.084651
  0
VERTEX
  8
0
 10
44.064999
 20
321.300100
 42
-0.002393
  0
VERTEX
  8
0
 10
40.184317
 20
306.000000
 42
0.016459
  0
VERTEX
  8
0
 10
34.785008
 20
281.885563
 42
0.018508
  0
VERTEX
  8
0
 10
31.225952
 20
258.391406
 42
0.018624
  0
VERTEX
  8
0
 10
29.429828
 20
234.831216
 42
0.017099
  0
VERTEX
  8
0
 10
29.316779
 20
210.519591
 42
0.005315
  0
VERTEX
  8
0
 10
29.877306
 20
196.575000
 42
0.013698
  0
VERTEX
  8
0
 10
30.664710
 20
186.526453
 42
0.014855
  0
VERTEX
  8
0
 10
31.959657
 20
177.014255
 42
0.007313
  0
VERTEX
  8
0
 10
34.141380
 20
165.000000
 42
0.018414
  0
VERTEX
  8
0
 10
37.654074
 20
150.070678
 42
0.014323
  0
VERTEX
  8
0
 10
42.528759
 20
134.117477
 42
0.011374
  0
VERTEX
  8
0
 10
47.655275
 20
119.983090
 42
0.095117
  0
VERTEX
  8
0
 10
51.252461
 20
114.250000
 42
0.053802
  0
VERTEX
  8
0
 10
52.292289
 20
113.350293
 42
0.044962
  0
VERTEX
  8
0
 10
53.562804
 20
112.629721
 42
0.045643
  0
VERTEX
  8
0
 10
54.918228
 20
112.158130
 42
0.060977
  0
VERTEX
  8
0
 10
56.210047
 20
112.000000
 42
0.059760
  0
VERTEX
  8
0
 10
57.508786
 20
112.155780
 42
0.049585
  0
VERTEX
  8
0
 10
58.823033
 20
112.617491
 42
0.049087
  0
VERTEX
  8
0
 10
60.034190
 20
113.335330
 42
0.055561
  0
VERTEX
  8
0
 10
61.027648
 20
114.250000
 42
-0.005623
  0
VERTEX
  8
0
 10
65.149808
 20
118.884990
 42
-0.028150
  0
VERTEX
  8
0
 10
67.628594
 20
121.319375
 42
-0.052958
  0
VERTEX
  8
0
 10
69.433409
 20
122.592273
 42
-0.127800
  0
VERTEX
  8
0
 10
71.002532
 20
123.000000
 42
-0.051754
  0
VERTEX
  8
0
 10
72.120965
 20
122.883923
 42
-0.211576
  0
VERTEX
  8
0
 10
72.662196
 20
122.494393
 42
-0.156779
  0
VERTEX
  8
0
 10
72.829764
 20
121.741278
 42
-0.025917
  0
VERTEX
  8
0
 10
72.613654
 20
120.250000
 42
0.009890
  0
VERTEX
  8
0
 10
71.672919
 20
114.958883
 42
0.029841
  0
VERTEX
  8
0
 10
71.320054
 20
111.314096
 42
0.035276
  0
VERTEX
  8
0
 10
71.431758
 20
107.998170
 42
0.018793
  0
VERTEX
  8
0
 10
72.012095
 20
103.932382
 42
0.034385
  0
VERTEX
  8
0
 10
73.647314
 20
97.477283
 42
0.038427
  0
VERTEX
  8
0
 10
76.108179
 20
91.552369
 42
0.039395
  0
VERTEX
  8
0
 10
79.381882
 20
86.203546
 42
0.040017
  0
VERTEX
  8
0
 10
83.438572
 20
81.464419
 42
0.039866
  0
VERTEX
  8
0
 10
90.161110
 20
75.765821
 42
0.126082
  0
VERTEX
  8
0
 10
95.615755
 20
73.633711
 42
0.187805
  0
VERTEX
  8
0
 10
100.105114
 20
74.777665
 42
0.109933
  0
VERTEX
  8
0
 10
103.860236
 20
78.965112
 42
-0.028779
  0
VERTEX
  8
0
 10
104.953974
 20
80.673092
 42
-0.015827
  0
VERTEX
  8
0
 10
106.473702
 20
82.636223
 42
-0.015734
  0
VERTEX
  8
0
 10
108.146770
 20
84.536552
 42
-0.024233
  0
VERTEX
  8
0
 10
109.720414
 20
86.059383
 42
0.000000
  0
VERTEX
  8
0
 10
113.418075
 20
89.305972
 42
0.000000
  0
VERTEX
  8
0
 10
114.666273
 20
82.542950
 42
0.059374
  0
VERTEX
  8
0
 10
118.454029
 20
70.346476
 42
0.068175
  0
VERTEX
  8
0
 10
124.885382
 20
59.993470
 42
0.068465
  0
VERTEX
  8
0
 10
133.837796
 20
51.785012
 42
0.060633
  0
VERTEX
  8
0
 10
145.038186
 20
45.893492
 42
0.031527
  0
VERTEX
  8
0
 10
150.401070
 20
44.234042
 42
0.067242
  0
VERTEX
  8
0
 10
154.708645
 20
43.789775
 42
0.091189
  0
VERTEX
  8
0
 10
158.087490
 20
44.521915
 42
0.116820
  0
VERTEX
  8
0
 10
160.655378
 20
46.385742
 42
0.043099
  0
VERTEX
  8
0
 10
161.552886
 20
47.631759
 42
0.033510
  0
VERTEX
  8
0
 10
162.311267
 20
49.120739
 42
0.034447
  0
VERTEX
  8
0
 10
162.832182
 20
50.616028
 42
0.066688
  0
VERTEX
  8
0
 10
163.000000
 20
51.868672
 42
-0.156183
  0
VERTEX
  8
0
 10
164.138831
 20
55.425572
 42
-0.095637
  0
VERTEX
  8
0
 10
167.358360
 20
58.487897
 42
-0.101926
  0
VERTEX
  8
0
 10
171.300400
 20
60.001166
 42
-0.201932
  0
VERTEX
  8
0
 10
174.500000
 20
59.234687
 42
-0.092539
  0
VERTEX
  8
0
 10
175.034380
 20
58.664069
 42
-0.007952
  0
VERTEX
  8
0
 10
176.087500
 20
56.954680
 42
-0.010281
  0
VERTEX
  8
0
 10
177.278031
 20
54.854447
 42
-0.007793
  0
VERTEX
  8
0
 10
178.500000
 20
52.504649
 42
0.046466
  0
VERTEX
  8
0
 10
182.317313
 20
46.372739
 42
0.027979
  0
VERTEX
  8
0
 10
187.877488
 20
39.846429
 42
0.028085
  0
VERTEX
  8
0
 10
194.048860
 20
34.061782
 42
0.052327
  0
VERTEX
  8
0
 10
199.729275
 20
30.239077
 42
0.034908
  0
VERTEX
  8
0
 10
208.592650
 20
26.302166
 42
0.057318
  0
VERTEX
  8
0
 10
216.568975
 20
24.403373
 42
0.027115
  0
VERTEX
  8
0
 10
228.149780
 20
23.649829
 42
0.002690
  0
VERTEX
  8
0
 10
256.000000
 20
23.500000
 42
0.002690
  0
VERTEX
  8
0
 10
283.850220
 20
23.649829
 42
0.027115
  0
VERTEX
  8
0
 10
295.431025
 20
24.403373
 42
0.057318
  0
VERTEX
  8
0
 10
303.407350
 20
26.302166
 42
0.034908
  0
VERTEX
  8
0
 10
312.270725
 20
30.239077
 42
0.052796
  0
VERTEX
  8
0
 10
318.003658
 20
34.104914
 42
0.027896
  0
VERTEX
  8
0
 10
324.261477
 20
39.988139
 42
0.027862
  0
VERTEX
  8
0
 10
329.861726
 20
46.573190
 42
0.049815
  0
VERTEX
  8
0
 10
333.569138
 20
52.626973
 42
-0.008824
  0
VERTEX
  8
0
 10
334.731969
 20
54.929861
 42
-0.011532
  0
VERTEX
  8
0
 10
335.880092
 20
56.990613
 42
-0.009217
  0
VERTEX
  8
0
 10
336.903935
 20
58.661283
 42
-0.097998
  0
VERTEX
  8
0
 10
337.452878
 20
59.234687
 42
-0.195308
  0
VERTEX
  8
0
 10
340.710655
 20
59.983937
 42
-0.102387
  0
VERTEX
  8
0
 10
344.661067
 20
58.479985
 42
-0.096756
  0
VERTEX
  8
0
 10
347.864596
 20
55.430673
 42
-0.155522
  0
VERTEX
  8
0
 10
349.000000
 20
51.868672
 42
0.066649
  0
VERTEX
  8
0
 10
349.167701
 20
50.616169
 42
0.034451
  0
VERTEX
  8
0
 10
349.688206
 20
49.121351
 42
0.033515
  0
VERTEX
  8
0
 10
350.446007
 20
47.633043
 42
0.043127
  0
VERTEX
  8
0
 10
351.342830
 20
46.387825
 42
0.104041
  0
VERTEX
  8
0
 10
353.646335
 20
44.625416
 42
0.088231
  0
VERTEX
  8
0
 10
356.605005
 20
43.807370
 42
0.067989
  0
VERTEX
  8
0
 10
360.324252
 20
43.963756
 42
0.033777
  0
VERTEX
  8
0
 10
364.911063
 20
45.112122
 42
0.067473
  0
VERTEX
  8
0
 10
376.608686
 20
50.727993
 42
0.068399
  0
VERTEX
  8
0
 10
386.328294
 20
59.234168
 42
0.068732
  0
VERTEX
  8
0
 10
393.355738
 20
70.006255
 42
0.069256
  0
VERTEX
  8
0
 10
397.177546
 20
82.252427
 42
-0.008776
  0
VERTEX
  8
0
 10
397.652980
 20
84.839208
 42
-0.014213
  0
VERTEX
  8
0
 10
398.157920
 20
87.017901
 42
-0.007898
  0
VERTEX
  8
0
 10
398.649055
 20
88.779047
 42
-0.332232
  0
VERTEX
  8
0
 10
398.944880
 20
89.000000
 42
-0.204854
  0
VERTEX
  8
0
 10
400.124786
 20
88.495406
 42
-0.007808
  0
VERTEX
  8
0
 10
403.441545
 20
84.913226
 42
-0.014691
  0
VERTEX
  8
0
 10
406.592581
 20
81.186948
 42
-0.038654
  0
VERTEX
  8
0
 10
408.552955
 20
78.292383
 42
0.068066
  0
VERTEX
  8
0
 10
410.748551
 20
75.427798
 42
0.115254
  0
VERTEX
  8
0
 10
413.310731
 20
73.851879
 42
0.118125
  0
VERTEX
  8
0
 10
416.259510
 20
73.595362
 42
0.073803
  0
VERTEX
  8
0
 10
419.591750
 20
74.610562
 42
0.062998
  0
VERTEX
  8
0
 10
423.903026
 20
77.367244
 42
0.029327
  0
VERTEX
  8
0
 10
428.752716
 20
81.915769
 42
0.029170
  0
VERTEX
  8
0
 10
433.174847
 20
87.160888
 42
0.047368
  0
VERTEX
  8
0
 10
436.206592
 20
92.133827
 42
0.039641
  0
VERTEX
  8
0
 10
438.069437
 20
96.886159
 42
0.019716
  0
VERTEX
  8
0
 10
439.701599
 20
103.149767
 42
0.016359
  0
VERTEX
  8
0
 10
440.816664
 20
109.182697
 42
0.113665
  0
VERTEX
  8
0
 10
440.589267
 20
112.156944
 42
-0.030528
  0
VERTEX
  8
0
 10
440.393714
 20
112.950444
 42
-0.005072
  0
VERTEX
  8
0
 10
440.126871
 20
114.500790
 42
-0.005549
  0
VERTEX
  8
0
 10
439.851454
 20
116.332958
 42
-0.004887
  0
VERTEX
  8
0
 10
439.604073
 20
118.250000
 42
-0.009749
  0
VERTEX
  8
0
 10
439.324304
 20
121.064915
 42
-0.096273
  0
VERTEX
  8
0
 10
439.457118
 20
122.241666
 42
-0.232981
  0
VERTEX
  8
0
 10
439.994612
 20
122.804765
 42
-0.087942
  0
VERTEX
  8
0
 10
441.096053
 20
123.000000
 42
-0.131609
  0
VERTEX
  8
0
 10
442.611860
 20
122.593980
 42
-0.050437
  0
VERTEX
  8
0
 10
444.397331
 20
121.307920
 42
-0.027080
  0
VERTEX
  8
0
 10
446.868523
 20
118.867411
 42
-0.005460
  0
VERTEX
  8
0
 10
450.972352
 20
114.250000
 42
0.106759
  0
VERTEX
  8
0
 10
453.161387
 20
112.611897
 42
0.109639
  0
VERTEX
  8
0
 10
455.810106
 20
112.043717
 42
0.106691
  0
VERTEX
  8
0
 10
458.508067
 20
112.646111
 42
0.096386
  0
VERTEX
  8
0
 10
460.830857
 20
114.319956
 42
0.091693
  0
VERTEX
  8
0
 10
463.317565
 20
118.188360
 42
0.008253
  0
VERTEX
  8
0
 10
467.521585
 20
128.965375
 42
0.011473
  0
VERTEX
  8
0
 10
471.686261
 20
141.026303
 42
0.014648
  0
VERTEX
  8
0
 10
474.938770
 20
152.326797
 42
0.035328
  0
VERTEX
  8
0
 10
481.262838
 20
187.016045
 42
0.030825
  0
VERTEX
  8
0
 10
483.036336
 20
223.881325
 42
0.029752
  0
VERTEX
  8
0
 10
480.245773
 20
262.016237
 42
0.027676
  0
VERTEX
  8
0
 10
472.929559
 20
300.500000
 42
0.003561
  0
VERTEX
  8
0
 10
471.633996
 20
305.566900
 42
0.003077
  0
VERTEX
  8
0
 10
470.203210
 20
310.868413
 42
0.003097
  0
VERTEX
  8
0
 10
468.846845
 20
315.658272
 42
0.008999
  0
VERTEX
  8
0
 10
467.829428
 20
318.945660
 42
-0.014509
  0
VERTEX
  8
0
 10
466.392616
 20
323.775977
 42
-0.200889
  0
VERTEX
  8
0
 10
466.635210
 20
325.543542
 42
-0.112801
  0
VERTEX
  8
0
 10
468.072614
 20
327.063324
 42
-0.003300
  0
VERTEX
  8
0
 10
475.500000
 20
331.950729
 42
0.033354
  0
VERTEX
  8
0
 10
485.010494
 20
339.062499
 42
0.033811
  0
VERTEX
  8
0
 10
493.444797
 20
347.345673
 42
0.034444
  0
VERTEX
  8
0
 10
500.541295
 20
356.527594
 42
0.037877
  0
VERTEX
  8
0
 10
506.062329
 20
366.319499
 42
0.093118
  0
VERTEX
  8
0
 10
511.853538
 20
388.813253
 42
0.048552
  0
VERTEX
  8
0
 10
510.960468
 20
417.855436
 42
0.048194
  0
VERTEX
  8
0
 10
504.400263
 20
446.639577
 42
0.081757
  0
VERTEX
  8
0
 10
492.940112
 20
468.463096
 42
0.114093
  0
VERTEX
  8
0
 10
476.060144
 20
482.591543
 42
0.105843
  0
VERTEX
  8
0
 10
454.218789
 20
488.373564
 42
0.092687
  0
VERTEX
  8
0
 10
429.497580
 20
484.966549
 42
0.067265
  0
VERTEX
  8
0
 10
404.500000
 20
472.701820
 42
0.018840
  0
VERTEX
  8
0
 10
397.420321
 20
467.560134
 42
0.011612
  0
VERTEX
  8
0
 10
389.472662
 20
461.013551
 42
0.011649
  0
VERTEX
  8
0
 10
381.997224
 20
454.248504
 42
0.022866
  0
VERTEX
  8
0
 10
376.435145
 20
448.468910
 42
0.000000
  0
VERTEX
  8
0
 10
370.952175
 20
442.223722
 42
0.000000
  0
VERTEX
  8
0
 10
362.226088
 20
446.485661
 42
0.014209
  0
VERTEX
  8
0
 10
352.503169
 20
450.896875
 42
0.012851
  0
VERTEX
  8
0
 10
342.216951
 20
454.907887
 42
0.012557
  0
VERTEX
  8
0
 10
331.488839
 20
458.474877
 42
0.012026
  0
VERTEX
  8
0
 10
320.440409
 20
461.554376
 42
0.011389
  0
VERTEX
  8
0
 10
305.839078
 20
464.896272
 42
0.019648
  0
VERTEX
  8
0
 10
293.541138
 20
466.917937
 42
0.017886
  0
VERTEX
  8
0
 10
280.357783
 20
468.079398
 42
0.007723
  0
VERTEX
  8
0
 10
262.735708
 20
468.725709
 42
0.004292
  0
VERTEX
  8
0
 10
244.355068
 20
468.957866
 42
0.020306
  0
VERTEX
  8
0
 10
233.827739
 20
468.572811
 42
0.034009
  0
VERTEX
  8
0
 10
227.282257
 20
467.615957
 42
0.153085
  0
VERTEX
  8
0
 10
223.960901
 20
465.727657
 42
0.103942
  0
VERTEX
  8
0
 10
222.537812
 20
463.369035
 42
0.085090
  0
VERTEX
  8
0
 10
222.050281
 20
460.458610
 42
0.087606
  0
VERTEX
  8
0
 10
222.560924
 20
457.629385
 42
0.121061
  0
VERTEX
  8
0
 10
223.999772
 20
455.500206
 42
0.139430
  0
VERTEX
  8
0
 10
226.108977
 20
454.459167
 42
0.029248
  0
VERTEX
  8
0
 10
230.235457
 20
453.949302
 42
0.013182
  0
VERTEX
  8
0
 10
237.614311
 20
453.668086
 42
0.001411
  0
VERTEX
  8
0
 10
254.749772
 20
453.515438
 42
-0.002845
  0
VERTEX
  8
0
 10
269.102375
 20
453.346391
 42
-0.007504
  0
VERTEX
  8
0
 10
279.377889
 20
453.012562
 42
-0.010326
  0
VERTEX
  8
0
 10
287.189735
 20
452.479477
 42
-0.019087
  0
VERTEX
  8
0
 10
293.500000
 20
451.674026
 42
-0.032049
  0
VERTEX
  8
0
 10
326.121721
 20
444.063394
 42
-0.039655
  0
VERTEX
  8
0
 10
355.171322
 20
432.710984
 42
-0.041396
  0
VERTEX
  8
0
 10
381.023519
 20
417.404984
 42
-0.040955
  0
VERTEX
  8
0
 10
404.100855
 20
398.000000
 42
-0.028791
  0
VERTEX
  8
0
 10
419.537209
 20
380.827182
 42
-0.031972
  0
VERTEX
  8
0
 10
432.322574
 20
362.561748
 42
-0.031375
  0
VERTEX
  8
0
 10
442.867955
 20
342.505164
 42
-0.025869
  0
VERTEX
  8
0
 10
451.599821
 20
319.965904
 42
0.000000
  0
VERTEX
  8
0
 10
455.266807
 20
308.821206
 42
0.000000
  0
VERTEX
  8
0
 10
451.637819
 20
299.652290
 42
-0.016736
  0
VERTEX
  8
0
 10
448.288201
 20
291.952693
 42
-0.016839
  0
VERTEX
  8
0
 10
444.437481
 20
284.510537
 42
-0.016578
  0
VERTEX
  8
0
 10
440.033566
 20
277.235058
 42
-0.015117
  0
VERTEX
  8
0
 10
435.025848
 20
270.034868
 42
-0.029382
  0
VERTEX
  8
0
 10
429.091338
 20
262.941446
 42
-0.010894
  0
VERTEX
  8
0
 10
419.958458
 20
253.657766
 42
-0.011072
  0
VERTEX
  8
0
 10
410.158177
 20
244.534173
 42
-0.021469
  0
VERTEX
  8
0
 10
401.870164
 20
237.768971
 42
0.021381
  0
VERTEX
  8
0
 10
395.750628
 20
232.775613
 42
0.112529
  0
VERTEX
  8
0
 10
393.248777
 20
229.267629
 42
0.192330
  0
VERTEX
  8
0
 10
393.198852
 20
226.023347
 42
0.086782
  0
VERTEX
  8
0
 10
395.415983
 20
222.305764
 42
0.056908
  0
VERTEX
  8
0
 10
397.203975
 20
220.652686
 42
0.109498
  0
VERTEX
  8
0
 10
398.981349
 20
219.870887
 42
0.046847
  0
VERTEX
  8
0
 10
401.788287
 20
219.581773
 42
0.003840
  0
VERTEX
  8
0
 10
409.165983
 20
219.571942
 42
0.041728
  0
VERTEX
  8
0
 10
423.792731
 20
220.888307
 42
0.047158
  0
VERTEX
  8
0
 10
437.386793
 20
224.612675
 42
0.046504
  0
VERTEX
  8
0
 10
450.199328
 20
230.874613
 42
0.038709
  0
VERTEX
  8
0
 10
462.500000
 20
239.747780
 42
0.000000
  0
VERTEX
  8
0
 10
466.500000
 20
243.132654
 42
0.000000
  0
VERTEX
  8
0
 10
467.131685
 20
240.316327
 42
-0.039584
  0
VERTEX
  8
0
 10
467.385436
 20
238.535209
 42
-0.004174
  0
VERTEX
  8
0
 10
467.612568
 20
234.336255
 42
-0.005142
  0
VERTEX
  8
0
 10
467.790181
 20
229.322206
 42
-0.004104
  0
VERTEX
  8
0
 10
467.881685
 20
223.913478
 42
0.000000
  0
VERTEX
  8
0
 10
468.000000
 20
210.326956
 42
0.000000
  0
VERTEX
  8
0
 10
459.750000
 20
206.239666
 42
-0.026631
  0
VERTEX
  8
0
 10
447.097127
 20
200.789386
 42
-0.027240
  0
VERTEX
  8
0
 10
434.030722
 20
196.761526
 42
-0.024505
  0
VERTEX
  8
0
 10
419.421514
 20
193.867689
 42
-0.015199
  0
VERTEX
  8
0
 10
402.049120
 20
191.840633
 42
0.008294
  0
VERTEX
  8
0
 10
392.003099
 20
190.808816
 42
0.063959
  0
VERTEX
  8
0
 10
387.426784
 20
189.656449
 42
0.141078
  0
VERTEX
  8
0
 10
384.937998
 20
187.745810
 42
0.097773
  0
VERTEX
  8
0
 10
383.415200
 20
184.518151
 42
0.127320
  0
VERTEX
  8
0
 10
383.434751
 20
181.866540
 42
0.096010
  0
VERTEX
  8
0
 10
384.712864
 20
179.234672
 42
0.061643
  0
VERTEX
  8
0
 10
387.473122
 20
176.368924
 42
0.021119
  0
VERTEX
  8
0
 10
392.110343
 20
172.925068
 42
0.037140
  0
VERTEX
  8
0
 10
403.068236
 20
166.617395
 42
0.040011
  0
VERTEX
  8
0
 10
414.574362
 20
162.179967
 42
0.039309
  0
VERTEX
  8
0
 10
426.823924
 20
159.575147
 42
0.033575
  0
VERTEX
  8
0
 10
440.000000
 20
158.733075
 42
0.008100
  0
VERTEX
  8
0
 10
444.730818
 20
158.825350
 42
0.008205
  0
VERTEX
  8
0
 10
449.435785
 20
159.070761
 42
0.008041
  0
VERTEX
  8
0
 10
453.520728
 20
159.417199
 42
0.032920
  0
VERTEX
  8
0
 10
455.972885
 20
159.829310
 42
-0.009930
  0
VERTEX
  8
0
 10
457.716336
 20
160.205404
 42
-0.014932
  0
VERTEX
  8
0
 10
459.251152
 20
160.457410
 42
-0.009711
  0
VERTEX
  8
0
 10
460.517876
 20
160.601749
 42
-0.223471
  0
VERTEX
  8
0
 10
460.851869
 20
160.481464
 42
-0.273496
  0
VERTEX
  8
0
 10
461.038051
 20
159.756741
 42
-0.000546
  0
VERTEX
  8
0
 10
457.587724
 20
147.916914
 42
-0.000983
  0
VERTEX
  8
0
 10
454.184075
 20
136.368817
 42
-0.124845
  0
VERTEX
  8
0
 10
453.421849
 20
135.088515
 42
-0.260873
  0
VERTEX
  8
0
 10
453.079410
 20
134.991887
 42
-0.017093
  0
VERTEX
  8
0
 10
452.051221
 20
135.275923
 42
-0.021303
  0
VERTEX
  8
0
 10
450.792147
 20
135.730263
 42
-0.014016
  0
VERTEX
  8
0
 10
449.383532
 20
136.354149
 42
0.072232
  0
VERTEX
  8
0
 10
443.000041
 20
138.334082
 42
0.059372
  0
VERTEX
  8
0
 10
435.862839
 20
138.604975
 42
0.061387
  0
VERTEX
  8
0
 10
429.127436
 20
137.216577
 42
0.093673
  0
VERTEX
  8
0
 10
423.941516
 20
134.297336
 42
0.070891
  0
VERTEX
  8
0
 10
421.952081
 20
132.073156
 42
0.129049
  0
VERTEX
  8
0
 10
421.163882
 20
129.783367
 42
0.084591
  0
VERTEX
  8
0
 10
421.450251
 20
126.743968
 42
0.018818
  0
VERTEX
  8
0
 10
423.000000
 20
121.740324
 42
-0.042291
  0
VERTEX
  8
0
 10
424.517938
 20
115.880106
 42
-0.046813
  0
VERTEX
  8
0
 10
424.958453
 20
110.046052
 42
-0.048917
  0
VERTEX
  8
0
 10
424.308957
 20
104.469608
 42
-0.055573
  0
VERTEX
  8
0
 10
422.593008
 20
99.372537
 42
-0.011775
  0
VERTEX
  8
0
 10
421.596846
 20
97.358450
 42
-0.014886
  0
VERTEX
  8
0
 10
420.577836
 20
95.547912
 42
-0.012960
  0
VERTEX
  8
0
 10
419.649761
 20
94.094629
 42
-0.106141
  0
VERTEX
  8
0
 10
419.085444
 20
93.552807
 42
-0.251965
  0
VERTEX
  8
0
 10
418.389420
 20
93.511052
 42
-0.026808
  0
VERTEX
  8
0
 10
416.906338
 20
94.297047
 42
-0.027891
  0
VERTEX
  8
0
 10
415.130765
 20
95.503227
 42
-0.018581
  0
VERTEX
  8
0
 10
413.232667
 20
97.068635
 42
0.053142
  0
VERTEX
  8
0
 10
406.620566
 20
101.795158
 42
0.052768
  0
VERTEX
  8
0
 10
399.145438
 20
105.035086
 42
0.057732
  0
VERTEX
  8
0
 10
391.979888
 20
106.399899
 42
0.117016
  0
VERTEX
  8
0
 10
386.346362
 20
105.490219
 42
0.082817
  0
VERTEX
  8
0
 10
384.028977
 20
104.042742
 42
0.141916
  0
VERTEX
  8
0
 10
382.817495
 20
102.132826
 42
0.065299
  0
VERTEX
  8
0
 10
382.312822
 20
98.858033
 42
0.007659
  0
VERTEX
  8
0
 10
382.259689
 20
91.453924
 42
-0.010474
  0
VERTEX
  8
0
 10
382.194771
 20
86.384871
 42
-0.033721
  0
VERTEX
  8
0
 10
381.854304
 20
83.031058
 42
-0.041691
  0
VERTEX
  8
0
 10
381.112580
 20
80.149334
 42
-0.023524
  0
VERTEX
  8
0
 10
379.765307
 20
76.798541
 42
-0.044943
  0
VERTEX
  8
0
 10
377.152466
 20
72.226211
 42
-0.035676
  0
VERTEX
  8
0
 10
373.572767
 20
67.802299
 42
-0.036798
  0
VERTEX
  8
0
 10
369.617539
 20
64.149970
 42
-0.069949
  0
VERTEX
  8
0
 10
365.892164
 20
61.955333
 42
-0.017213
  0
VERTEX
  8
0
 10
364.058936
 20
61.268903
 42
-0.118802
  0
VERTEX
  8
0
 10
363.108739
 20
61.185682
 42
-0.181075
  0
VERTEX
  8
0
 10
362.424708
 20
61.565971
 42
-0.052217
  0
VERTEX
  8
0
 10
361.729244
 20
62.580811
 42
0.065190
  0
VERTEX
  8
0
 10
359.760470
 20
65.300159
 42
0.021292
  0
VERTEX
  8
0
 10
356.202919
 20
68.759339
 42
0.021419
  0
VERTEX
  8
0
 10
352.349690
 20
71.913523
 42
0.061918
  0
VERTEX
  8
0
 10
349.361378
 20
73.622367
 42
0.027000
  0
VERTEX
  8
0
 10
347.877792
 20
74.150159
 42
0.018374
  0
VERTEX
  8
0
 10
346.142087
 20
74.595320
 42
0.018552
  0
VERTEX
  8
0
 10
344.430404
 20
74.901877
 42
0.035044
  0
VERTEX
  8
0
 10
343.032119
 20
75.000000
 42
-0.182912
  0
VERTEX
  8
0
 10
340.722363
 20
75.874211
 42
-0.323964
  0
VERTEX
  8
0
 10
340.297600
 20
77.768723
 42
-0.083300
  0
VERTEX
  8
0
 10
342.575554
 20
81.305138
 42
-0.013192
  0
VERTEX
  8
0
 10
348.312977
 20
87.283384
 42
0.026666
  0
VERTEX
  8
0
 10
354.478369
 20
94.064055
 42
0.035287
  0
VERTEX
  8
0
 10
359.285333
 20
100.882898
 42
0.036510
  0
VERTEX
  8
0
 10
362.962838
 20
108.113450
 42
0.032001
  0
VERTEX
  8
0
 10
365.738502
 20
116.124353
 42
0.034577
  0
VERTEX
  8
0
 10
366.656823
 20
120.644492
 42
0.019993
  0
VERTEX
  8
0
 10
367.162978
 20
126.171312
 42
0.011279
  0
VERTEX
  8
0
 10
367.398905
 20
134.363802
 42
0.002287
  0
VERTEX
  8
0
 10
367.423030
 20
148.902791
 42
0.000000
  0
VERTEX
  8
0
 10
367.346060
 20
175.305581
 42
0.000000
  0
VERTEX
  8
0
 10
364.617266
 20
177.652791
 42
0.035695
  0
VERTEX
  8
0
 10
362.505619
 20
179.221742
 42
0.103741
  0
VERTEX
  8
0
 10
360.813250
 20
179.860502
 42
0.106758
  0
VERTEX
  8
0
 10
359.035841
 20
179.756318
 42
0.039087
  0
VERTEX
  8
0
 10
356.657325
 20
178.889728
 42
0.155647
  0
VERTEX
  8
0
 10
354.102521
 20
176.574037
 42
0.093591
  0
VERTEX
  8
0
 10
352.729662
 20
172.680601
 42
0.034433
  0
VERTEX
  8
0
 10
352.123957
 20
165.445186
 42
0.003670
  0
VERTEX
  8
0
 10
352.000000
 20
148.558282
 42
-0.002359
  0
VERTEX
  8
0
 10
351.934337
 20
134.638539
 42
-0.013613
  0
VERTEX
  8
0
 10
351.664576
 20
127.283303
 42
-0.025470
  0
VERTEX
  8
0
 10
351.090352
 20
122.303928
 42
-0.033512
  0
VERTEX
  8
0
 10
350.035874
 20
117.855335
 42
-0.086489
  0
VERTEX
  8
0
 10
342.680129
 20
103.456267
 42
-0.090531
  0
VERTEX
  8
0
 10
330.982974
 20
92.659562
 42
-0.090392
  0
VERTEX
  8
0
 10
316.209110
 20
86.681048
 42
-0.085904
  0
VERTEX
  8
0
 10
300.000000
 20
86.148495
 42
-0.042681
  0
VERTEX
  8
0
 10
292.643346
 20
87.823379
 42
-0.048765
  0
VERTEX
  8
0
 10
286.016958
 20
90.676797
 42
-0.042722
  0
VERTEX
  8
0
 10
279.404053
 20
95.099352
 42
-0.023059
  0
VERTEX
  8
0
 10
272.038469
 20
101.572027
 42
0.000000
  0
VERTEX
  8
0
 10
263.000000
 20
110.285136
 42
0.000000
  0
VERTEX
  8
0
 10
263.000000
 20
120.432874
 42
0.000000
  0
VERTEX
  8
0
 10
263.000000
 20
130.580613
 42
0.000000
  0
VERTEX
  8
0
 10
274.688178
 20
140.040306
 42
0.007875
  0
VERTEX
  8
0
 10
279.508904
 20
144.069195
 42
0.013580
  0
VERTEX
  8
0
 10
283.373288
 20
147.591118
 42
0.012173
  0
VERTEX
  8
0
 10
286.254818
 20
150.502615
 42
0.117642
  0
VERTEX
  8
0
 10
287.115491
 20
152.000000
 42
0.002198
  0
VERTEX
  8
0
 10
287.501532
 20
153.327155
 42
0.000606
  0
VERTEX
  8
0
 10
288.096789
 20
155.417200
 42
0.000612
  0
VERTEX
  8
0
 10
288.765333
 20
157.786473
 42
0.000640
  0
VERTEX
  8
0
 10
289.418148
 20
160.122383
 42
-0.054215
  0
VERTEX
  8
0
 10
291.356630
 20
164.981926
 42
-0.078961
  0
VERTEX
  8
0
 10
294.126369
 20
168.659733
 42
-0.071825
  0
VERTEX
  8
0
 10
298.108941
 20
171.528971
 42
-0.037256
  0
VERTEX
  8
0
 10
303.751074
 20
173.957353
 42
0.016131
  0
VERTEX
  8
0
 10
309.857579
 20
176.285311
 42
0.047471
  0
VERTEX
  8
0
 10
313.817696
 20
178.404449
 42
0.064057
  0
VERTEX
  8
0
 10
316.610600
 20
180.825290
 42
0.054220
  0
VERTEX
  8
0
 10
318.883645
 20
184.006764
 42
0.099761
  0
VERTEX
  8
0
 10
320.931245
 20
190.329922
 42
0.085188
  0
VERTEX
  8
0
 10
320.540893
 20
197.335810
 42
0.076730
  0
VERTEX
  8
0
 10
317.715043
 20
204.435842
 42
0.060617
  0
VERTEX
  8
0
 10
312.685353
 20
211.010624
 42
0.077032
  0
VERTEX
  8
0
 10
307.410046
 20
214.962325
 42
0.094070
  0
VERTEX
  8
0
 10
301.532087
 20
216.790724
 42
0.027225
  0
VERTEX
  8
0
 10
291.141108
 20
217.410211
 42
0.001278
  0
VERTEX
  8
0
 10
256.000000
 20
217.500000
 42
0.000837
  0
VERTEX
  8
0
 10
227.848867
 20
217.452872
 42
0.007654
  0
VERTEX
  8
0
 10
215.604068
 20
217.224396
 42
0.014840
  0
VERTEX
  8
0
 10
208.623941
 20
216.779552
 42
0.102225
  0
VERTEX
  8
0
 10
205.356119
 20
215.779196
 42
0.071872
  0
VERTEX
  8
0
 10
199.896471
 20
211.677611
 42
0.052961
  0
VERTEX
  8
0
 10
195.151359
 20
205.775691
 42
0.054119
  0
VERTEX
  8
0
 10
191.864980
 20
199.195824
 42
0.089005
  0
VERTEX
  8
0
 10
190.769231
 20
193.089007
 42
0.084274
  0
VERTEX
  8
0
 10
191.896630
 20
186.447580
 42
0.104823
  0
VERTEX
  8
0
 10
195.137317
 20
181.104278
 42
0.087367
  0
VERTEX
  8
0
 10
200.795404
 20
176.870076
 42
0.043059
  0
VERTEX
  8
0
 10
209.158669
 20
173.509452
 42
-0.053277
  0
VERTEX
  8
0
 10
214.459576
 20
171.252796
 42
-0.085260
  0
VERTEX
  8
0
 10
218.278184
 20
168.170926
 42
-0.076885
  0
VERTEX
  8
0
 10
221.101688
 20
163.748215
 42
-0.036133
  0
VERTEX
  8
0
 10
223.385509
 20
157.342547
 42
0.000000
  0
VERTEX
  8
0
 10
225.558086
 20
149.500000
 42
0.000000
  0
VERTEX
  8
0
 10
236.758297
 20
140.500000
 42
0.000000
  0
VERTEX
  8
0
 10
247.958508
 20
131.500000
 42
0.000000
  0
VERTEX
  8
0
 10
247.979254
 20
120.387818
 42
0.000000
  0
VERTEX
  8
0
 10
248.000000
 20
109.275636
 42
0.000000
  0
VERTEX
  8
0
 10
239.438999
 20
101.056733
 42
-0.024607
  0
VERTEX
  8
0
 10
232.355445
 20
94.896298
 42
-0.042332
  0
VERTEX
  8
0
 10
225.827481
 20
90.600759
 42
-0.047478
  0
VERTEX
  8
0
 10
219.237802
 20
87.795277
 42
-0.042724
  0
VERTEX
  8
0
 10
212.000000
 20
86.159923
 42
-0.072170
  0
VERTEX
  8
0
 10
198.035917
 20
86.261470
 42
-0.076456
  0
VERTEX
  8
0
 10
184.970206
 20
90.360186
 42
-0.077427
  0
VERTEX
  8
0
 10
173.872432
 20
98.135470
 42
-0.076820
  0
VERTEX
  8
0
 10
165.630742
 20
108.937118
 42
-0.040361
  0
VERTEX
  8
0
 10
162.538235
 20
115.904087
 42
-0.051591
  0
VERTEX
  8
0
 10
160.911020
 20
122.731087
 42
-0.028231
  0
VERTEX
  8
0
 10
160.188931
 20
132.412647
 42
-0.004391
  0
VERTEX
  8
0
 10
160.011869
 20
151.619010
 42
-0.005916
  0
VERTEX
  8
0
 10
160.231397
 20
170.883950
 42
-0.020302
  0
VERTEX
  8
0
 10
161.029385
 20
183.369655
 42
-0.027482
  0
VERTEX
  8
0
 10
162.678790
 20
193.631250
 42
-0.019969
  0
VERTEX
  8
0
 10
165.588293
 20
204.826830
 42
-0.037052
  0
VERTEX
  8
0
 10
170.196908
 20
216.770564
 42
-0.024472
  0
VERTEX
  8
0
 10
177.140613
 20
229.749237
 42
-0.024670
  0
VERTEX
  8
0
 10
185.145626
 20
241.717257
 42
-0.044740
  0
VERTEX
  8
0
 10
192.978221
 20
250.500000
 42
0.050613
  0
VERTEX
  8
0
 10
196.682382
 20
254.752800
 42
0.106495
  0
VERTEX
  8
0
 10
198.392604
 20
258.761740
 42
0.139480
  0
VERTEX
  8
0
 10
198.078480
 20
262.399636
 42
0.118532
  0
VERTEX
  8
0
 10
195.897158
 20
265.593071
 42
0.114277
  0
VERTEX
  8
0
 10
193.007847
 20
267.201641
 42
0.143152
  0
VERTEX
  8
0
 10
189.953855
 20
267.189598
 42
0.093359
  0
VERTEX
  8
0
 10
186.417862
 20
265.373394
 42
0.029879
  0
VERTEX
  8
0
 10
181.958809
 20
261.459239
 42
0.045666
  0
VERTEX
  8
0
 10
169.989259
 20
247.230448
 42
0.035174
  0
VERTEX
  8
0
 10
159.591728
 20
229.797445
 42
0.034355
  0
VERTEX
  8
0
 10
151.493477
 20
210.578295
 42
0.037615
  0
VERTEX
  8
0
 10
146.391842
 20
191.000000
 42
0.036563
  0
VERTEX
  8
0
 10
144.854277
 20
176.633563
 42
0.007946
  0
VERTEX
  8
0
 10
144.414410
 20
151.690518
 42
0.006500
  0
VERTEX
  8
0
 10
144.695730
 20
126.705583
 42
0.061402
  0
VERTEX
  8
0
 10
146.261498
 20
116.124353
 42
0.032001
  0
VERTEX
  8
0
 10
149.037162
 20
108.113450
 42
0.036510
  0
VERTEX
  8
0
 10
152.714667
 20
100.882898
 42
0.035287
  0
VERTEX
  8
0
 10
157.521631
 20
94.064055
 42
0.026666
  0
VERTEX
  8
0
 10
163.687023
 20
87.283384
 42
-0.013009
  0
VERTEX
  8
0
 10
169.484507
 20
81.246971
 42
-0.086128
  0
VERTEX
  8
0
 10
171.722682
 20
77.734737
 42
-0.334133
  0
VERTEX
  8
0
 10
171.243625
 20
75.853985
 42
-0.170742
  0
VERTEX
  8
0
 10
168.815724
 20
75.000000
 42
0.096176
  0
VERTEX
  8
0
 10
163.956141
 20
74.056524
 42
0.053200
  0
VERTEX
  8
0
 10
158.602289
 20
71.202051
 42
0.051223
  0
VERTEX
  8
0
 10
153.703735
 20
67.088767
 42
0.065030
  0
VERTEX
  8
0
 10
150.179283
 20
62.355878
 42
-0.056971
  0
VERTEX
  8
0
 10
149.545100
 20
61.475070
 42
-0.169536
  0
VERTEX
  8
0
 10
148.900715
 20
61.125486
 42
-0.123457
  0
VERTEX
  8
0
 10
148.043281
 20
61.198092
 42
-0.024349
  0
VERTEX
  8
0
 10
146.597763
 20
61.773503
 42
-0.063512
  0
VERTEX
  8
0
 10
143.280649
 20
63.827282
 42
-0.022522
  0
VERTEX
  8
0
 10
139.099223
 20
67.541313
 42
-0.022658
  0
VERTEX
  8
0
 10
135.249962
 20
71.638715
 42
-0.059352
  0
VERTEX
  8
0
 10
133.006746
 20
74.986777
 42
-0.048360
  0
VERTEX
  8
0
 10
131.350859
 20
79.192290
 42
-0.026999
  0
VERTEX
  8
0
 10
130.125042
 20
84.561153
 42
-0.027016
  0
VERTEX
  8
0
 10
129.487041
 20
90.014181
 42
-0.049708
  0
VERTEX
  8
0
 10
129.651646
 20
94.475130
 42
0.019775
  0
VERTEX
  8
0
 10
129.833124
 20
96.346563
 42
0.016456
  0
VERTEX
  8
0
 10
129.881533
 20
98.345223
 42
0.016771
  0
VERTEX
  8
0
 10
129.804013
 20
100.179654
 42
0.042559
  0
VERTEX
  8
0
 10
129.590614
 20
101.494989
 42
0.271286
  0
VERTEX
  8
0
 10
125.619089
 20
105.544101
 42
0.102682
  0
VERTEX
  8
0
 10
117.405161
 20
106.042517
 42
0.076764
  0
VERTEX
  8
0
 10
107.394833
 20
102.975903
 42
0.073687
  0
VERTEX
  8
0
 10
98.618714
 20
97.002662
 42
-0.018585
  0
VERTEX
  8
0
 10
96.755532
 20
95.409136
 42
-0.030556
  0
VERTEX
  8
0
 10
95.055160
 20
94.222517
 42
-0.032284
  0
VERTEX
  8
0
 10
93.656648
 20
93.487939
 42
-0.248078
  0
VERTEX
  8
0
 10
92.941608
 20
93.536089
 42
-0.105249
  0
VERTEX
  8
0
 10
92.365637
 20
94.087149
 42
-0.013310
  0
VERTEX
  8
0
 10
91.430110
 20
95.543001
 42
-0.015142
  0
VERTEX
  8
0
 10
90.405136
 20
97.357254
 42
-0.012052
  0
VERTEX
  8
0
 10
89.406992
 20
99.372537
 42
-0.055003
  0
VERTEX
  8
0
 10
87.684487
 20
104.469898
 42
-0.049377
  0
VERTEX
  8
0
 10
87.031477
 20
110.011053
 42
-0.048225
  0
VERTEX
  8
0
 10
87.474729
 20
115.701171
 42
-0.047310
  0
VERTEX
  8
0
 10
88.999496
 20
121.239273
 42
0.014413
  0
VERTEX
  8
0
 10
89.764923
 20
123.442320
 42
0.013922
  0
VERTEX
  8
0
 10
90.411788
 20
125.711269
 42
0.013980
  0
VERTEX
  8
0
 10
90.869308
 20
127.738893
 42
0.048481
  0
VERTEX
  8
0
 10
90.999496
 20
129.075686
 42
0.130055
  0
VERTEX
  8
0
 10
90.337073
 20
131.581299
 42
0.081833
  0
VERTEX
  8
0
 10
88.420882
 20
133.948833
 42
0.065916
  0
VERTEX
  8
0
 10
85.392828
 20
136.000173
 42
0.042889
  0
VERTEX
  8
0
 10
81.460798
 20
137.561835
 42
0.031753
  0
VERTEX
  8
0
 10
77.112473
 20
138.574685
 42
0.044055
  0
VERTEX
  8
0
 10
73.125142
 20
138.883564
 42
0.046464
  0
VERTEX
  8
0
 10
69.314859
 20
138.487387
 42
0.041795
  0
VERTEX
  8
0
 10
65.500000
 20
137.390381
 42
-0.001824
  0
VERTEX
  8
0
 10
63.853455
 20
136.770805
 42
-0.001862
  0
VERTEX
  8
0
 10
62.213822
 20
136.167588
 42
-0.001805
  0
VERTEX
  8
0
 10
60.785762
 20
135.654068
 42
-0.007763
  0
VERTEX
  8
0
 10
59.930033
 20
135.364723
 42
-0.299202
  0
VERTEX
  8
0
 10
58.993526
 20
135.624833
 42
-0.068012
  0
VERTEX
  8
0
 10
58.041002
 20
137.070431
 42
-0.031912
  0
VERTEX
  8
0
 10
56.901117
 20
139.899681
 42
-0.006112
  0
VERTEX
  8
0
 10
55.227165
 20
145.180448
 42
-0.001415
  0
VERTEX
  8
0
 10
53.981198
 20
149.326745
 42
-0.001678
  0
VERTEX
  8
0
 10
52.828390
 20
153.250936
 42
-0.001457
  0
VERTEX
  8
0
 10
51.876386
 20
156.568360
 42
-0.010732
  0
VERTEX
  8
0
 10
51.460518
 20
158.163163
 42
0.000000
  0
VERTEX
  8
0
 10
50.826773
 20
160.826327
 42
0.000000
  0
VERTEX
  8
0
 10
55.163387
 20
159.798691
 42
0.047536
  0
VERTEX
  8
0
 10
62.386878
 20
158.797873
 42
0.018047
  0
VERTEX
  8
0
 10
72.573858
 20
158.730827
 42
0.018270
  0
VERTEX
  8
0
 10
83.070781
 20
159.425106
 42
0.033679
  0
VERTEX
  8
0
 10
91.500000
 20
160.871281
 42
0.039343
  0
VERTEX
  8
0
 10
104.241164
 20
165.035539
 42
0.038290
  0
VERTEX
  8
0
 10
116.294587
 20
171.174653
 42
0.038152
  0
VERTEX
  8
0
 10
125.531960
 20
177.823693
 42
0.221164
  0
VERTEX
  8
0
 10
128.000000
 20
183.130441
 42
0.113440
  0
VERTEX
  8
0
 10
127.185583
 20
186.673901
 42
0.151738
  0
VERTEX
  8
0
 10
124.943010
 20
189.066679
 42
0.089265
  0
VERTEX
  8
0
 10
120.716156
 20
190.555000
 42
0.022549
  0
VERTEX
  8
0
 10
113.446917
 20
191.397654
 42
-0.016018
  0
VERTEX
  8
0
 10
95.765288
 20
193.213690
 42
-0.023160
  0
VERTEX
  8
0
 10
80.314138
 20
196.036396
 42
-0.025768
  0
VERTEX
  8
0
 10
66.597679
 20
199.958809
 42
-0.030703
  0
VERTEX
  8
0
 10
54.161406
 20
205.091794
 42
0.000000
  0
VERTEX
  8
0
 10
43.822813
 20
210.122044
 42
0.000000
  0
VERTEX
  8
0
 10
44.161406
 20
225.479497
 42
-0.004549
  0
VERTEX
  8
0
 10
44.346489
 20
231.420752
 42
-0.007028
  0
VERTEX
  8
0
 10
44.625251
 20
236.549880
 42
-0.002798
  0
VERTEX
  8
0
 10
44.948706
 20
240.916038
 42
-0.178624
  0
VERTEX
  8
0
 10
45.264980
 20
241.600122
 42
-0.297191
  0
VERTEX
  8
0
 10
45.760123
 20
241.703827
 42
-0.040806
  0
VERTEX
  8
0
 10
46.755535
 20
241.219470
 42
-0.036031
  0
VERTEX
  8
0
 10
47.969823
 20
240.377164
 42
-0.022634
  0
VERTEX
  8
0
 10
49.264980
 20
239.232598
 42
0.045930
  0
VERTEX
  8
0
 10
54.195643
 20
235.268019
 42
0.017258
  0
VERTEX
  8
0
 10
61.754262
 20
230.624354
 42
0.017489
  0
VERTEX
  8
0
 10
69.880646
 20
226.378996
 42
0.032180
  0
VERTEX
  8
0
 10
76.801523
 20
223.597793
 42
0.018037
  0
VERTEX
  8
0
 10
83.640654
 20
221.618600
 42
0.019130
  0
VERTEX
  8
0
 10
90.472435
 20
220.181225
 42
0.019704
  0
VERTEX
  8
0
 10
97.189545
 20
219.305019
 42
0.022275
  0
VERTEX
  8
0
 10
103.684900
 20
219.007554
 42
0.035927
  0
VERTEX
  8
0
 10
110.267666
 20
219.473082
 42
0.101206
  0
VERTEX
  8
0
 10
114.589963
 20
221.022247
 42
0.145486
  0
VERTEX
  8
0
 10
117.050773
 20
223.739154
 42
0.109698
  0
VERTEX
  8
0
 10
117.968197
 20
227.683835
 42
0.113790
  0
VERTEX
  8
0
 10
117.500421
 20
229.809422
 42
0.076456
  0
VERTEX
  8
0
 10
116.099174
 20
231.876032
 42
0.032406
  0
VERTEX
  8
0
 10
113.123929
 20
234.690046
 42
0.004067
  0
VERTEX
  8
0
 10
106.250000
 20
240.301587
 42
-0.017527
  0
VERTEX
  8
0
 10
93.718735
 20
251.106368
 42
-0.023390
  0
VERTEX
  8
0
 10
83.181271
 20
261.813202
 42
-0.025444
  0
VERTEX
  8
0
 10
74.445021
 20
272.621455
 42
-0.029758
  0
VERTEX
  8
0
 10
67.334882
 20
283.728874
 42
-0.016344
  0
VERTEX
  8
0
 10
63.702882
 20
290.752915
 42
-0.013613
  0
VERTEX
  8
0
 10
60.296141
 20
298.436986
 42
-0.011033
  0
VERTEX
  8
0
 10
57.598414
 20
305.433368
 42
-0.088094
  0
VERTEX
  8
0
 10
57.014726
 20
308.829179
 42
-0.076056
  0
VERTEX
  8
0
 10
57.750509
 20
313.467088
 42
-0.007027
  0
VERTEX
  8
0
 10
61.453776
 20
324.523121
 42
-0.009916
  0
VERTEX
  8
0
 10
65.772358
 20
336.098344
 42
-0.017216
  0
VERTEX
  8
0
 10
69.873736
 20
345.500000
 42
-0.052907
  0
VERTEX
  8
0
 10
91.050805
 20
379.924927
 42
-0.054021
  0
VERTEX
  8
0
 10
118.850028
 20
408.873356
 42
-0.054347
  0
VERTEX
  8
0
 10
152.037136
 20
431.051835
 42
-0.054816
  0
VERTEX
  8
0
 10
189.129559
 20
445.481855
 42
0.010148
  0
VERTEX
  8
0
 10
195.423480
 20
447.303875
 42
0.052433
  0
VERTEX
  8
0
 10
198.747899
 20
448.736350
 42
0.093616
  0
VERTEX
  8
0
 10
200.734571
 20
450.403976
 42
0.080794
  0
VERTEX
  8
0
 10
202.100793
 20
452.765105
 42
0.129300
  0
VERTEX
  8
0
 10
202.363051
 20
455.226493
 42
0.077505
  0
VERTEX
  8
0
 10
201.472592
 20
458.047796
 42
0.075830
  0
VERTEX
  8
0
 10
199.733885
 20
460.526019
 42
0.111537
  0
VERTEX
  8
0
 10
197.525240
 20
461.990404
 42
0.153310
  0
VERTEX
  8
0
 10
192.429825
 20
462.291746
 42
0.014121
  0
VERTEX
  8
0
 10
180.095866
 20
458.832770
 42
0.018030
  0
VERTEX
  8
0
 10
165.932463
 20
453.859000
 42
0.016551
  0
VERTEX
  8
0
 10
151.746873
 20
447.746178
 42
0.000000
  0
VERTEX
  8
0
 10
140.993745
 20
442.684203
 42
0.000000
  0
VERTEX
  8
0
 10
132.746873
 20
451.151373
 42
0.023048
  0
VERTEX
  8
0
 10
119.239281
 20
463.797980
 42
0.032898
  0
VERTEX
  8
0
 10
106.075009
 20
473.612255
 42
0.036205
  0
VERTEX
  8
0
 10
92.833163
 20
480.888975
 42
0.039963
  0
VERTEX
  8
0
 10
79.102776
 20
485.904303
 42
0.028019
  0
VERTEX
  8
0
 10
72.256865
 20
487.394311
 42
0.021103
  0
VERTEX
  8
0
 10
64.604593
 20
488.286629
 42
0.021508
  0
VERTEX
  8
0
 10
57.242909
 20
488.513990
 42
0.040897
  0
SEQEND
  0
POLYLINE
  8
0
 66
1
 70
1
  0
VERTEX
  8
0
 10
73.500000
 20
471.548401
 42
-0.045707
  0
VERTEX
  8
0
 10
84.318556
 20
467.914394
 42
-0.033743
  0
VERTEX
  8
0
 10
95.512069
 20
462.045974
 42
-0.030978
  0
VERTEX
  8
0
 10
106.785585
 20
454.128521
 42
-0.025162
  0
VERTEX
  8
0
 10
117.844955
 20
444.339868
 42
0.000000
  0
VERTEX
  8
0
 10
127.352020
 20
435.031551
 42
0.000000
  0
VERTEX
  8
0
 10
120.492599
 20
430.207701
 42
0.000000
  0
VERTEX
  8
0
 10
113.633179
 20
425.383851
 42
0.000000
  0
VERTEX
  8
0
 10
106.472221
 20
433.160541
 42
0.013315
  0
VERTEX
  8
0
 10
96.865490
 20
443.051348
 42
0.014760
  0
VERTEX
  8
0
 10
87.061741
 20
452.071994
 42
0.015469
  0
VERTEX
  8
0
 10
77.222862
 20
460.083295
 42
0.018793
  0
VERTEX
  8
0
 10
67.511205
 20
466.941347
 42
-0.001224
  0
VERTEX
  8
0
 10
64.418577
 20
468.966299
 42
-0.001863
  0
VERTEX
  8
0
 10
61.743431
 20
470.741590
 42
-0.000662
  0
VERTEX
  8
0
 10
59.444398
 20
472.284063
 42
-0.048320
  0
VERTEX
  8
0
 10
59.094538
 20
472.572129
 42
-0.676531
  0
VERTEX
  8
0
 10
59.335571
 20
473.135610
 42
-0.011985
  0
VERTEX
  8
0
 10
63.849689
 20
472.923396
 42
-0.016378
  0
VERTEX
  8
0
 10
69.014370
 20
472.385899
 42
-0.024070
  0
SEQEND
  0
POLYLINE
  8
0
 66
1
 70
1
  0
VERTEX
  8
0
 10
452.905462
 20
472.572129
 42
-0.048101
  0
VERTEX
  8
0
 10
452.555693
 20
472.283880
 42
-0.000658
  0
VERTEX
  8
0
 10
450.256569
 20
470.738398
 42
-0.001853
  0
VERTEX
  8
0
 10
447.581423
 20
468.959599
 42
-0.001218
  0
VERTEX
  8
0
 10
444.488795
 20
466.930483
 42
0.019506
  0
VERTEX
  8
0
 10
434.604512
 20
459.915210
 42
0.015459
  0
VERTEX
  8
0
 10
424.477007
 20
451.604922
 42
0.014409
  0
VERTEX
  8
0
 10
414.155514
 20
442.049275
 42
0.011846
  0
VERTEX
  8
0
 10
403.686944
 20
431.283442
 42
0.000000
  0
VERTEX
  8
0
 10
397.922176
 20
425.066885
 42
0.000000
  0
VERTEX
  8
0
 10
391.505796
 20
429.682720
 42
-0.008736
  0
VERTEX
  8
0
 10
388.122855
 20
432.207194
 42
-0.049975
  0
VERTEX
  8
0
 10
386.498664
 20
433.746052
 42
-0.116272
  0
VERTEX
  8
0
 10
385.883590
 20
434.924620
 42
-0.187371
  0
VERTEX
  8
0
 10
386.018496
 20
436.034561
 42
-0.081680
  0
VERTEX
  8
0
 10
388.684366
 20
439.509540
 42
-0.007040
  0
VERTEX
  8
0
 10
396.976487
 20
447.070723
 42
-0.010106
  0
VERTEX
  8
0
 10
405.738482
 20
454.526566
 42
-0.024373
  0
VERTEX
  8
0
 10
412.583370
 20
459.581372
 42
-0.015779
  0
VERTEX
  8
0
 10
419.342533
 20
463.779543
 42
-0.021306
  0
VERTEX
  8
0
 10
425.719583
 20
467.112773
 42
-0.023215
  0
VERTEX
  8
0
 10
431.862908
 20
469.656773
 42
-0.027005
  0
VERTEX
  8
0
 10
437.916371
 20
471.477654
 42
-0.026527
  0
VERTEX
  8
0
 10
442.309200
 20
472.300421
 42
-0.014807
  0
VERTEX
  8
0
 10
447.722998
 20
472.857288
 42
-0.009651
  0
VERTEX
  8
0
 10
452.666383
 20
473.122441
 42
-0.680648
  0
SEQEND
  0
POLYLINE
  8
0
 66
1
 70
1
  0
VERTEX
  8
0
 10
480.056590
 20
459.809193
 42
-0.056912
  0
VERTEX
  8
0
 10
487.156238
 20
448.363188
 42
-0.045107
  0
VERTEX
  8
0
 10
492.169314
 20
434.686710
 42
-0.039224
  0
VERTEX
  8
0
 10
495.160734
 20
418.503062
 42
-0.025483
  0
VERTEX
  8
0
 10
496.176785
 20
399.500000
 42
-0.014993
  0
VERTEX
  8
0
 10
495.877668
 20
388.633977
 42
-0.038034
  0
VERTEX
  8
0
 10
494.827034
 20
380.812985
 42
-0.046286
  0
VERTEX
  8
0
 10
492.763278
 20
374.190118
 42
-0.033890
  0
VERTEX
  8
0
 10
489.327142
 20
367.295252
 42
-0.042462
  0
VERTEX
  8
0
 10
484.913817
 20
361.047030
 42
-0.026184
  0
VERTEX
  8
0
 10
478.761068
 20
354.471468
 42
-0.024965
  0
VERTEX
  8
0
 10
471.515278
 20
348.163343
 42
-0.026049
  0
VERTEX
  8
0
 10
463.775423
 20
342.703878
 42
0.000000
  0
VERTEX
  8
0
 10
461.050847
 20
340.987210
 42
0.000000
  0
VERTEX
  8
0
 10
456.041786
 20
351.606414
 42
0.004754
  0
VERTEX
  8
0
 10
453.902781
 20
356.031559
 42
0.004358
  0
VERTEX
  8
0
 10
451.618080
 20
360.546251
 42
0.004358
  0
VERTEX
  8
0
 10
449.508882
 20
364.539811
 42
0.014243
  0
VERTEX
  8
0
 10
448.016363
 20
367.127831
 42
-0.062720
  0
VERTEX
  8
0
 10
445.209938
 20
373.306979
 42
-0.193579
  0
VERTEX
  8
0
 10
445.575847
 20
377.793197
 42
-0.206587
  0
VERTEX
  8
0
 10
448.896105
 20
380.587216
 42
-0.071511
  0
VERTEX
  8
0
 10
455.225064
 20
381.539344
 42
0.013932
  0
VERTEX
  8
0
 10
458.451643
 20
381.650389
 42
0.053826
  0
VERTEX
  8
0
 10
460.423768
 20
381.988537
 42
0.082958
  0
VERTEX
  8
0
 10
461.812251
 20
382.647131
 42
0.070542
  0
VERTEX
  8
0
 10
463.001251
 20
383.753217
 42
0.142939
  0
VERTEX
  8
0
 10
465.465337
 20
389.635315
 42
0.068996
  0
VERTEX
  8
0
 10
465.259162
 20
397.872656
 42
0.064429
  0
VERTEX
  8
0
 10
462.687517
 20
406.444156
 42
0.080636
  0
VERTEX
  8
0
 10
458.135838
 20
413.375115
 42
0.000000
  0
VERTEX
  8
0
 10
455.500000
 20
416.250230
 42
0.000000
  0
VERTEX
  8
0
 10
462.736257
 20
415.565917
 42
0.008077
  0
VERTEX
  8
0
 10
467.248390
 20
415.212649
 42
0.064650
  0
VERTEX
  8
0
 10
469.325061
 20
415.352288
 42
0.107849
  0
VERTEX
  8
0
 10
470.840016
 20
416.012768
 42
0.039872
  0
VERTEX
  8
0
 10
472.622394
 20
417.531485
 42
0.038182
  0
VERTEX
  8
0
 10
474.115543
 20
419.271922
 42
0.103098
  0
VERTEX
  8
0
 10
474.786967
 20
420.746519
 42
0.068380
  0
VERTEX
  8
0
 10
474.954292
 20
422.704318
 42
0.010456
  0
VERTEX
  8
0
 10
474.671309
 20
426.616957
 42
0.019846
  0
VERTEX
  8
0
 10
474.299166
 20
429.402788
 42
0.014601
  0
VERTEX
  8
0
 10
473.675222
 20
432.454416
 42
0.014803
  0
VERTEX
  8
0
 10
472.913997
 20
435.310348
 42
0.031606
  0
VERTEX
  8
0
 10
472.124282
 20
437.451945
 42
0.050570
  0
VERTEX
  8
0
 10
469.645256
 20
441.806604
 42
0.032202
  0
VERTEX
  8
0
 10
465.962334
 20
446.333454
 42
0.032424
  0
VERTEX
  8
0
 10
461.800510
 20
450.278192
 42
0.058655
  0
VERTEX
  8
0
 10
457.870350
 20
452.834183
 42
0.000000
  0
VERTEX
  8
0
 10
453.854801
 20
454.820918
 42
0.000000
  0
VERTEX
  8
0
 10
460.177401
 20
458.301319
 42
-0.001886
  0
VERTEX
  8
0
 10
467.078899
 20
462.066536
 42
-0.013269
  0
VERTEX
  8
0
 10
470.493045
 20
463.797046
 42
-0.027361
  0
VERTEX
  8
0
 10
472.639853
 20
464.674185
 42
-0.077652
  0
VERTEX
  8
0
 10
474.226746
 20
464.959962
 42
-0.163805
  0
VERTEX
  8
0
 10
475.134450
 20
464.677641
 42
-0.024346
  0
VERTEX
  8
0
 10
476.651546
 20
463.463439
 42
-0.025250
  0
VERTEX
  8
0
 10
478.359085
 20
461.793979
 42
-0.019325
  0
SEQEND
  0
POLYLINE
  8
0
 66
1
 70
1
  0
VERTEX
  8
0
 10
77.789838
 20
439.075642
 42
-0.058835
  0
VERTEX
  8
0
 10
80.839925
 20
437.006791
 42
-0.012866
  0
VERTEX
  8
0
 10
85.535764
 20
432.725315
 42
-0.011047
  0
VERTEX
  8
0
 10
91.505187
 20
426.735557
 42
-0.005177
  0
VERTEX
  8
0
 10
98.974925
 20
418.737438
 42
0.000000
  0
VERTEX
  8
0
 10
102.416685
 20
414.974876
 42
0.000000
  0
VERTEX
  8
0
 10
97.792274
 20
410.737438
 42
0.015321
  0
VERTEX
  8
0
 10
93.546173
 20
406.600333
 42
0.007585
  0
VERTEX
  8
0
 10
88.402276
 20
401.107341
 42
0.007444
  0
VERTEX
  8
0
 10
83.550083
 20
395.603235
 42
0.020621
  0
VERTEX
  8
0
 10
80.359661
 20
391.546363
 42
0.000000
  0
VERTEX
  8
0
 10
78.227889
 20
388.592727
 42
0.000000
  0
VERTEX
  8
0
 10
74.557619
 20
391.815267
 42
0.033984
  0
VERTEX
  8
0
 10
72.829210
 20
393.136290
 42
0.021679
  0
VERTEX
  8
0
 10
70.660161
 20
394.440308
 42
0.021768
  0
VERTEX
  8
0
 10
68.411476
 20
395.538817
 42
0.037403
  0
VERTEX
  8
0
 10
66.443674
 20
396.226308
 42
-0.014087
  0
VERTEX
  8
0
 10
64.740674
 20
396.733603
 42
-0.021802
  0
VERTEX
  8
0
 10
63.305329
 20
397.275974
 42
-0.017583
  0
VERTEX
  8
0
 10
62.205523
 20
397.793799
 42
-0.280959
  0
VERTEX
  8
0
 10
62.000000
 20
398.130680
 42
-0.185123
  0
VERTEX
  8
0
 10
62.713731
 20
399.992339
 42
-0.028796
  0
VERTEX
  8
0
 10
65.564955
 20
402.818693
 42
-0.032074
  0
VERTEX
  8
0
 10
69.111632
 20
405.567396
 42
-0.044730
  0
VERTEX
  8
0
 10
72.621512
 20
407.511319
 42
0.047474
  0
VERTEX
  8
0
 10
76.335161
 20
409.594750
 42
0.124030
  0
VERTEX
  8
0
 10
78.333611
 20
411.883182
 42
0.143939
  0
VERTEX
  8
0
 10
78.845625
 20
414.617008
 42
0.073112
  0
VERTEX
  8
0
 10
77.983573
 20
418.039659
 42
0.101041
  0
VERTEX
  8
0
 10
75.210051
 20
422.145507
 42
0.049932
  0
VERTEX
  8
0
 10
70.277763
 20
426.097649
 42
0.047845
  0
VERTEX
  8
0
 10
64.280135
 20
429.221004
 42
0.060118
  0
VERTEX
  8
0
 10
58.236686
 20
430.857279
 42
0.000000
  0
VERTEX
  8
0
 10
53.814266
 20
431.500000
 42
0.000000
  0
VERTEX
  8
0
 10
56.068436
 20
434.362792
 42
-0.085037
  0
VERTEX
  8
0
 10
60.553998
 20
438.410398
 42
-0.087925
  0
VERTEX
  8
0
 10
66.080819
 20
440.676124
 42
-0.088018
  0
VERTEX
  8
0
 10
72.044617
 20
440.903288
 42
-0.085447
  0
SEQEND
  0
POLYLINE
  8
0
 66
1
 70
1
  0
VERTEX
  8
0
 10
449.930544
 20
439.535917
 42
-0.038500
  0
VERTEX
  8
0
 10
451.212399
 20
438.742557
 42
-0.018144
  0
VERTEX
  8
0
 10
452.742464
 20
437.536670
 42
-0.017859
  0
VERTEX
  8
0
 10
454.261380
 20
436.151271
 42
-0.024008
  0
VERTEX
  8
0
 10
455.527275
 20
434.785917
 42
0.000000
  0
VERTEX
  8
0
 10
458.292782
 20
431.500000
 42
0.000000
  0
VERTEX
  8
0
 10
453.816838
 20
430.857279
 42
0.043960
  0
VERTEX
  8
0
 10
449.602211
 20
429.868304
 42
0.037034
  0
VERTEX
  8
0
 10
445.365244
 20
428.114877
 42
0.036075
  0
VERTEX
  8
0
 10
441.320004
 20
425.698100
 42
0.036387
  0
VERTEX
  8
0
 10
437.676498
 20
422.731229
 42
0.075406
  0
VERTEX
  8
0
 10
434.103722
 20
418.166851
 42
0.162250
  0
VERTEX
  8
0
 10
433.261831
 20
413.833990
 42
0.177803
  0
VERTEX
  8
0
 10
435.196655
 20
410.133021
 42
0.093357
  0
VERTEX
  8
0
 10
439.680364
 20
407.377968
 42
-0.060855
  0
VERTEX
  8
0
 10
442.790445
 20
405.733564
 42
-0.030124
  0
VERTEX
  8
0
 10
446.301239
 20
402.962620
 42
-0.025583
  0
VERTEX
  8
0
 10
449.286388
 20
400.012205
 42
-0.187164
  0
VERTEX
  8
0
 10
450.000000
 20
398.172609
 42
-0.277024
  0
VERTEX
  8
0
 10
449.787043
 20
397.817740
 42
-0.019248
  0
VERTEX
  8
0
 10
448.694671
 20
397.288291
 42
-0.022963
  0
VERTEX
  8
0
 10
447.259259
 20
396.736648
 42
-0.014913
  0
VERTEX
  8
0
 10
445.556326
 20
396.226308
 42
0.037614
  0
VERTEX
  8
0
 10
443.586694
 20
395.537249
 42
0.021767
  0
VERTEX
  8
0
 10
441.332098
 20
394.433511
 42
0.021667
  0
VERTEX
  8
0
 10
439.154615
 20
393.122016
 42
0.033787
  0
VERTEX
  8
0
 10
437.416030
 20
391.792129
 42
0.000000
  0
VERTEX
  8
0
 10
433.719408
 20
388.546452
 42
0.000000
  0
VERTEX
  8
0
 10
429.115702
 20
394.023226
 42
0.006888
  0
VERTEX
  8
0
 10
426.835096
 20
396.661671
 42
0.002880
  0
VERTEX
  8
0
 10
423.692771
 20
400.156636
 42
0.002849
  0
VERTEX
  8
0
 10
420.286829
 20
403.858589
 42
0.003692
  0
VERTEX
  8
0
 10
417.119438
 20
407.212129
 42
0.000000
  0
VERTEX
  8
0
 10
409.726880
 20
414.924258
 42
0.000000
  0
VERTEX
  8
0
 10
415.782448
 20
421.712129
 42
-0.008170
  0
VERTEX
  8
0
 10
421.702304
 20
428.133516
 42
-0.013508
  0
VERTEX
  8
0
 10
426.930924
 20
433.333580
 42
-0.015323
  0
VERTEX
  8
0
 10
431.334637
 20
437.235075
 42
-0.052961
  0
VERTEX
  8
0
 10
434.500000
 20
439.347745
 42
-0.077282
  0
VERTEX
  8
0
 10
437.857689
 20
440.492036
 42
-0.040523
  0
VERTEX
  8
0
 10
442.262330
 20
440.903720
 42
-0.040581
  0
VERTEX
  8
0
 10
446.646627
 20
440.601060
 42
-0.081985
  0
SEQEND
  0
POLYLINE
  8
0
 66
1
 70
1
  0
VERTEX
  8
0
 10
299.308295
 20
202.072886
 42
-0.112670
  0
VERTEX
  8
0
 10
301.483881
 20
200.623402
 42
-0.041608
  0
VERTEX
  8
0
 10
303.802198
 20
197.730135
 42
-0.040619
  0
VERTEX
  8
0
 10
305.568597
 20
194.580809
 42
-0.157989
  0
VERTEX
  8
0
 10
305.825281
 20
192.388957
 42
-0.192059
  0
VERTEX
  8
0
 10
305.276574
 20
191.544667
 42
-0.029661
  0
VERTEX
  8
0
 10
303.546442
 20
190.470326
 42
-0.026301
  0
VERTEX
  8
0
 10
301.060914
 20
189.288648
 42
-0.013040
  0
VERTEX
  8
0
 10
297.798601
 20
188.041578
 42
0.007645
  0
VERTEX
  8
0
 10
294.718156
 20
186.901965
 42
0.008933
  0
VERTEX
  8
0
 10
291.831148
 20
185.723709
 42
0.008062
  0
VERTEX
  8
0
 10
289.429941
 20
184.647137
 42
0.052558
  0
VERTEX
  8
0
 10
288.298601
 20
183.964943
 42
0.034973
  0
VERTEX
  8
0
 10
283.154434
 20
179.475349
 42
0.047574
  0
VERTEX
  8
0
 10
279.243961
 20
174.720354
 42
0.047489
  0
VERTEX
  8
0
 10
276.297798
 20
169.305114
 42
0.034676
  0
VERTEX
  8
0
 10
274.051112
 20
162.831194
 42
-0.033522
  0
VERTEX
  8
0
 10
273.245193
 20
160.491507
 42
-0.045845
  0
VERTEX
  8
0
 10
272.196221
 20
158.526644
 42
-0.045539
  0
VERTEX
  8
0
 10
270.800757
 20
156.776120
 42
-0.032467
  0
VERTEX
  8
0
 10
268.951410
 20
155.081194
 42
-0.006627
  0
VERTEX
  8
0
 10
267.441781
 20
153.900607
 42
-0.009690
  0
VERTEX
  8
0
 10
266.079453
 20
152.905101
 42
-0.005623
  0
VERTEX
  8
0
 10
264.916090
 20
152.108459
 42
-0.148372
  0
VERTEX
  8
0
 10
264.558638
 20
152.000000
 42
-0.402530
  0
VERTEX
  8
0
 10
264.331309
 20
152.218402
 42
-0.001214
  0
VERTEX
  8
0
 10
264.164100
 20
156.660385
 42
-0.005500
  0
VERTEX
  8
0
 10
264.040149
 20
161.781710
 42
-0.003300
  0
VERTEX
  8
0
 10
264.000000
 20
167.865141
 42
0.003023
  0
VERTEX
  8
0
 10
263.942657
 20
177.350646
 42
0.024874
  0
VERTEX
  8
0
 10
263.675821
 20
181.660891
 42
0.057106
  0
VERTEX
  8
0
 10
263.074242
 20
184.281423
 42
0.081876
  0
VERTEX
  8
0
 10
261.927420
 20
186.365141
 42
0.117991
  0
VERTEX
  8
0
 10
259.327495
 20
188.422339
 42
0.109051
  0
VERTEX
  8
0
 10
256.000000
 20
189.156810
 42
0.109051
  0
VERTEX
  8
0
 10
252.672505
 20
188.422339
 42
0.117991
  0
VERTEX
  8
0
 10
250.072580
 20
186.365141
 42
0.083324
  0
VERTEX
  8
0
 10
248.922154
 20
184.260567
 42
0.056489
  0
VERTEX
  8
0
 10
248.321620
 20
181.589251
 42
0.024216
  0
VERTEX
  8
0
 10
248.056372
 20
177.162812
 42
0.002857
  0
VERTEX
  8
0
 10
248.000000
 20
167.298192
 42
0.000000
  0
VERTEX
  8
0
 10
248.000000
 20
150.866101
 42
0.000000
  0
VERTEX
  8
0
 10
243.580963
 20
154.487169
 42
-0.027661
  0
VERTEX
  8
0
 10
241.196337
 20
156.672349
 42
-0.054082
  0
VERTEX
  8
0
 10
239.606528
 20
158.697073
 42
-0.048034
  0
VERTEX
  8
0
 10
238.375842
 20
161.171117
 42
-0.017681
  0
VERTEX
  8
0
 10
237.109876
 20
164.864168
 42
0.049320
  0
VERTEX
  8
0
 10
233.708029
 20
173.059643
 42
0.072074
  0
VERTEX
  8
0
 10
229.074282
 20
179.336734
 42
0.069849
  0
VERTEX
  8
0
 10
222.731792
 20
184.173532
 42
0.043277
  0
VERTEX
  8
0
 10
214.184265
 20
188.047626
 42
-0.013079
  0
VERTEX
  8
0
 10
210.930139
 20
189.291858
 42
-0.026340
  0
VERTEX
  8
0
 10
208.449706
 20
190.471827
 42
-0.029707
  0
VERTEX
  8
0
 10
206.722842
 20
191.545107
 42
-0.191930
  0
VERTEX
  8
0
 10
206.174719
 20
192.388957
 42
-0.157078
  0
VERTEX
  8
0
 10
206.417504
 20
194.494526
 42
-0.036561
  0
VERTEX
  8
0
 10
208.144288
 20
197.659146
 42
-0.037771
  0
VERTEX
  8
0
 10
210.364127
 20
200.590768
 42
-0.116345
  0
VERTEX
  8
0
 10
212.381551
 20
202.017502
 42
-0.095511
  0
VERTEX
  8
0
 10
216.625294
 20
202.848869
 42
-0.000593
  0
VERTEX
  8
0
 10
255.780920
 20
202.920281
 42
-0.000622
  0
VERTEX
  8
0
 10
294.847441
 20
202.896552
 42
-0.090614
  0
SEQEND
  0
POLYLINE
  8
0
 66
1
 70
1
  0
VERTEX
  8
0
 10
209.000000
 20
70.496397
 42
0.007789
  0
VERTEX
  8
0
 10
211.484581
 20
70.803509
 42
0.004701
  0
VERTEX
  8
0
 10
214.419152
 20
71.240915
 42
0.004708
  0
VERTEX
  8
0
 10
217.327069
 20
71.730454
 42
0.008229
  0
VERTEX
  8
0
 10
219.724772
 20
72.198188
 42
-0.015437
  0
VERTEX
  8
0
 10
222.926784
 20
72.775042
 42
-0.078164
  0
VERTEX
  8
0
 10
224.735777
 20
72.759408
 42
-0.087794
  0
VERTEX
  8
0
 10
226.353130
 20
72.187669
 42
-0.022235
  0
VERTEX
  8
0
 10
228.724772
 20
70.702774
 42
0.017251
  0
VERTEX
  8
0
 10
230.592358
 20
69.507406
 42
0.007472
  0
VERTEX
  8
0
 10
233.153527
 20
68.041271
 42
0.007384
  0
VERTEX
  8
0
 10
235.926478
 20
66.561489
 42
0.009727
  0
VERTEX
  8
0
 10
238.500000
 20
65.299290
 42
0.022498
  0
VERTEX
  8
0
 10
242.284118
 20
63.736983
 42
0.047019
  0
VERTEX
  8
0
 10
245.367037
 20
62.941289
 42
0.033120
  0
VERTEX
  8
0
 10
249.163372
 20
62.589508
 42
0.006546
  0
VERTEX
  8
0
 10
256.000000
 20
62.500000
 42
0.006529
  0
VERTEX
  8
0
 10
262.833840
 20
62.589235
 42
0.033099
  0
VERTEX
  8
0
 10
266.625575
 20
62.940166
 42
0.047161
  0
VERTEX
  8
0
 10
269.698206
 20
63.733628
 42
0.022747
  0
VERTEX
  8
0
 10
273.457808
 20
65.289814
 42
0.011826
  0
VERTEX
  8
0
 10
275.990103
 20
66.549448
 42
0.009310
  0
VERTEX
  8
0
 10
278.673092
 20
68.028640
 42
0.009433
  0
VERTEX
  8
0
 10
281.115723
 20
69.497282
 42
0.022853
  0
VERTEX
  8
0
 10
282.845682
 20
70.695867
 42
-0.026021
  0
VERTEX
  8
0
 10
285.072475
 20
72.217903
 42
-0.099117
  0
VERTEX
  8
0
 10
286.645915
 20
72.792170
 42
-0.074126
  0
VERTEX
  8
0
 10
288.544869
 20
72.800493
 42
-0.010634
  0
VERTEX
  8
0
 10
292.387875
 20
72.161108
 42
0.011048
  0
VERTEX
  8
0
 10
299.923094
 20
70.913835
 42
0.026239
  0
VERTEX
  8
0
 10
305.580358
 20
70.406287
 42
0.030860
  0
VERTEX
  8
0
 10
310.676806
 20
70.532139
 42
0.022115
  0
VERTEX
  8
0
 10
316.329168
 20
71.274625
 42
0.000000
  0
VERTEX
  8
0
 10
324.158336
 20
72.657540
 42
0.000000
  0
VERTEX
  8
0
 10
323.535323
 20
69.078770
 42
-0.053484
  0
VERTEX
  8
0
 10
322.057565
 20
63.924655
 42
-0.032208
  0
VERTEX
  8
0
 10
319.285899
 20
58.193938
 42
-0.032039
  0
VERTEX
  8
0
 10
315.764794
 20
52.807051
 42
-0.048914
  0
VERTEX
  8
0
 10
311.999465
 20
48.689427
 42
-0.030040
  0
VERTEX
  8
0
 10
307.508722
 20
45.115157
 42
-0.038607
  0
VERTEX
  8
0
 10
302.969715
 20
42.425033
 42
-0.038635
  0
VERTEX
  8
0
 10
298.073854
 20
40.466129
 42
-0.030153
  0
VERTEX
  8
0
 10
292.512011
 20
39.086853
 42
-0.042802
  0
VERTEX
  8
0
 10
283.290182
 20
38.187238
 42
-0.002845
  0
VERTEX
  8
0
 10
256.657069
 20
38.027360
 42
-0.003101
  0
VERTEX
  8
0
 10
230.197072
 20
38.183229
 42
-0.037204
  0
VERTEX
  8
0
 10
220.033629
 20
39.064237
 42
-0.076873
  0
VERTEX
  8
0
 10
209.020240
 20
42.644254
 42
-0.073337
  0
VERTEX
  8
0
 10
199.403142
 20
49.425306
 42
-0.074481
  0
VERTEX
  8
0
 10
192.272901
 20
58.583102
 42
-0.083641
  0
VERTEX
  8
0
 10
188.489496
 20
69.078770
 42
0.000000
  0
VERTEX
  8
0
 10
187.841664
 20
72.657540
 42
0.000000
  0
VERTEX
  8
0
 10
195.670832
 20
71.280463
 42
0.015915
  0
VERTEX
  8
0
 10
199.113017
 20
70.787369
 42
0.012926
  0
VERTEX
  8
0
 10
202.827312
 20
70.472368
 42
0.013232
  0
VERTEX
  8
0
 10
206.312463
 20
70.359785
 42
0.028316
  0
SEQEND
  0
POLYLINE
  8
0
 66
1
 70
1
  0
VERTEX
  8
0
 10
238.500000
 20
438.388132
 42
0.032345
  0
VERTEX
  8
0
 10
216.015243
 20
433.582679
 42
0.037671
  0
VERTEX
  8
0
 10
195.495752
 20
426.080200
 42
0.039457
  0
VERTEX
  8
0
 10
177.176265
 20
415.959968
 42
0.043120
  0
VERTEX
  8
0
 10
161.250000
 20
403.348366
 42
0.009689
  0
VERTEX
  8
0
 10
157.808738
 20
399.975698
 42
0.047928
  0
VERTEX
  8
0
 10
156.104211
 20
397.869176
 42
0.080967
  0
VERTEX
  8
0
 10
155.280984
 20
396.040213
 42
0.065434
  0
VERTEX
  8
0
 10
155.000000
 20
393.902309
 42
0.041938
  0
VERTEX
  8
0
 10
155.146593
 20
392.157661
 42
0.057395
  0
VERTEX
  8
0
 10
155.585359
 20
390.645024
 42
0.058627
  0
VERTEX
  8
0
 10
156.347324
 20
389.295838
 42
0.046379
  0
VERTEX
  8
0
 10
157.457933
 20
388.039520
 42
0.106355
  0
VERTEX
  8
0
 10
159.826414
 20
386.612443
 42
0.096749
  0
VERTEX
  8
0
 10
162.656504
 20
386.220930
 42
0.029506
  0
VERTEX
  8
0
 10
167.629299
 20
386.792435
 42
0.001813
  0
VERTEX
  8
0
 10
182.305145
 20
389.418215
 42
-0.009537
  0
VERTEX
  8
0
 10
200.869502
 20
392.444589
 42
-0.015490
  0
VERTEX
  8
0
 10
216.748102
 20
394.223214
 42
-0.014090
  0
VERTEX
  8
0
 10
233.727268
 20
395.113618
 42
-0.006379
  0
VERTEX
  8
0
 10
256.000000
 20
395.368795
 42
-0.007527
  0
VERTEX
  8
0
 10
278.802163
 20
394.995821
 42
-0.013626
  0
VERTEX
  8
0
 10
297.433693
 20
393.901640
 42
-0.014473
  0
VERTEX
  8
0
 10
315.198240
 20
391.852266
 42
-0.009926
  0
VERTEX
  8
0
 10
335.219384
 20
388.546201
 42
0.002821
  0
VERTEX
  8
0
 10
346.286260
 20
386.556802
 42
0.040122
  0
VERTEX
  8
0
 10
350.282741
 20
386.188004
 42
0.117138
  0
VERTEX
  8
0
 10
352.672374
 20
386.725870
 42
0.090748
  0
VERTEX
  8
0
 10
354.825686
 20
388.314451
 42
0.099416
  0
VERTEX
  8
0
 10
356.753220
 20
391.416363
 42
0.144763
  0
VERTEX
  8
0
 10
356.977949
 20
394.607913
 42
0.106500
  0
VERTEX
  8
0
 10
355.368771
 20
398.121909
 42
0.039101
  0
VERTEX
  8
0
 10
351.750000
 20
402.249599
 42
0.039458
  0
VERTEX
  8
0
 10
338.105018
 20
413.602495
 42
0.034730
  0
VERTEX
  8
0
 10
322.269320
 20
423.217007
 42
0.033758
  0
VERTEX
  8
0
 10
304.779300
 20
430.792338
 42
0.032453
  0
VERTEX
  8
0
 10
286.198995
 20
436.061961
 42
0.016558
  0
VERTEX
  8
0
 10
280.657767
 20
437.060907
 42
0.014086
  0
VERTEX
  8
0
 10
274.755519
 20
437.755098
 42
0.011571
  0
VERTEX
  8
0
 10
267.810554
 20
438.212501
 42
0.005766
  0
VERTEX
  8
0
 10
259.000000
 20
438.486539
 42
0.002633
  0
VERTEX
  8
0
 10
252.078635
 20
438.585496
 42
0.003458
  0
VERTEX
  8
0
 10
245.759375
 20
438.598863
 42
0.002534
  0
VERTEX
  8
0
 10
240.467005
 20
438.546639
 42
0.032749
  0
SEQEND
  0
POLYLINE
  8
0
 66
1
 70
1
  0
VERTEX
  8
0
 10
243.198853
 20
380.531980
 42
0.048352
  0
VERTEX
  8
0
 10
232.553347
 20
377.463985
 42
0.045482
  0
VERTEX
  8
0
 10
222.461200
 20
372.361324
 42
0.046746
  0
VERTEX
  8
0
 10
213.733318
 20
365.692548
 42
0.059107
  0
VERTEX
  8
0
 10
207.142353
 20
357.975318
 42
0.031529
  0
VERTEX
  8
0
 10
204.236822
 20
352.967502
 42
0.086755
  0
VERTEX
  8
0
 10
203.074874
 20
349.068350
 42
0.125058
  0
VERTEX
  8
0
 10
203.499209
 20
345.879207
 42
0.109308
  0
VERTEX
  8
0
 10
205.400092
 20
343.093859
 42
0.107848
  0
VERTEX
  8
0
 10
207.622990
 20
341.763430
 42
0.049636
  0
VERTEX
  8
0
 10
210.928478
 20
341.005950
 42
0.018456
  0
VERTEX
  8
0
 10
216.878950
 20
340.473923
 42
0.001652
  0
VERTEX
  8
0
 10
231.862223
 20
339.739747
 42
0.010434
  0
VERTEX
  8
0
 10
255.949871
 20
339.142542
 42
0.011114
  0
VERTEX
  8
0
 10
279.539536
 20
339.574438
 42
0.006450
  0
VERTEX
  8
0
 10
300.279561
 20
340.683698
 42
0.144274
  0
VERTEX
  8
0
 10
305.865012
 20
342.740944
 42
0.118330
  0
VERTEX
  8
0
 10
308.382657
 20
345.755862
 42
0.149524
  0
VERTEX
  8
0
 10
308.970517
 20
349.322687
 42
0.097020
  0
VERTEX
  8
0
 10
307.455136
 20
353.791440
 42
0.031512
  0
VERTEX
  8
0
 10
303.595534
 20
359.639300
 42
0.037053
  0
VERTEX
  8
0
 10
297.375161
 20
366.725096
 42
0.072238
  0
VERTEX
  8
0
 10
291.320108
 20
371.158946
 42
0.103752
  0
VERTEX
  8
0
 10
285.848581
 20
372.738580
 42
0.173023
  0
VERTEX
  8
0
 10
281.276925
 20
371.481412
 42
-0.072781
  0
VERTEX
  8
0
 10
279.793830
 20
370.736044
 42
-0.093584
  0
VERTEX
  8
0
 10
278.284286
 20
370.532888
 42
-0.047463
  0
VERTEX
  8
0
 10
276.121352
 20
370.854704
 42
-0.006943
  0
VERTEX
  8
0
 10
271.824518
 20
371.981412
 42
0.007280
  0
VERTEX
  8
0
 10
268.869226
 20
372.754216
 42
0.008250
  0
VERTEX
  8
0
 10
266.013126
 20
373.407040
 42
0.007618
  0
VERTEX
  8
0
 10
263.572551
 20
373.883945
 42
0.044464
  0
VERTEX
  8
0
 10
262.270099
 20
374.000000
 42
-0.057731
  0
VERTEX
  8
0
 10
261.391440
 20
374.101791
 42
-0.079794
  0
VERTEX
  8
0
 10
260.658522
 20
374.402991
 42
-0.099632
  0
VERTEX
  8
0
 10
260.172964
 20
374.853323
 42
-0.157383
  0
VERTEX
  8
0
 10
260.000000
 20
375.389216
 42
0.138357
  0
VERTEX
  8
0
 10
259.477760
 20
377.240384
 42
0.067868
  0
VERTEX
  8
0
 10
257.914460
 20
379.152123
 42
0.064326
  0
VERTEX
  8
0
 10
255.767118
 20
380.689450
 42
0.086348
  0
VERTEX
  8
0
 10
253.500000
 20
381.442233
 42
0.047232
  0
VERTEX
  8
0
 10
251.877638
 20
381.529809
 42
0.011918
  0
VERTEX
  8
0
 10
249.236538
 20
381.359752
 42
0.012055
  0
VERTEX
  8
0
 10
246.214138
 20
381.019074
 42
0.011904
  0
SEQEND
  0
POLYLINE
  8
0
 66
1
 70
1
  0
VERTEX
  8
0
 10
250.454545
 20
312.545455
 42
0.000000
  0
VERTEX
  8
0
 10
248.000000
 20
310.090909
 42
0.000000
  0
VERTEX
  8
0
 10
248.000000
 20
285.513336
 42
0.004627
  0
VERTEX
  8
0
 10
248.163620
 20
267.832581
 42
0.037332
  0
VERTEX
  8
0
 10
248.918356
 20
259.752588
 42
0.099501
  0
VERTEX
  8
0
 10
250.541498
 20
255.519071
 42
0.192430
  0
VERTEX
  8
0
 10
253.434102
 20
253.427183
 42
0.065848
  0
VERTEX
  8
0
 10
256.497879
 20
253.075153
 42
0.103178
  0
VERTEX
  8
0
 10
259.075404
 20
253.658946
 42
0.108478
  0
VERTEX
  8
0
 10
261.116750
 20
255.193063
 42
0.078770
  0
VERTEX
  8
0
 10
262.614269
 20
257.619242
 42
0.070409
  0
VERTEX
  8
0
 10
263.372099
 20
260.524118
 42
0.018293
  0
VERTEX
  8
0
 10
263.749510
 20
265.351242
 42
0.011047
  0
VERTEX
  8
0
 10
263.895714
 20
272.905395
 42
0.002297
  0
VERTEX
  8
0
 10
263.798371
 20
286.173476
 42
0.001253
  0
VERTEX
  8
0
 10
263.559571
 20
302.712845
 42
0.020385
  0
VERTEX
  8
0
 10
263.239170
 20
308.258738
 42
0.068213
  0
VERTEX
  8
0
 10
262.544095
 20
311.165861
 42
0.130639
  0
VERTEX
  8
0
 10
261.139216
 20
313.089826
 42
0.087589
  0
VERTEX
  8
0
 10
258.537557
 20
314.529920
 42
0.095721
  0
VERTEX
  8
0
 10
255.681306
 20
314.932299
 42
0.095894
  0
VERTEX
  8
0
 10
252.884855
 20
314.241710
 42
0.088250
  0
SEQEND
  0
POLYLINE
  8
0
 66
1
 70
1
  0
VERTEX
  8
0
 10
155.454545
 20
305.545455
 42
0.077348
  0
VERTEX
  8
0
 10
154.037250
 20
303.605710
 42
0.084607
  0
VERTEX
  8
0
 10
153.331325
 20
301.385197
 42
0.032071
  0
VERTEX
  8
0
 10
153.051947
 20
297.660873
 42
0.002689
  0
VERTEX
  8
0
 10
153.000000
 20
288.000000
 42
0.002689
  0
VERTEX
  8
0
 10
153.051947
 20
278.339127
 42
0.032071
  0
VERTEX
  8
0
 10
153.331325
 20
274.614803
 42
0.084607
  0
VERTEX
  8
0
 10
154.037250
 20
272.394290
 42
0.077348
  0
VERTEX
  8
0
 10
155.454545
 20
270.454545
 42
0.088247
  0
VERTEX
  8
0
 10
157.884681
 20
268.758393
 42
0.095878
  0
VERTEX
  8
0
 10
160.681044
 20
268.067703
 42
0.095702
  0
VERTEX
  8
0
 10
163.537343
 20
268.469771
 42
0.087576
  0
VERTEX
  8
0
 10
166.139216
 20
269.909397
 42
0.101145
  0
VERTEX
  8
0
 10
167.498843
 20
271.559748
 42
0.084019
  0
VERTEX
  8
0
 10
168.215431
 20
273.723120
 42
0.030328
  0
VERTEX
  8
0
 10
168.566667
 20
277.547628
 42
0.002597
  0
VERTEX
  8
0
 10
168.820035
 20
287.384816
 42
0.002352
  0
VERTEX
  8
0
 10
168.982471
 20
297.630792
 42
0.033115
  0
VERTEX
  8
0
 10
168.780196
 20
301.300959
 42
0.092574
  0
VERTEX
  8
0
 10
168.090007
 20
303.486503
 42
0.073856
  0
VERTEX
  8
0
 10
166.615489
 20
305.475420
 42
0.088180
  0
VERTEX
  8
0
 10
163.966640
 20
307.324752
 42
0.107237
  0
VERTEX
  8
0
 10
161.019498
 20
307.983578
 42
0.108015
  0
VERTEX
  8
0
 10
158.080703
 20
307.360509
 42
0.090566
  0
SEQEND
  0
POLYLINE
  8
0
 66
1
 70
1
  0
VERTEX
  8
0
 10
345.454545
 20
305.545455
 42
0.077348
  0
VERTEX
  8
0
 10
344.037250
 20
303.605710
 42
0.084607
  0
VERTEX
  8
0
 10
343.331325
 20
301.385197
 42
0.032071
  0
VERTEX
  8
0
 10
343.051947
 20
297.660873
 42
0.002689
  0
VERTEX
  8
0
 10
343.000000
 20
288.000000
 42
0.002689
  0
VERTEX
  8
0
 10
343.051947
 20
278.339127
 42
0.032071
  0
VERTEX
  8
0
 10
343.331325
 20
274.614803
 42
0.084607
  0
VERTEX
  8
0
 10
344.037250
 20
272.394290
 42
0.077348
  0
VERTEX
  8
0
 10
345.454545
 20
270.454545
 42
0.088255
  0
VERTEX
  8
0
 10
347.885184
 20
268.758095
 42
0.095924
  0
VERTEX
  8
0
 10
350.681802
 20
268.067696
 42
0.095756
  0
VERTEX
  8
0
 10
353.537963
 20
268.470666
 42
0.087615
  0
VERTEX
  8
0
 10
356.139216
 20
269.911647
 42
0.102294
  0
VERTEX
  8
0
 10
357.502330
 20
271.575874
 42
0.088379
  0
VERTEX
  8
0
 10
358.183972
 20
273.732893
 42
0.030152
  0
VERTEX
  8
0
 10
358.452049
 20
277.584242
 42
0.002302
  0
VERTEX
  8
0
 10
358.500000
 20
288.000000
 42
0.002302
  0
VERTEX
  8
0
 10
358.452049
 20
298.415758
 42
0.030152
  0
VERTEX
  8
0
 10
358.183972
 20
302.267107
 42
0.088379
  0
VERTEX
  8
0
 10
357.502330
 20
304.424126
 42
0.102294
  0
VERTEX
  8
0
 10
356.139216
 20
306.088353
 42
0.087615
  0
VERTEX
  8
0
 10
353.537963
 20
307.529334
 42
0.095756
  0
VERTEX
  8
0
 10
350.681802
 20
307.932304
 42
0.095924
  0
VERTEX
  8
0
 10
347.885184
 20
307.241905
 42
0.088255
  0
SEQEND
  0
POLYLINE
  8
0
 66
1
 70
1
  0
VERTEX
  8
0
 10
318.308297
 20
266.981083
 42
0.093750
  0
VERTEX
  8
0
 10
316.107773
 20
265.582358
 42
0.074631
  0
VERTEX
  8
0
 10
314.360245
 20
263.370454
 42
0.077099
  0
VERTEX
  8
0
 10
313.384077
 20
260.821732
 42
0.114947
  0
VERTEX
  8
0
 10
313.424525
 20
258.444696
 42
0.081309
  0
VERTEX
  8
0
 10
314.014423
 20
257.080620
 42
0.014989
  0
VERTEX
  8
0
 10
315.567700
 20
254.812170
 42
0.015738
  0
VERTEX
  8
0
 10
317.567929
 20
252.244750
 42
0.013757
  0
VERTEX
  8
0
 10
319.814700
 20
249.687410
 42
-0.023663
  0
VERTEX
  8
0
 10
327.531024
 20
240.545529
 42
-0.024146
  0
VERTEX
  8
0
 10
334.293669
 20
230.775022
 42
-0.024485
  0
VERTEX
  8
0
 10
339.995695
 20
220.537810
 42
-0.026065
  0
VERTEX
  8
0
 10
344.539655
 20
210.000000
 42
0.013863
  0
VERTEX
  8
0
 10
345.747218
 20
207.000365
 42
0.015585
  0
VERTEX
  8
0
 10
347.076265
 20
204.189063
 42
0.014974
  0
VERTEX
  8
0
 10
348.346880
 20
201.878211
 42
0.076886
  0
VERTEX
  8
0
 10
349.270738
 20
200.750000
 42
0.139893
  0
VERTEX
  8
0
 10
352.497387
 20
199.178586
 42
0.117684
  0
VERTEX
  8
0
 10
356.305494
 20
199.403794
 42
0.118042
  0
VERTEX
  8
0
 10
359.592726
 20
201.322587
 42
0.141315
  0
VERTEX
  8
0
 10
361.388151
 20
204.410381
 42
0.154465
  0
VERTEX
  8
0
 10
361.014038
 20
210.575909
 42
0.017546
  0
VERTEX
  8
0
 10
355.478813
 20
223.588004
 42
0.022016
  0
VERTEX
  8
0
 10
348.240961
 20
237.446101
 42
0.030319
  0
VERTEX
  8
0
 10
340.474991
 20
249.146798
 42
0.014452
  0
VERTEX
  8
0
 10
335.180783
 20
255.754525
 42
0.018878
  0
VERTEX
  8
0
 10
329.947461
 20
261.461452
 42
0.017928
  0
VERTEX
  8
0
 10
325.318236
 20
265.817968
 42
0.115129
  0
VERTEX
  8
0
 10
322.500000
 20
267.321028
 42
0.054436
  0
VERTEX
  8
0
 10
321.575310
 20
267.462620
 42
0.031035
  0
VERTEX
  8
0
 10
320.443687
 20
267.441262
 42
0.030650
  0
VERTEX
  8
0
 10
319.293757
 20
267.276628
 42
0.043971
  0
SEQEND
  0
POLYLINE
  8
0
 66
1
 70
1
  0
VERTEX
  8
0
 10
202.454545
 20
143.545455
 42
0.046014
  0
VERTEX
  8
0
 10
201.515146
 20
142.415182
 42
0.037190
  0
VERTEX
  8
0
 10
200.721023
 20
141.050852
 42
0.038507
  0
VERTEX
  8
0
 10
200.176081
 20
139.669695
 42
0.074846
  0
VERTEX
  8
0
 10
200.000000
 20
138.500000
 42
0.074846
  0
VERTEX
  8
0
 10
200.176081
 20
137.330305
 42
0.038507
  0
VERTEX
  8
0
 10
200.721023
 20
135.949148
 42
0.037190
  0
VERTEX
  8
0
 10
201.515146
 20
134.584818
 42
0.046014
  0
VERTEX
  8
0
 10
202.454545
 20
133.454545
 42
0.046014
  0
VERTEX
  8
0
 10
203.584818
 20
132.515146
 42
0.037190
  0
VERTEX
  8
0
 10
204.949148
 20
131.721023
 42
0.038507
  0
VERTEX
  8
0
 10
206.330305
 20
131.176081
 42
0.074846
  0
VERTEX
  8
0
 10
207.500000
 20
131.000000
 42
0.074846
  0
VERTEX
  8
0
 10
208.669695
 20
131.176081
 42
0.038507
  0
VERTEX
  8
0
 10
210.050852
 20
131.721023
 42
0.037190
  0
VERTEX
  8
0
 10
211.415182
 20
132.515146
 42
0.046014
  0
VERTEX
  8
0
 10
212.545455
 20
133.454545
 42
0.046014
  0
VERTEX
  8
0
 10
213.484854
 20
134.584818
 42
0.037190
  0
VERTEX
  8
0
 10
214.278977
 20
135.949148
 42
0.038507
  0
VERTEX
  8
0
 10
214.823919
 20
137.330305
 42
0.074846
  0
VERTEX
  8
0
 10
215.000000
 20
138.500000
 42
0.074846
  0
VERTEX
  8
0
 10
214.823919
 20
139.669695
 42
0.038507
  0
VERTEX
  8
0
 10
214.278977
 20
141.050852
 42
0.037190
  0
VERTEX
  8
0
 10
213.484854
 20
142.415182
 42
0.046014
  0
VERTEX
  8
0
 10
212.545455
 20
143.545455
 42
0.046014
  0
VERTEX
  8
0
 10
211.415182
 20
144.484854
 42
0.037190
  0
VERTEX
  8
0
 10
210.050852
 20
145.278977
 42
0.038507
  0
VERTEX
  8
0
 10
208.669695
 20
145.823919
 42
0.074846
  0
VERTEX
  8
0
 10
207.500000
 20
146.000000
 42
0.074846
  0
VERTEX
  8
0
 10
206.330305
 20
145.823919
 42
0.038507
  0
VERTEX
  8
0
 10
204.949148
 20
145.278977
 42
0.037190
  0
VERTEX
  8
0
 10
203.584818
 20
144.484854
 42
0.046014
  0
SEQEND
  0
POLYLINE
  8
0
 66
1
 70
1
  0
VERTEX
  8
0
 10
299.454545
 20
143.545455
 42
0.046014
  0
VERTEX
  8
0
 10
298.515146
 20
142.415182
 42
0.037190
  0
VERTEX
  8
0
 10
297.721023
 20
141.050852
 42
0.038507
  0
VERTEX
  8
0
 10
297.176081
 20
139.669695
 42
0.074846
  0
VERTEX
  8
0
 10
297.000000
 20
138.500000
 42
0.124838
  0
VERTEX
  8
0
 10
297.634163
 20
135.999638
 42
0.072280
  0
VERTEX
  8
0
 10
299.499708
 20
133.499708
 42
0.072280
  0
VERTEX
  8
0
 10
301.999638
 20
131.634163
 42
0.124838
  0
VERTEX
  8
0
 10
304.500000
 20
131.000000
 42
0.124838
  0
VERTEX
  8
0
 10
307.000362
 20
131.634163
 42
0.072280
  0
VERTEX
  8
0
 10
309.500292
 20
133.499708
 42
0.072280
  0
VERTEX
  8
0
 10
311.365837
 20
135.999638
 42
0.124838
  0
VERTEX
  8
0
 10
312.000000
 20
138.500000
 42
0.124838
  0
VERTEX
  8
0
 10
311.365837
 20
141.000362
 42
0.072280
  0
VERTEX
  8
0
 10
309.500292
 20
143.500292
 42
0.072280
  0
VERTEX
  8
0
 10
307.000362
 20
145.365837
 42
0.124838
  0
VERTEX
  8
0
 10
304.500000
 20
146.000000
 42
0.074846
  0
VERTEX
  8
0
 10
303.330305
 20
145.823919
 42
0.038507
  0
VERTEX
  8
0
 10
301.949148
 20
145.278977
 42
0.037190
  0
VERTEX
  8
0
 10
300.584818
 20
144.484854
 42
0.046014
  0
SEQEND
  0
POLYLINE
  8
0
 66
1
 70
1
  0
VERTEX
  8
0
 10
178.000000
 20
129.000000
 42
0.154545
  0
VERTEX
  8
0
 10
176.127684
 20
125.392479
 42
0.151604
  0
VERTEX
  8
0
 10
176.653560
 20
121.333651
 42
0.145910
  0
VERTEX
  8
0
 10
179.420024
 20
118.176490
 42
0.141300
  0
VERTEX
  8
0
 10
183.500000
 20
117.000000
 42
0.092814
  0
VERTEX
  8
0
 10
186.353961
 20
117.534381
 42
0.095471
  0
VERTEX
  8
0
 10
188.789424
 20
119.063204
 42
0.098712
  0
VERTEX
  8
0
 10
190.423774
 20
121.337650
 42
0.106979
  0
VERTEX
  8
0
 10
191.000000
 20
124.000000
 42
0.166560
  0
VERTEX
  8
0
 10
189.678546
 20
127.856846
 42
0.136703
  0
VERTEX
  8
0
 10
186.163856
 20
130.467656
 42
0.133493
  0
VERTEX
  8
0
 10
181.737124
 20
130.919671
 42
0.156699
  0
SEQEND
  0
POLYLINE
  8
0
 66
1
 70
1
  0
VERTEX
  8
0
 10
323.038955
 20
128.811439
 42
0.143344
  0
VERTEX
  8
0
 10
321.190943
 20
125.130404
 42
0.154616
  0
VERTEX
  8
0
 10
321.695747
 20
121.154056
 42
0.150901
  0
VERTEX
  8
0
 10
324.419709
 20
118.126251
 42
0.135478
  0
VERTEX
  8
0
 10
328.500000
 20
117.000000
 42
0.043767
  0
VERTEX
  8
0
 10
330.103975
 20
117.140671
 42
0.051597
  0
VERTEX
  8
0
 10
331.568912
 20
117.558840
 42
0.053916
  0
VERTEX
  8
0
 10
332.862978
 20
118.247233
 42
0.056098
  0
VERTEX
  8
0
 10
333.961045
 20
119.188561
 42
0.143344
  0
VERTEX
  8
0
 10
335.809057
 20
122.869596
 42
0.154616
  0
VERTEX
  8
0
 10
335.304253
 20
126.845944
 42
0.150901
  0
VERTEX
  8
0
 10
332.580291
 20
129.873749
 42
0.135478
  0
VERTEX
  8
0
 10
328.500000
 20
131.000000
 42
0.043767
  0
VERTEX
  8
0
 10
326.896025
 20
130.859329
 42
0.051597
  0
VERTEX
  8
0
 10
325.431088
 20
130.441160
 42
0.053916
  0
VERTEX
  8
0
 10
324.137022
 20
129.752767
 42
0.056098
  0
SEQEND
  0
POLYLINE
  8
0
 66
1
 70
1
  0
VERTEX
  8
0
 10
202.454545
 20
114.545455
 42
0.046014
  0
VERTEX
  8
0
 10
201.515146
 20
113.415182
 42
0.037190
  0
VERTEX
  8
0
 10
200.721023
 20
112.050852
 42
0.038507
  0
VERTEX
  8
0
 10
200.176081
 20
110.669695
 42
0.074846
  0
VERTEX
  8
0
 10
200.000000
 20
109.500000
 42
0.124838
  0
VERTEX
  8
0
 10
200.634163
 20
106.999638
 42
0.072280
  0
VERTEX
  8
0
 10
202.499708
 20
104.499708
 42
0.072280
  0
VERTEX
  8
0
 10
204.999638
 20
102.634163
 42
0.124838
  0
VERTEX
  8
0
 10
207.500000
 20
102.000000
 42
0.124838
  0
VERTEX
  8
0
 10
210.000362
 20
102.634163
 42
0.072280
  0
VERTEX
  8
0
 10
212.500292
 20
104.499708
 42
0.072280
  0
VERTEX
  8
0
 10
214.365837
 20
106.999638
 42
0.124838
  0
VERTEX
  8
0
 10
215.000000
 20
109.500000
 42
0.124838
  0
VERTEX
  8
0
 10
214.365837
 20
112.000362
 42
0.072280
  0
VERTEX
  8
0
 10
212.500292
 20
114.500292
 42
0.072280
  0
VERTEX
  8
0
 10
210.000362
 20
116.365837
 42
0.124838
  0
VERTEX
  8
0
 10
207.500000
 20
117.000000
 42
0.074846
  0
VERTEX
  8
0
 10
206.330305
 20
116.823919
 42
0.038507
  0
VERTEX
  8
0
 10
204.949148
 20
116.278977
 42
0.037190
  0
VERTEX
  8
0
 10
203.584818
 20
115.484854
 42
0.046014
  0
SEQEND
  0
POLYLINE
  8
0
 66
1
 70
1
  0
VERTEX
  8
0
 10
299.454545
 20
114.545455
 42
0.046014
  0
VERTEX
  8
0
 10
298.515146
 20
113.415182
 42
0.037190
  0
VERTEX
  8
0
 10
297.721023
 20
112.050852
 42
0.038507
  0
VERTEX
  8
0
 10
297.176081
 20
110.669695
 42
0.074846
  0
VERTEX
  8
0
 10
297.000000
 20
109.500000
 42
0.124838
  0
VERTEX
  8
0
 10
297.634163
 20
106.999638
 42
0.072280
  0
VERTEX
  8
0
 10
299.499708
 20
104.499708
 42
0.072280
  0
VERTEX
  8
0
 10
301.999638
 20
102.634163
 42
0.124838
  0
VERTEX
  8
0
 10
304.500000
 20
102.000000
 42
0.124838
  0
VERTEX
  8
0
 10
307.000362
 20
102.634163
 42
0.072280
  0
VERTEX
  8
0
 10
309.500292
 20
104.499708
 42
0.072280
  0
VERTEX
  8
0
 10
311.365837
 20
106.999638
 42
0.124838
  0
VERTEX
  8
0
 10
312.000000
 20
109.500000
 42
0.124838
  0
VERTEX
  8
0
 10
311.365837
 20
112.000362
 42
0.072280
  0
VERTEX
  8
0
 10
309.500292
 20
114.500292
 42
0.072280
  0
VERTEX
  8
0
 10
307.000362
 20
116.365837
 42
0.124838
  0
VERTEX
  8
0
 10
304.500000
 20
117.000000
 42
0.074846
  0
VERTEX
  8
0
 10
303.330305
 20
116.823919
 42
0.038507
  0
VERTEX
  8
0
 10
301.949148
 20
116.278977
 42
0.037190
  0
VERTEX
  8
0
 10
300.584818
 20
115.484854
 42
0.046014
  0
SEQEND
  0
ENDSEC
  0
EOF
