  0
SECTION
  2
HEADER
  9
$ACADVER
  1
AC1006
  9
$EXTMIN
 10
0.000000
 20
0.000000
 30
0.000000
  9
$EXTMAX
 10
512.000000
 20
512.000000
 30
0.000000
  0
ENDSEC
  0
SECTION
  2
ENTITIES
  0
POLYLINE
  8
0
 66
1
 70
1
  0
VERTEX
  8
0
 10
60.636526
 20
510.250000
 42
0.039542
  0
VERTEX
  8
0
 10
59.423368
 20
504.213608
 42
0.013217
  0
VERTEX
  8
0
 10
58.587887
 20
495.241889
 42
0.012967
  0
VERTEX
  8
0
 10
58.178719
 20
485.141974
 42
0.013753
  0
VERTEX
  8
0
 10
58.307051
 20
475.231139
 42
0.021771
  0
VERTEX
  8
0
 10
59.697115
 20
458.719174
 42
0.029137
  0
VERTEX
  8
0
 10
62.473087
 20
443.949161
 42
0.029077
  0
VERTEX
  8
0
 10
66.952756
 20
429.578403
 42
0.021545
  0
VERTEX
  8
0
 10
73.486212
 20
414.270529
 42
0.018969
  0
VERTEX
  8
0
 10
79.014491
 20
403.765163
 42
0.020150
  0
VERTEX
  8
0
 10
85.220368
 20
393.924489
 42
0.020095
  0
VERTEX
  8
0
 10
92.215089
 20
384.590810
 42
0.018642
  0
VERTEX
  8
0
 10
100.106381
 20
375.604082
 42
0.016156
  0
VERTEX
  8
0
 10
106.491984
 20
369.279208
 42
0.010193
  0
VERTEX
  8
0
 10
114.325341
 20
362.298218
 42
0.004361
  0
VERTEX
  8
0
 10
122.124033
 20
355.745226
 42
0.174256
  0
VERTEX
  8
0
 10
124.197411
 20
355.000000
 42
0.231564
  0
VERTEX
  8
0
 10
125.113034
 20
355.448077
 42
0.003333
  0
VERTEX
  8
0
 10
128.910568
 20
360.403084
 42
0.004074
  0
VERTEX
  8
0
 10
132.582922
 20
365.344694
 42
0.170430
  0
VERTEX
  8
0
 10
132.959786
 20
366.592371
 42
0.194684
  0
VERTEX
  8
0
 10
132.718280
 20
367.120585
 42
0.008026
  0
VERTEX
  8
0
 10
131.151308
 20
368.555259
 42
0.012930
  0
VERTEX
  8
0
 10
129.184669
 20
370.209858
 42
0.008710
  0
VERTEX
  8
0
 10
126.859734
 20
372.000000
 42
-0.038197
  0
VERTEX
  8
0
 10
116.483456
 20
381.011162
 42
-0.022141
  0
VERTEX
  8
0
 10
105.402250
 20
393.268129
 42
-0.022057
  0
VERTEX
  8
0
 10
95.339052
 20
406.597261
 42
-0.034846
  0
VERTEX
  8
0
 10
88.065169
 20
418.929408
 42
-0.024326
  0
VERTEX
  8
0
 10
82.805113
 20
430.880992
 42
-0.023879
  0
VERTEX
  8
0
 10
78.694346
 20
443.360388
 42
-0.023412
  0
VERTEX
  8
0
 10
75.725063
 20
456.415016
 42
-0.021395
  0
VERTEX
  8
0
 10
73.881160
 20
470.088209
 42
-0.014297
  0
VERTEX
  8
0
 10
73.338348
 20
478.738228
 42
-0.019345
  0
VERTEX
  8
0
 10
73.374428
 20
486.570845
 42
-0.012747
  0
VERTEX
  8
0
 10
73.817311
 20
492.999419
 42
-0.386862
  0
VERTEX
  8
0
 10
74.916969
 20
494.000000
 42
-0.236128
  0
VERTEX
  8
0
 10
76.601572
 20
493.157459
 42
-0.049087
  0
VERTEX
  8
0
 10
78.369164
 20
490.242997
 42
-0.035162
  0
VERTEX
  8
0
 10
80.191362
 20
485.637916
 42
-0.013979
  0
VERTEX
  8
0
 10
82.061102
 20
479.099687
 42
0.025409
  0
VERTEX
  8
0
 10
86.369674
 20
465.239360
 42
0.033848
  0
VERTEX
  8
0
 10
91.743870
 20
453.200668
 42
0.034706
  0
VERTEX
  8
0
 10
98.572490
 20
442.233959
 42
0.028984
  0
VERTEX
  8
0
 10
107.246342
 20
431.600706
 42
0.022680
  0
VERTEX
  8
0
 10
115.059138
 20
423.821654
 42
0.023549
  0
VERTEX
  8
0
 10
123.450514
 20
416.884762
 42
0.023972
  0
VERTEX
  8
0
 10
132.304162
 20
410.882509
 42
0.025638
  0
VERTEX
  8
0
 10
141.500000
 20
405.899697
 42
0.005033
  0
VERTEX
  8
0
 10
151.853817
 20
401.085426
 42
0.122902
  0
VERTEX
  8
0
 10
154.951862
 20
400.519777
 42
0.280577
  0
VERTEX
  8
0
 10
156.860719
 20
401.856961
 42
0.032211
  0
VERTEX
  8
0
 10
158.729110
 20
407.003599
 42
0.005073
  0
VERTEX
  8
0
 10
159.933409
 20
411.293397
 42
0.052129
  0
VERTEX
  8
0
 10
160.225289
 20
413.109212
 42
0.162719
  0
VERTEX
  8
0
 10
159.957138
 20
414.088022
 42
0.163689
  0
VERTEX
  8
0
 10
159.154834
 20
414.705937
 42
-0.019021
  0
VERTEX
  8
0
 10
158.116721
 20
415.108375
 42
-0.001775
  0
VERTEX
  8
0
 10
155.601200
 20
416.205933
 42
-0.002279
  0
VERTEX
  8
0
 10
152.611265
 20
417.539447
 42
-0.001789
  0
VERTEX
  8
0
 10
149.381167
 20
419.011698
 42
-0.056785
  0
VERTEX
  8
0
 10
130.202575
 20
430.630391
 42
-0.061752
  0
VERTEX
  8
0
 10
114.728730
 20
445.983414
 42
-0.060717
  0
VERTEX
  8
0
 10
103.274290
 20
464.890808
 42
-0.052034
  0
VERTEX
  8
0
 10
95.961580
 20
487.000000
 42
0.074758
  0
VERTEX
  8
0
 10
92.008398
 20
497.354893
 42
0.091092
  0
VERTEX
  8
0
 10
85.368870
 20
505.308152
 42
0.092852
  0
VERTEX
  8
0
 10
76.448285
 20
510.278364
 42
0.080964
  0
VERTEX
  8
0
 10
65.885886
 20
512.000000
 42
0.016754
  0
VERTEX
  8
0
 10
63.493129
 20
511.919801
 42
0.063781
  0
VERTEX
  8
0
 10
62.029823
 20
511.631699
 42
0.112237
  0
VERTEX
  8
0
 10
61.141195
 20
511.092576
 42
0.131897
  0
SEQEND
  0
POLYLINE
  8
0
 66
1
 70
1
  0
VERTEX
  8
0
 10
435.403561
 20
510.173006
 42
0.064742
  0
VERTEX
  8
0
 10
428.454197
 20
506.711605
 42
0.070933
  0
VERTEX
  8
0
 10
422.860391
 20
501.674817
 42
0.067872
  0
VERTEX
  8
0
 10
418.715911
 20
495.072828
 42
0.052446
  0
VERTEX
  8
0
 10
416.038420
 20
487.000000
 42
-0.052034
  0
VERTEX
  8
0
 10
408.725710
 20
464.890808
 42
-0.060717
  0
VERTEX
  8
0
 10
397.271270
 20
445.983414
 42
-0.061752
  0
VERTEX
  8
0
 10
381.797425
 20
430.630391
 42
-0.056785
  0
VERTEX
  8
0
 10
362.618833
 20
419.011698
 42
-0.001829
  0
VERTEX
  8
0
 10
359.384468
 20
417.537818
 42
-0.002310
  0
VERTEX
  8
0
 10
356.381488
 20
416.199289
 42
-0.001830
  0
VERTEX
  8
0
 10
353.853795
 20
415.097607
 42
-0.018594
  0
VERTEX
  8
0
 10
352.786232
 20
414.683321
 42
0.082016
  0
VERTEX
  8
0
 10
351.978266
 20
414.245427
 42
0.166785
  0
VERTEX
  8
0
 10
351.587214
 20
413.648484
 42
0.110571
  0
VERTEX
  8
0
 10
351.561123
 20
412.754334
 42
0.026099
  0
VERTEX
  8
0
 10
351.923223
 20
411.295288
 42
-0.003241
  0
VERTEX
  8
0
 10
352.329906
 20
409.927308
 42
-0.001343
  0
VERTEX
  8
0
 10
352.862810
 20
408.072678
 42
-0.001328
  0
VERTEX
  8
0
 10
353.423366
 20
406.081808
 42
-0.001713
  0
VERTEX
  8
0
 10
353.927133
 20
404.250000
 42
0.025658
  0
VERTEX
  8
0
 10
354.459809
 20
402.622204
 42
0.036675
  0
VERTEX
  8
0
 10
355.108023
 20
401.248438
 42
0.040412
  0
VERTEX
  8
0
 10
355.772547
 20
400.266555
 42
0.227571
  0
VERTEX
  8
0
 10
356.327867
 20
400.000000
 42
0.100172
  0
VERTEX
  8
0
 10
359.297922
 20
400.601066
 42
0.006858
  0
VERTEX
  8
0
 10
367.202588
 20
404.065601
 42
0.010762
  0
VERTEX
  8
0
 10
375.241561
 20
407.932146
 42
0.022109
  0
VERTEX
  8
0
 10
381.323695
 20
411.366619
 42
0.047465
  0
VERTEX
  8
0
 10
398.236247
 20
424.306944
 42
0.050210
  0
VERTEX
  8
0
 10
412.054168
 20
439.982856
 42
0.049437
  0
VERTEX
  8
0
 10
422.639592
 20
458.327694
 42
0.043523
  0
VERTEX
  8
0
 10
429.961048
 20
479.186223
 42
-0.017540
  0
VERTEX
  8
0
 10
432.014030
 20
486.176575
 42
-0.043274
  0
VERTEX
  8
0
 10
434.129594
 20
491.081239
 42
-0.080780
  0
VERTEX
  8
0
 10
436.090498
 20
493.634459
 42
-0.405918
  0
VERTEX
  8
0
 10
437.722222
 20
493.607472
 42
-0.181898
  0
VERTEX
  8
0
 10
438.030973
 20
492.921997
 42
-0.003927
  0
VERTEX
  8
0
 10
438.238323
 20
489.188957
 42
-0.008491
  0
VERTEX
  8
0
 10
438.373996
 20
484.764231
 42
-0.005565
  0
VERTEX
  8
0
 10
438.386963
 20
479.663027
 42
-0.038610
  0
VERTEX
  8
0
 10
436.451183
 20
457.148491
 42
-0.041192
  0
VERTEX
  8
0
 10
431.081499
 20
435.697848
 42
-0.041254
  0
VERTEX
  8
0
 10
422.277481
 20
415.446328
 42
-0.038958
  0
VERTEX
  8
0
 10
410.122113
 20
396.500000
 42
-0.023983
  0
VERTEX
  8
0
 10
404.705422
 20
390.020049
 42
-0.012317
  0
VERTEX
  8
0
 10
397.344774
 20
382.411678
 42
-0.012063
  0
VERTEX
  8
0
 10
389.855830
 20
375.390279
 42
-0.034229
  0
VERTEX
  8
0
 10
384.206398
 20
371.000000
 42
0.011188
  0
VERTEX
  8
0
 10
382.212893
 20
369.593075
 42
0.016435
  0
VERTEX
  8
0
 10
380.531542
 20
368.261509
 42
0.011770
  0
VERTEX
  8
0
 10
379.223372
 20
367.099663
 42
0.207634
  0
VERTEX
  8
0
 10
379.001933
 20
366.592371
 42
0.160194
  0
VERTEX
  8
0
 10
379.416555
 20
365.322345
 42
0.004025
  0
VERTEX
  8
0
 10
383.095549
 20
360.394433
 42
0.003152
  0
VERTEX
  8
0
 10
386.908958
 20
355.436556
 42
0.231202
  0
VERTEX
  8
0
 10
387.802589
 20
355.000000
 42
0.173704
  0
VERTEX
  8
0
 10
389.810209
 20
355.719161
 42
0.004190
  0
VERTEX
  8
0
 10
397.509246
 20
362.155826
 42
0.009979
  0
VERTEX
  8
0
 10
405.204736
 20
368.969118
 42
0.016389
  0
VERTEX
  8
0
 10
411.404008
 20
375.070032
 42
0.034727
  0
VERTEX
  8
0
 10
425.111257
 20
391.637826
 42
0.034663
  0
VERTEX
  8
0
 10
436.402829
 20
409.953229
 42
0.034590
  0
VERTEX
  8
0
 10
445.076068
 20
429.691314
 42
0.034257
  0
VERTEX
  8
0
 10
450.978162
 20
450.500000
 42
0.032670
  0
VERTEX
  8
0
 10
453.015320
 20
464.691518
 42
0.017665
  0
VERTEX
  8
0
 10
453.755402
 20
482.330706
 42
0.017075
  0
VERTEX
  8
0
 10
453.290316
 20
499.213813
 42
0.055223
  0
VERTEX
  8
0
 10
451.372909
 20
510.250000
 42
0.283702
  0
VERTEX
  8
0
 10
449.850931
 20
511.627373
 42
0.046912
  0
VERTEX
  8
0
 10
445.730870
 20
511.994752
 42
0.043190
  0
VERTEX
  8
0
 10
440.584589
 20
511.524373
 42
0.038854
  0
SEQEND
  0
POLYLINE
  8
0
 66
1
 70
1
  0
VERTEX
  8
0
 10
226.000000
 20
386.500000
 42
0.000000
  0
VERTEX
  8
0
 10
226.000000
 20
319.000000
 42
0.000000
  0
VERTEX
  8
0
 10
171.000000
 20
319.000000
 42
0.000000
  0
VERTEX
  8
0
 10
116.000000
 20
319.000000
 42
0.000000
  0
VERTEX
  8
0
 10
116.000000
 20
289.000000
 42
0.000000
  0
VERTEX
  8
0
 10
116.000000
 20
259.000000
 42
0.000000
  0
VERTEX
  8
0
 10
171.000000
 20
259.000000
 42
0.000000
  0
VERTEX
  8
0
 10
226.000000
 20
259.000000
 42
0.000000
  0
VERTEX
  8
0
 10
226.000000
 20
244.749888
 42
0.000000
  0
VERTEX
  8
0
 10
226.000000
 20
230.499775
 42
0.000000
  0
VERTEX
  8
0
 10
240.940428
 20
212.238653
 42
0.000000
  0
VERTEX
  8
0
 10
255.880856
 20
193.977530
 42
0.000000
  0
VERTEX
  8
0
 10
262.745790
 20
202.238765
 42
0.000454
  0
VERTEX
  8
0
 10
265.960632
 20
206.114648
 42
0.000230
  0
VERTEX
  8
0
 10
270.001325
 20
210.999780
 42
0.000229
  0
VERTEX
  8
0
 10
274.167666
 20
216.046236
 42
0.000341
  0
VERTEX
  8
0
 10
277.805362
 20
220.462612
 42
0.000000
  0
VERTEX
  8
0
 10
286.000000
 20
230.425225
 42
0.000000
  0
VERTEX
  8
0
 10
286.000000
 20
244.712612
 42
0.000000
  0
VERTEX
  8
0
 10
286.000000
 20
259.000000
 42
0.000000
  0
VERTEX
  8
0
 10
341.000000
 20
259.000000
 42
0.000000
  0
VERTEX
  8
0
 10
396.000000
 20
259.000000
 42
0.000000
  0
VERTEX
  8
0
 10
396.000000
 20
289.000000
 42
0.000000
  0
VERTEX
  8
0
 10
396.000000
 20
319.000000
 42
0.000000
  0
VERTEX
  8
0
 10
341.000000
 20
319.000000
 42
0.000000
  0
VERTEX
  8
0
 10
286.000000
 20
319.000000
 42
0.000000
  0
VERTEX
  8
0
 10
286.000000
 20
386.500000
 42
0.000000
  0
VERTEX
  8
0
 10
286.000000
 20
454.000000
 42
0.000000
  0
VERTEX
  8
0
 10
256.000000
 20
454.000000
 42
0.000000
  0
VERTEX
  8
0
 10
226.000000
 20
454.000000
 42
0.000000
  0
SEQEND
  0
POLYLINE
  8
0
 66
1
 70
1
  0
VERTEX
  8
0
 10
271.000000
 20
371.500000
 42
0.000000
  0
VERTEX
  8
0
 10
271.000000
 20
304.000000
 42
0.000000
  0
VERTEX
  8
0
 10
326.000000
 20
304.000000
 42
0.000000
  0
VERTEX
  8
0
 10
381.000000
 20
304.000000
 42
0.000000
  0
VERTEX
  8
0
 10
381.000000
 20
289.000000
 42
0.000000
  0
VERTEX
  8
0
 10
381.000000
 20
274.000000
 42
0.000000
  0
VERTEX
  8
0
 10
326.000000
 20
274.000000
 42
0.000000
  0
VERTEX
  8
0
 10
271.000000
 20
274.000000
 42
0.000000
  0
VERTEX
  8
0
 10
271.000000
 20
255.109554
 42
0.000000
  0
VERTEX
  8
0
 10
271.000000
 20
236.219109
 42
0.000000
  0
VERTEX
  8
0
 10
263.862195
 20
227.609554
 42
-0.004771
  0
VERTEX
  8
0
 10
261.072739
 20
224.309538
 42
-0.007460
  0
VERTEX
  8
0
 10
258.603338
 20
221.529057
 42
-0.002845
  0
VERTEX
  8
0
 10
256.449475
 20
219.202267
 42
-0.207473
  0
VERTEX
  8
0
 10
255.983005
 20
219.000000
 42
-0.209970
  0
VERTEX
  8
0
 10
255.518115
 20
219.204230
 42
-0.002829
  0
VERTEX
  8
0
 10
253.369425
 20
221.570312
 42
-0.007465
  0
VERTEX
  8
0
 10
250.907462
 20
224.396128
 42
-0.004769
  0
VERTEX
  8
0
 10
248.126804
 20
227.750000
 42
0.000000
  0
VERTEX
  8
0
 10
241.011989
 20
236.500000
 42
0.000000
  0
VERTEX
  8
0
 10
241.005994
 20
255.250000
 42
0.000000
  0
VERTEX
  8
0
 10
241.000000
 20
274.000000
 42
0.000000
  0
VERTEX
  8
0
 10
202.659712
 20
274.000000
 42
-0.001517
  0
VERTEX
  8
0
 10
186.759129
 20
274.048248
 42
-0.001469
  0
VERTEX
  8
0
 10
170.688093
 20
274.193006
 42
-0.001450
  0
VERTEX
  8
0
 10
156.547246
 20
274.402949
 42
-0.005418
  0
VERTEX
  8
0
 10
147.659712
 20
274.657042
 42
0.000000
  0
VERTEX
  8
0
 10
131.000000
 20
275.314083
 42
0.000000
  0
VERTEX
  8
0
 10
131.000000
 20
289.657042
 42
0.000000
  0
VERTEX
  8
0
 10
131.000000
 20
304.000000
 42
0.000000
  0
VERTEX
  8
0
 10
186.000000
 20
304.000000
 42
0.000000
  0
VERTEX
  8
0
 10
241.000000
 20
304.000000
 42
0.000000
  0
VERTEX
  8
0
 10
241.000000
 20
370.833333
 42
-0.000934
  0
VERTEX
  8
0
 10
241.047966
 20
396.506133
 42
-0.001535
  0
VERTEX
  8
0
 10
241.195833
 20
418.230208
 42
-0.000134
  0
VERTEX
  8
0
 10
241.393188
 20
437.682699
 42
-0.196207
  0
VERTEX
  8
0
 10
241.666667
 20
438.333333
 42
-0.184764
  0
VERTEX
  8
0
 10
242.268460
 20
438.602071
 42
-0.002542
  0
VERTEX
  8
0
 10
246.347917
 20
438.804167
 42
-0.006757
  0
VERTEX
  8
0
 10
251.124732
 20
438.951821
 42
-0.004347
  0
VERTEX
  8
0
 10
256.666667
 20
439.000000
 42
0.000000
  0
VERTEX
  8
0
 10
271.000000
 20
439.000000
 42
0.000000
  0
SEQEND
  0
POLYLINE
  8
0
 66
1
 70
1
  0
VERTEX
  8
0
 10
202.259214
 20
423.066009
 42
0.034751
  0
VERTEX
  8
0
 10
187.922950
 20
414.859407
 42
0.032473
  0
VERTEX
  8
0
 10
174.514783
 20
404.575164
 42
0.032432
  0
VERTEX
  8
0
 10
162.534677
 20
392.626982
 42
0.034441
  0
VERTEX
  8
0
 10
152.458879
 20
379.456123
 42
0.006812
  0
VERTEX
  8
0
 10
149.481790
 20
374.817152
 42
0.006438
  0
VERTEX
  8
0
 10
146.574506
 20
370.011404
 42
0.006413
  0
VERTEX
  8
0
 10
144.110206
 20
365.690966
 42
0.022289
  0
VERTEX
  8
0
 10
142.680538
 20
362.812311
 42
0.022284
  0
VERTEX
  8
0
 10
140.730201
 20
357.811020
 42
0.007194
  0
VERTEX
  8
0
 10
138.281949
 20
350.243073
 42
0.007409
  0
VERTEX
  8
0
 10
135.999953
 20
342.415514
 42
0.016147
  0
VERTEX
  8
0
 10
134.534459
 20
336.336571
 42
0.051493
  0
VERTEX
  8
0
 10
134.314776
 20
334.176992
 42
0.254292
  0
VERTEX
  8
0
 10
134.880472
 20
333.140378
 42
0.084531
  0
VERTEX
  8
0
 10
136.507767
 20
332.443608
 42
0.003314
  0
VERTEX
  8
0
 10
142.862639
 20
330.960553
 42
0.025825
  0
VERTEX
  8
0
 10
146.581781
 20
330.318293
 42
0.141901
  0
VERTEX
  8
0
 10
148.570375
 20
330.644426
 42
0.214592
  0
VERTEX
  8
0
 10
149.626147
 20
331.888896
 42
0.068233
  0
VERTEX
  8
0
 10
149.984687
 20
334.352495
 42
-0.075912
  0
VERTEX
  8
0
 10
150.528416
 20
337.726055
 42
-0.006856
  0
VERTEX
  8
0
 10
153.265579
 20
345.848275
 42
-0.009721
  0
VERTEX
  8
0
 10
156.364439
 20
354.126356
 42
-0.022061
  0
VERTEX
  8
0
 10
159.099641
 20
360.222510
 42
-0.045583
  0
VERTEX
  8
0
 10
168.499603
 20
375.317118
 42
-0.038245
  0
VERTEX
  8
0
 10
181.000488
 20
389.440730
 42
-0.038449
  0
VERTEX
  8
0
 10
195.422357
 20
401.415533
 42
-0.047637
  0
VERTEX
  8
0
 10
210.552210
 20
410.096344
 42
0.013291
  0
VERTEX
  8
0
 10
215.189310
 20
412.349354
 42
0.239517
  0
VERTEX
  8
0
 10
216.122738
 20
413.651986
 42
0.145609
  0
VERTEX
  8
0
 10
215.867462
 20
415.495446
 42
0.004179
  0
VERTEX
  8
0
 10
212.487596
 20
422.766128
 42
0.000000
  0
VERTEX
  8
0
 10
210.460905
 20
427.032255
 42
0.000000
  0
SEQEND
  0
POLYLINE
  8
0
 66
1
 70
1
  0
VERTEX
  8
0
 10
299.620732
 20
423.250000
 42
-0.001481
  0
VERTEX
  8
0
 10
298.905169
 20
421.582862
 42
-0.000974
  0
VERTEX
  8
0
 10
298.072176
 20
419.668125
 42
-0.000980
  0
VERTEX
  8
0
 10
297.254204
 20
417.807818
 42
-0.001890
  0
VERTEX
  8
0
 10
296.590844
 20
416.322342
 42
0.000000
  0
VERTEX
  8
0
 10
295.157383
 20
413.144684
 42
0.000000
  0
VERTEX
  8
0
 10
305.328691
 20
408.140691
 42
-0.056625
  0
VERTEX
  8
0
 10
324.627877
 20
395.761422
 42
-0.053862
  0
VERTEX
  8
0
 10
341.022030
 20
379.179741
 42
-0.053494
  0
VERTEX
  8
0
 10
353.591138
 20
359.361593
 42
-0.054299
  0
VERTEX
  8
0
 10
361.594011
 20
337.425641
 42
0.000768
  0
VERTEX
  8
0
 10
362.254797
 20
334.758573
 42
0.001231
  0
VERTEX
  8
0
 10
362.827693
 20
332.485218
 42
0.000204
  0
VERTEX
  8
0
 10
363.340630
 20
330.474174
 42
0.073808
  0
VERTEX
  8
0
 10
363.400091
 20
330.332547
 42
0.308881
  0
VERTEX
  8
0
 10
363.644079
 20
330.221597
 42
0.000539
  0
VERTEX
  8
0
 10
368.351188
 20
331.046377
 42
0.004137
  0
VERTEX
  8
0
 10
372.689517
 20
331.848419
 42
0.010505
  0
VERTEX
  8
0
 10
375.821338
 20
332.522793
 42
0.190840
  0
VERTEX
  8
0
 10
377.201292
 20
333.487771
 42
0.171639
  0
VERTEX
  8
0
 10
377.623581
 20
335.188034
 42
0.042080
  0
VERTEX
  8
0
 10
376.990131
 20
338.656614
 42
0.002791
  0
VERTEX
  8
0
 10
374.280729
 20
348.433983
 42
0.017083
  0
VERTEX
  8
0
 10
371.523961
 20
357.037957
 42
0.023249
  0
VERTEX
  8
0
 10
368.420419
 20
364.572610
 42
0.022678
  0
VERTEX
  8
0
 10
364.566886
 20
371.928473
 42
0.015116
  0
VERTEX
  8
0
 10
359.527332
 20
380.000000
 42
0.016340
  0
VERTEX
  8
0
 10
353.234837
 20
388.794638
 42
0.024416
  0
VERTEX
  8
0
 10
347.128703
 20
396.006716
 42
0.024968
  0
VERTEX
  8
0
 10
340.455361
 20
402.471162
 42
0.018234
  0
VERTEX
  8
0
 10
332.448778
 20
408.987053
 42
0.020237
  0
VERTEX
  8
0
 10
325.193776
 20
414.016535
 42
0.008513
  0
VERTEX
  8
0
 10
315.063430
 20
420.209157
 42
0.004076
  0
VERTEX
  8
0
 10
304.742342
 20
426.166753
 42
0.121063
  0
VERTEX
  8
0
 10
301.858580
 20
426.978538
 42
0.254758
  0
VERTEX
  8
0
 10
301.532599
 20
426.814810
 42
0.016470
  0
VERTEX
  8
0
 10
300.936626
 20
425.892133
 42
0.020785
  0
VERTEX
  8
0
 10
300.278973
 20
424.685433
 42
0.013740
  0
SEQEND
  0
POLYLINE
  8
0
 66
1
 70
1
  0
VERTEX
  8
0
 10
96.737081
 20
241.237389
 42
0.000000
  0
VERTEX
  8
0
 10
80.003962
 20
224.482525
 42
0.000000
  0
VERTEX
  8
0
 10
89.216547
 20
215.269940
 42
0.000000
  0
VERTEX
  8
0
 10
98.429132
 20
206.057355
 42
0.000000
  0
VERTEX
  8
0
 10
95.511928
 20
203.012450
 42
0.000000
  0
VERTEX
  8
0
 10
92.594724
 20
199.967545
 42
0.000000
  0
VERTEX
  8
0
 10
98.311457
 20
194.190531
 42
0.000000
  0
VERTEX
  8
0
 10
104.028190
 20
188.413518
 42
0.000000
  0
VERTEX
  8
0
 10
97.264095
 20
183.300809
 42
-0.037642
  0
VERTEX
  8
0
 10
83.051323
 20
174.150873
 42
-0.043687
  0
VERTEX
  8
0
 10
68.300649
 20
167.749867
 42
-0.043431
  0
VERTEX
  8
0
 10
52.586726
 20
163.982636
 42
-0.036462
  0
VERTEX
  8
0
 10
35.500000
 20
162.688452
 42
-0.008221
  0
VERTEX
  8
0
 10
28.244096
 20
162.788129
 42
-0.020023
  0
VERTEX
  8
0
 10
22.908678
 20
163.163394
 42
-0.021668
  0
VERTEX
  8
0
 10
17.874027
 20
163.942793
 42
-0.011274
  0
VERTEX
  8
0
 10
11.669952
 20
165.326642
 42
0.001143
  0
VERTEX
  8
0
 10
7.477810
 20
166.351292
 42
0.001772
  0
VERTEX
  8
0
 10
3.853871
 20
167.214701
 42
0.000521
  0
VERTEX
  8
0
 10
0.700996
 20
167.950615
 42
0.057128
  0
VERTEX
  8
0
 10
0.270172
 20
168.000000
 42
0.431164
  0
VERTEX
  8
0
 10
-0.457810
 20
167.228890
 42
0.001653
  0
VERTEX
  8
0
 10
0.360867
 20
153.786739
 42
0.007024
  0
VERTEX
  8
0
 10
1.330477
 20
141.410069
 42
0.029112
  0
VERTEX
  8
0
 10
2.453711
 20
134.000000
 42
0.081971
  0
VERTEX
  8
0
 10
17.498712
 20
95.464402
 42
0.084693
  0
VERTEX
  8
0
 10
44.002671
 20
64.301197
 42
0.084837
  0
VERTEX
  8
0
 10
79.297326
 20
43.727233
 42
0.082622
  0
VERTEX
  8
0
 10
119.750976
 20
35.794890
 42
0.000000
  0
VERTEX
  8
0
 10
130.001951
 20
35.500000
 42
0.000000
  0
VERTEX
  8
0
 10
130.000976
 20
59.610517
 42
0.000000
  0
VERTEX
  8
0
 10
130.000000
 20
83.721034
 42
0.000000
  0
VERTEX
  8
0
 10
118.750000
 20
84.293588
 42
-0.018235
  0
VERTEX
  8
0
 10
110.745468
 20
84.994297
 42
-0.026501
  0
VERTEX
  8
0
 10
103.768071
 20
86.240714
 42
-0.029238
  0
VERTEX
  8
0
 10
97.529958
 20
88.090160
 42
-0.032277
  0
VERTEX
  8
0
 10
91.759931
 20
90.606312
 42
0.000000
  0
VERTEX
  8
0
 10
88.019862
 20
92.533246
 42
0.000000
  0
VERTEX
  8
0
 10
115.996110
 20
120.496112
 42
0.000000
  0
VERTEX
  8
0
 10
143.972359
 20
148.458978
 42
0.000000
  0
VERTEX
  8
0
 10
149.471403
 20
143.028241
 42
0.000000
  0
VERTEX
  8
0
 10
154.970448
 20
137.597505
 42
0.000000
  0
VERTEX
  8
0
 10
158.006132
 20
140.505875
 42
0.000000
  0
VERTEX
  8
0
 10
161.041817
 20
143.414245
 42
0.000000
  0
VERTEX
  8
0
 10
169.270908
 20
135.296221
 42
0.005445
  0
VERTEX
  8
0
 10
173.269298
 20
131.436806
 42
0.002437
  0
VERTEX
  8
0
 10
178.607704
 20
126.444091
 42
0.002412
  0
VERTEX
  8
0
 10
184.303837
 20
121.219453
 42
0.003274
  0
VERTEX
  8
0
 10
189.500000
 20
116.561088
 42
0.000000
  0
VERTEX
  8
0
 10
201.500000
 20
105.943978
 42
0.000000
  0
VERTEX
  8
0
 10
203.702034
 20
108.471989
 42
-0.016747
  0
VERTEX
  8
0
 10
204.603633
 20
109.439633
 42
-0.022069
  0
VERTEX
  8
0
 10
205.491623
 20
110.255500
 42
-0.020276
  0
VERTEX
  8
0
 10
206.269893
 20
110.857548
 42
-0.157780
  0
VERTEX
  8
0
 10
206.702034
 20
110.993544
 42
-0.151126
  0
VERTEX
  8
0
 10
207.201479
 20
110.834619
 42
-0.006769
  0
VERTEX
  8
0
 10
208.688492
 20
109.769449
 42
-0.010859
  0
VERTEX
  8
0
 10
210.430059
 20
108.426584
 42
-0.007506
  0
VERTEX
  8
0
 10
212.343896
 20
106.835478
 42
0.000000
  0
VERTEX
  8
0
 10
217.187792
 20
102.683868
 42
0.000000
  0
VERTEX
  8
0
 10
206.343896
 20
98.315709
 42
-0.010665
  0
VERTEX
  8
0
 10
194.484805
 20
93.830123
 42
-0.013845
  0
VERTEX
  8
0
 10
183.428240
 20
90.256767
 42
-0.011163
  0
VERTEX
  8
0
 10
170.488581
 20
86.778763
 42
-0.004213
  0
VERTEX
  8
0
 10
152.250000
 20
82.473091
 42
0.000000
  0
VERTEX
  8
0
 10
150.000000
 20
81.961896
 42
0.000000
  0
VERTEX
  8
0
 10
150.000000
 20
40.905530
 42
0.000000
  0
VERTEX
  8
0
 10
150.000000
 20
-0.150835
 42
0.000000
  0
VERTEX
  8
0
 10
162.750000
 20
6.577829
 42
0.006835
  0
VERTEX
  8
0
 10
186.559796
 20
19.562331
 42
0.008081
  0
VERTEX
  8
0
 10
208.698985
 20
32.507055
 42
0.008348
  0
VERTEX
  8
0
 10
229.758325
 20
45.767409
 42
0.008396
  0
VERTEX
  8
0
 10
250.321810
 20
59.698260
 42
-0.001585
  0
VERTEX
  8
0
 10
254.884558
 20
62.880847
 42
-0.002550
  0
VERTEX
  8
0
 10
258.796064
 20
65.561364
 42
-0.000455
  0
VERTEX
  8
0
 10
262.261634
 20
67.905801
 42
-0.149567
  0
VERTEX
  8
0
 10
262.569495
 20
68.000000
 42
-0.157837
  0
VERTEX
  8
0
 10
263.456818
 20
67.712739
 42
-0.002218
  0
VERTEX
  8
0
 10
268.054780
 20
64.355945
 42
-0.001663
  0
VERTEX
  8
0
 10
272.702814
 20
60.906965
 42
-0.236542
  0
VERTEX
  8
0
 10
273.000000
 20
60.313924
 42
-0.137729
  0
VERTEX
  8
0
 10
272.913975
 20
60.007549
 42
-0.008702
  0
VERTEX
  8
0
 10
272.408300
 20
59.209658
 42
-0.012275
  0
VERTEX
  8
0
 10
271.757328
 20
58.271941
 42
-0.008785
  0
VERTEX
  8
0
 10
270.985703
 20
57.254694
 42
0.000000
  0
VERTEX
  8
0
 10
268.971405
 20
54.693930
 42
0.000000
  0
VERTEX
  8
0
 10
279.926557
 20
47.373474
 42
0.008515
  0
VERTEX
  8
0
 10
293.594541
 20
38.573170
 42
0.004995
  0
VERTEX
  8
0
 10
310.230216
 20
28.487190
 42
0.004926
  0
VERTEX
  8
0
 10
327.578902
 20
18.434188
 42
0.006621
  0
VERTEX
  8
0
 10
343.500000
 20
9.693199
 42
0.000000
  0
VERTEX
  8
0
 10
361.500000
 20
0.118852
 42
0.000000
  0
VERTEX
  8
0
 10
361.761348
 20
40.714745
 42
0.001079
  0
VERTEX
  8
0
 10
361.828111
 20
56.313008
 42
0.001769
  0
VERTEX
  8
0
 10
361.809423
 20
69.522096
 42
0.000177
  0
VERTEX
  8
0
 10
361.746796
 20
81.323174
 42
0.197441
  0
VERTEX
  8
0
 10
361.558008
 20
81.775325
 42
0.134255
  0
VERTEX
  8
0
 10
361.135812
 20
82.016210
 42
0.001144
  0
VERTEX
  8
0
 10
357.470803
 20
82.949245
 42
0.003920
  0
VERTEX
  8
0
 10
353.235217
 20
83.981979
 42
0.002504
  0
VERTEX
  8
0
 10
348.296660
 20
85.119105
 42
-0.007644
  0
VERTEX
  8
0
 10
342.541196
 20
86.506784
 42
-0.004676
  0
VERTEX
  8
0
 10
335.793697
 20
88.310663
 42
-0.004686
  0
VERTEX
  8
0
 10
329.143186
 20
90.222729
 42
-0.008306
  0
VERTEX
  8
0
 10
323.703161
 20
91.941003
 42
0.000000
  0
VERTEX
  8
0
 10
311.906323
 20
95.883809
 42
0.000000
  0
VERTEX
  8
0
 10
310.953161
 20
93.376805
 42
0.011182
  0
VERTEX
  8
0
 10
310.588280
 20
92.348436
 42
0.012110
  0
VERTEX
  8
0
 10
310.279991
 20
91.331606
 42
0.011669
  0
VERTEX
  8
0
 10
310.057746
 20
90.449534
 42
0.055929
  0
VERTEX
  8
0
 10
310.000000
 20
89.934900
 42
-0.103604
  0
VERTEX
  8
0
 10
309.925279
 20
89.578166
 42
-0.098907
  0
VERTEX
  8
0
 10
309.713078
 20
89.274627
 42
-0.096806
  0
VERTEX
  8
0
 10
309.396076
 20
89.071217
 42
-0.094653
  0
VERTEX
  8
0
 10
309.023243
 20
89.000000
 42
-0.093923
  0
VERTEX
  8
0
 10
307.244978
 20
89.337014
 42
-0.006323
  0
VERTEX
  8
0
 10
302.438135
 20
91.297404
 42
-0.003060
  0
VERTEX
  8
0
 10
297.409323
 20
93.459251
 42
-0.297398
  0
VERTEX
  8
0
 10
297.001393
 20
94.081162
 42
-0.213524
  0
VERTEX
  8
0
 10
297.172101
 20
94.465142
 42
-0.000553
  0
VERTEX
  8
0
 10
301.631667
 20
98.461136
 42
-0.003234
  0
VERTEX
  8
0
 10
306.721662
 20
102.952980
 42
-0.001993
  0
VERTEX
  8
0
 10
312.765985
 20
108.175614
 42
0.003465
  0
VERTEX
  8
0
 10
319.626106
 20
114.138505
 42
0.002486
  0
VERTEX
  8
0
 10
327.212624
 20
120.892980
 42
0.002510
  0
VERTEX
  8
0
 10
334.371689
 20
127.396288
 42
0.005404
  0
VERTEX
  8
0
 10
339.806565
 20
132.492665
 42
0.000000
  0
VERTEX
  8
0
 10
351.081161
 20
143.296425
 42
0.000000
  0
VERTEX
  8
0
 10
354.055356
 20
140.446965
 42
0.000000
  0
VERTEX
  8
0
 10
357.029552
 20
137.597505
 42
0.000000
  0
VERTEX
  8
0
 10
362.528597
 20
143.028241
 42
0.000000
  0
VERTEX
  8
0
 10
368.027641
 20
148.458978
 42
0.000000
  0
VERTEX
  8
0
 10
396.003890
 20
120.496112
 42
0.000000
  0
VERTEX
  8
0
 10
423.980138
 20
92.533246
 42
0.000000
  0
VERTEX
  8
0
 10
420.240069
 20
90.606312
 42
-0.032277
  0
VERTEX
  8
0
 10
414.470042
 20
88.090160
 42
-0.029238
  0
VERTEX
  8
0
 10
408.231929
 20
86.240714
 42
-0.026501
  0
VERTEX
  8
0
 10
401.254532
 20
84.994297
 42
-0.018235
  0
VERTEX
  8
0
 10
393.250000
 20
84.293588
 42
0.000000
  0
VERTEX
  8
0
 10
382.000000
 20
83.721034
 42
0.000000
  0
VERTEX
  8
0
 10
381.999024
 20
59.610517
 42
0.000000
  0
VERTEX
  8
0
 10
381.998049
 20
35.500000
 42
0.000000
  0
VERTEX
  8
0
 10
392.249024
 20
35.794890
 42
0.095616
  0
VERTEX
  8
0
 10
438.547259
 20
46.119470
 42
0.097985
  0
VERTEX
  8
0
 10
477.224945
 20
72.888632
 42
0.097710
  0
VERTEX
  8
0
 10
502.870834
 20
112.442254
 42
0.094506
  0
VERTEX
  8
0
 10
511.969124
 20
159.250000
 42
0.004498
  0
VERTEX
  8
0
 10
511.950778
 20
162.605128
 42
0.007493
  0
VERTEX
  8
0
 10
511.867569
 20
165.429688
 42
0.002243
  0
VERTEX
  8
0
 10
511.749593
 20
167.839277
 42
0.398656
  0
VERTEX
  8
0
 10
511.580048
 20
168.000000
 42
0.057924
  0
VERTEX
  8
0
 10
511.256302
 20
167.962368
 42
0.000296
  0
VERTEX
  8
0
 10
508.102131
 20
167.217081
 42
0.001329
  0
VERTEX
  8
0
 10
504.511768
 20
166.356399
 42
0.000841
  0
VERTEX
  8
0
 10
500.330048
 20
165.334745
 42
-0.011358
  0
VERTEX
  8
0
 10
494.234998
 20
163.980805
 42
-0.020393
  0
VERTEX
  8
0
 10
489.172657
 20
163.189313
 42
-0.019294
  0
VERTEX
  8
0
 10
483.877636
 20
162.787556
 42
-0.009019
  0
VERTEX
  8
0
 10
477.000000
 20
162.656128
 42
-0.013996
  0
VERTEX
  8
0
 10
467.360806
 20
162.915698
 42
-0.025622
  0
VERTEX
  8
0
 10
459.545326
 20
163.748404
 42
-0.026473
  0
VERTEX
  8
0
 10
452.028868
 20
165.352931
 42
-0.016153
  0
VERTEX
  8
0
 10
443.345265
 20
167.996791
 42
-0.020278
  0
VERTEX
  8
0
 10
435.817955
 20
170.902528
 42
-0.020565
  0
VERTEX
  8
0
 10
428.586749
 20
174.396280
 42
-0.020309
  0
VERTEX
  8
0
 10
421.582781
 20
178.517098
 42
-0.018706
  0
VERTEX
  8
0
 10
414.735905
 20
183.300809
 42
0.000000
  0
VERTEX
  8
0
 10
407.971810
 20
188.413518
 42
0.000000
  0
VERTEX
  8
0
 10
413.688543
 20
194.190531
 42
0.000000
  0
VERTEX
  8
0
 10
419.405276
 20
199.967545
 42
0.000000
  0
VERTEX
  8
0
 10
416.494385
 20
203.005861
 42
0.000000
  0
VERTEX
  8
0
 10
413.583494
 20
206.044177
 42
0.000000
  0
VERTEX
  8
0
 10
422.787874
 20
215.286988
 42
0.000000
  0
VERTEX
  8
0
 10
431.992254
 20
224.529800
 42
0.000000
  0
VERTEX
  8
0
 10
415.237389
 20
241.262919
 42
0.000000
  0
VERTEX
  8
0
 10
398.482525
 20
257.996038
 42
0.000000
  0
VERTEX
  8
0
 10
389.249248
 20
248.762761
 42
0.000000
  0
VERTEX
  8
0
 10
380.015971
 20
239.529484
 42
0.000000
  0
VERTEX
  8
0
 10
377.272281
 20
242.273174
 42
0.000000
  0
VERTEX
  8
0
 10
374.528591
 20
245.016864
 42
0.000000
  0
VERTEX
  8
0
 10
343.288161
 20
213.788241
 42
0.000000
  0
VERTEX
  8
0
 10
312.047730
 20
182.559618
 42
0.000000
  0
VERTEX
  8
0
 10
314.773865
 20
179.709367
 42
0.000000
  0
VERTEX
  8
0
 10
317.500000
 20
176.859116
 42
0.000000
  0
VERTEX
  8
0
 10
302.000000
 20
161.631262
 42
-0.005692
  0
VERTEX
  8
0
 10
295.369156
 20
155.263545
 42
-0.004909
  0
VERTEX
  8
0
 10
288.262500
 20
148.722783
 42
-0.004946
  0
VERTEX
  8
0
 10
281.700072
 20
142.917606
 42
-0.014262
  0
VERTEX
  8
0
 10
277.000000
 20
139.071297
 42
-0.007620
  0
VERTEX
  8
0
 10
268.287873
 20
132.556675
 42
-0.007353
  0
VERTEX
  8
0
 10
259.278132
 20
126.231072
 42
-0.002899
  0
VERTEX
  8
0
 10
250.847948
 20
120.566803
 42
-0.147511
  0
VERTEX
  8
0
 10
248.968535
 20
120.000000
 42
-0.139874
  0
VERTEX
  8
0
 10
247.573286
 20
120.398106
 42
-0.007353
  0
VERTEX
  8
0
 10
243.625830
 20
122.931615
 42
-0.008934
  0
VERTEX
  8
0
 10
239.818169
 20
125.554326
 42
-0.099372
  0
VERTEX
  8
0
 10
238.564647
 20
126.895400
 42
-0.209588
  0
VERTEX
  8
0
 10
238.492605
 20
127.405219
 42
-0.037902
  0
VERTEX
  8
0
 10
238.827129
 20
128.325697
 42
-0.035155
  0
VERTEX
  8
0
 10
239.415109
 20
129.415853
 42
-0.025406
  0
VERTEX
  8
0
 10
240.212847
 20
130.543462
 42
0.000000
  0
VERTEX
  8
0
 10
242.398444
 20
133.321998
 42
0.000000
  0
VERTEX
  8
0
 10
238.985522
 20
135.910999
 42
-0.012280
  0
VERTEX
  8
0
 10
231.647235
 20
141.767102
 42
-0.007777
  0
VERTEX
  8
0
 10
223.372556
 20
148.932035
 42
-0.007428
  0
VERTEX
  8
0
 10
214.795530
 20
156.827646
 42
-0.007590
  0
VERTEX
  8
0
 10
206.519175
 20
164.918920
 42
0.000000
  0
VERTEX
  8
0
 10
194.538350
 20
176.992895
 42
0.000000
  0
VERTEX
  8
0
 10
197.277607
 20
179.732152
 42
0.000000
  0
VERTEX
  8
0
 10
200.016864
 20
182.471409
 42
0.000000
  0
VERTEX
  8
0
 10
168.788241
 20
213.711839
 42
0.000000
  0
VERTEX
  8
0
 10
137.559618
 20
244.952270
 42
0.000000
  0
VERTEX
  8
0
 10
134.757721
 20
242.267882
 42
0.000000
  0
VERTEX
  8
0
 10
131.955823
 20
239.583494
 42
0.000000
  0
VERTEX
  8
0
 10
122.713012
 20
248.787874
 42
0.000000
  0
VERTEX
  8
0
 10
113.470200
 20
257.992254
 42
0.000000
  0
SEQEND
  0
POLYLINE
  8
0
 66
1
 70
1
  0
VERTEX
  8
0
 10
167.749992
 20
193.804895
 42
0.000000
  0
VERTEX
  8
0
 10
178.999985
 20
182.468721
 42
0.000000
  0
VERTEX
  8
0
 10
167.237914
 20
170.737294
 42
0.000000
  0
VERTEX
  8
0
 10
155.475843
 20
159.005867
 42
0.000000
  0
VERTEX
  8
0
 10
135.000655
 20
179.499345
 42
0.000000
  0
VERTEX
  8
0
 10
114.525467
 20
199.992822
 42
0.000000
  0
VERTEX
  8
0
 10
125.941629
 20
211.441463
 42
0.000000
  0
VERTEX
  8
0
 10
137.357791
 20
222.890104
 42
0.000000
  0
VERTEX
  8
0
 10
146.928896
 20
214.015586
 42
-0.003814
  0
VERTEX
  8
0
 10
151.397773
 20
209.808100
 42
-0.001903
  0
VERTEX
  8
0
 10
156.993173
 20
204.417957
 42
-0.001889
  0
VERTEX
  8
0
 10
162.745046
 20
198.792342
 42
-0.002783
  0
SEQEND
  0
POLYLINE
  8
0
 66
1
 70
1
  0
VERTEX
  8
0
 10
377.000000
 20
179.500000
 42
0.000000
  0
VERTEX
  8
0
 10
356.514469
 20
158.996170
 42
0.000000
  0
VERTEX
  8
0
 10
345.014469
 20
170.496170
 42
0.000000
  0
VERTEX
  8
0
 10
333.514469
 20
181.996170
 42
0.000000
  0
VERTEX
  8
0
 10
354.000000
 20
202.500000
 42
0.000000
  0
VERTEX
  8
0
 10
374.485531
 20
223.003830
 42
0.000000
  0
VERTEX
  8
0
 10
385.985531
 20
211.503830
 42
0.000000
  0
VERTEX
  8
0
 10
397.485531
 20
200.003830
 42
0.000000
  0
SEQEND
  0
POLYLINE
  8
0
 66
1
 70
1
  0
VERTEX
  8
0
 10
123.834684
 20
168.337225
 42
0.000000
  0
VERTEX
  8
0
 10
133.169368
 20
159.679985
 42
0.000000
  0
VERTEX
  8
0
 10
98.493115
 20
124.993113
 42
0.000000
  0
VERTEX
  8
0
 10
63.816861
 20
90.306240
 42
0.000000
  0
VERTEX
  8
0
 10
70.158431
 20
85.787938
 42
0.027309
  0
VERTEX
  8
0
 10
79.023980
 20
80.174514
 42
0.027531
  0
VERTEX
  8
0
 10
88.425050
 20
75.577478
 42
0.027859
  0
VERTEX
  8
0
 10
98.160735
 20
72.089200
 42
0.029637
  0
VERTEX
  8
0
 10
108.026121
 20
69.788789
 42
0.000000
  0
VERTEX
  8
0
 10
115.000000
 20
68.592901
 42
0.000000
  0
VERTEX
  8
0
 10
115.000000
 20
59.796451
 42
-0.006637
  0
VERTEX
  8
0
 10
114.940828
 20
55.338840
 42
-0.032553
  0
VERTEX
  8
0
 10
114.710498
 20
52.832185
 42
-0.066950
  0
VERTEX
  8
0
 10
114.295117
 20
51.442323
 42
-0.294790
  0
VERTEX
  8
0
 10
113.610079
 20
51.000000
 42
-0.051729
  0
VERTEX
  8
0
 10
110.238290
 20
51.349773
 42
-0.004362
  0
VERTEX
  8
0
 10
101.687856
 20
53.221055
 42
-0.006000
  0
VERTEX
  8
0
 10
93.198770
 20
55.264134
 42
-0.023023
  0
VERTEX
  8
0
 10
88.000000
 20
56.839423
 42
-0.035985
  0
VERTEX
  8
0
 10
73.089443
 20
63.358969
 42
-0.037195
  0
VERTEX
  8
0
 10
59.440470
 20
71.887480
 42
-0.037397
  0
VERTEX
  8
0
 10
47.272202
 20
82.295830
 42
-0.037240
  0
VERTEX
  8
0
 10
36.771638
 20
94.414361
 42
-0.033814
  0
VERTEX
  8
0
 10
29.804140
 20
105.238358
 42
-0.026617
  0
VERTEX
  8
0
 10
23.723552
 20
117.790391
 42
-0.026956
  0
VERTEX
  8
0
 10
19.105552
 20
130.681356
 42
-0.038928
  0
VERTEX
  8
0
 10
16.555861
 20
142.511554
 42
0.000000
  0
VERTEX
  8
0
 10
15.877914
 20
147.523107
 42
0.000000
  0
VERTEX
  8
0
 10
32.688957
 20
147.525475
 42
0.011860
  0
VERTEX
  8
0
 10
44.969697
 20
147.818548
 42
0.025025
  0
VERTEX
  8
0
 10
54.452335
 20
148.747189
 42
0.026925
  0
VERTEX
  8
0
 10
63.348654
 20
150.564429
 42
0.016153
  0
VERTEX
  8
0
 10
73.691661
 20
153.624316
 42
0.025261
  0
VERTEX
  8
0
 10
82.272901
 20
156.957118
 42
0.017695
  0
VERTEX
  8
0
 10
91.584408
 20
161.528234
 42
0.017893
  0
VERTEX
  8
0
 10
100.298424
 20
166.604930
 42
0.032082
  0
VERTEX
  8
0
 10
107.000000
 20
171.464962
 42
-0.002901
  0
VERTEX
  8
0
 10
109.527432
 20
173.533091
 42
-0.004483
  0
VERTEX
  8
0
 10
111.737500
 20
175.287686
 42
-0.001532
  0
VERTEX
  8
0
 10
113.659682
 20
176.776381
 42
-0.128072
  0
VERTEX
  8
0
 10
114.000000
 20
176.920734
 42
-0.218254
  0
VERTEX
  8
0
 10
114.343326
 20
176.820759
 42
-0.001111
  0
VERTEX
  8
0
 10
117.095188
 20
174.429743
 42
-0.004652
  0
VERTEX
  8
0
 10
120.220105
 20
171.650743
 42
-0.002897
  0
SEQEND
  0
POLYLINE
  8
0
 66
1
 70
1
  0
VERTEX
  8
0
 10
403.500000
 20
172.465486
 42
0.038878
  0
VERTEX
  8
0
 10
416.536779
 20
163.673408
 42
0.032563
  0
VERTEX
  8
0
 10
431.558651
 20
156.407346
 42
0.032029
  0
VERTEX
  8
0
 10
447.679089
 20
151.040443
 42
0.034231
  0
VERTEX
  8
0
 10
464.000000
 20
147.920013
 42
0.024262
  0
VERTEX
  8
0
 10
471.662370
 20
147.367653
 42
0.012317
  0
VERTEX
  8
0
 10
481.330497
 20
147.379101
 42
0.009771
  0
VERTEX
  8
0
 10
490.507563
 20
147.795641
 42
0.075520
  0
VERTEX
  8
0
 10
494.693414
 20
148.712594
 42
-0.570239
  0
VERTEX
  8
0
 10
496.424657
 20
147.340756
 42
-0.019781
  0
VERTEX
  8
0
 10
494.584145
 20
136.952136
 42
-0.023675
  0
VERTEX
  8
0
 10
491.294989
 20
124.698684
 42
-0.028149
  0
VERTEX
  8
0
 10
487.011257
 20
113.517496
 42
-0.044319
  0
VERTEX
  8
0
 10
478.679823
 20
98.648503
 42
-0.039580
  0
VERTEX
  8
0
 10
467.569786
 20
84.865582
 42
-0.039263
  0
VERTEX
  8
0
 10
454.325235
 20
72.898808
 42
-0.041869
  0
VERTEX
  8
0
 10
439.641905
 20
63.433640
 42
-0.019514
  0
VERTEX
  8
0
 10
430.911770
 20
59.217878
 42
-0.028446
  0
VERTEX
  8
0
 10
422.898791
 20
56.256786
 42
-0.023973
  0
VERTEX
  8
0
 10
413.644844
 20
53.902147
 42
-0.009522
  0
VERTEX
  8
0
 10
400.750000
 20
51.526622
 42
0.000000
  0
VERTEX
  8
0
 10
397.000000
 20
50.909374
 42
0.000000
  0
VERTEX
  8
0
 10
397.000000
 20
59.954687
 42
-0.003618
  0
VERTEX
  8
0
 10
397.043481
 20
65.963504
 42
-0.065236
  0
VERTEX
  8
0
 10
397.320550
 20
67.864106
 42
-0.228668
  0
VERTEX
  8
0
 10
398.060863
 20
68.700300
 42
-0.099460
  0
VERTEX
  8
0
 10
399.552595
 20
69.000000
 42
0.073440
  0
VERTEX
  8
0
 10
409.753215
 20
70.506382
 42
0.027752
  0
VERTEX
  8
0
 10
423.333473
 20
75.443908
 42
0.027765
  0
VERTEX
  8
0
 10
437.035040
 20
82.227705
 42
0.042603
  0
VERTEX
  8
0
 10
447.955622
 20
89.705264
 42
0.439954
  0
VERTEX
  8
0
 10
447.973768
 20
90.027190
 42
0.000144
  0
VERTEX
  8
0
 10
438.159931
 20
100.089108
 42
0.001882
  0
VERTEX
  8
0
 10
427.143176
 20
111.293161
 42
0.001127
  0
VERTEX
  8
0
 10
413.968781
 20
124.531229
 42
0.000000
  0
VERTEX
  8
0
 10
379.526318
 20
158.984548
 42
0.000000
  0
VERTEX
  8
0
 10
388.441403
 20
167.941130
 42
-0.008915
  0
VERTEX
  8
0
 10
391.936177
 20
171.329164
 42
-0.014242
  0
VERTEX
  8
0
 10
395.052510
 20
174.082195
 42
-0.008040
  0
VERTEX
  8
0
 10
397.703126
 20
176.221337
 42
-0.307440
  0
VERTEX
  8
0
 10
398.428244
 20
176.269556
 42
-0.025136
  0
VERTEX
  8
0
 10
399.058651
 20
175.856174
 42
-0.003218
  0
VERTEX
  8
0
 10
400.360172
 20
174.892995
 42
-0.003758
  0
VERTEX
  8
0
 10
401.889931
 20
173.727531
 42
-0.003123
  0
SEQEND
  0
POLYLINE
  8
0
 66
1
 70
1
  0
VERTEX
  8
0
 10
249.000000
 20
408.500000
 42
0.000000
  0
VERTEX
  8
0
 10
249.000000
 20
401.000000
 42
0.000000
  0
VERTEX
  8
0
 10
256.500000
 20
401.000000
 42
0.000000
  0
VERTEX
  8
0
 10
264.000000
 20
401.000000
 42
0.000000
  0
VERTEX
  8
0
 10
264.000000
 20
408.500000
 42
0.000000
  0
VERTEX
  8
0
 10
264.000000
 20
416.000000
 42
0.000000
  0
VERTEX
  8
0
 10
256.500000
 20
416.000000
 42
0.000000
  0
VERTEX
  8
0
 10
249.000000
 20
416.000000
 42
0.000000
  0
SEQEND
  0
POLYLINE
  8
0
 66
1
 70
1
  0
VERTEX
  8
0
 10
249.000000
 20
378.500000
 42
0.000000
  0
VERTEX
  8
0
 10
249.000000
 20
371.000000
 42
0.000000
  0
VERTEX
  8
0
 10
256.500000
 20
371.000000
 42
0.000000
  0
VERTEX
  8
0
 10
264.000000
 20
371.000000
 42
0.000000
  0
VERTEX
  8
0
 10
264.000000
 20
378.500000
 42
0.000000
  0
VERTEX
  8
0
 10
264.000000
 20
386.000000
 42
0.000000
  0
VERTEX
  8
0
 10
256.500000
 20
386.000000
 42
0.000000
  0
VERTEX
  8
0
 10
249.000000
 20
386.000000
 42
0.000000
  0
SEQEND
  0
POLYLINE
  8
0
 66
1
 70
1
  0
VERTEX
  8
0
 10
249.000000
 20
348.500000
 42
0.000000
  0
VERTEX
  8
0
 10
249.000000
 20
341.000000
 42
0.000000
  0
VERTEX
  8
0
 10
256.500000
 20
341.000000
 42
0.000000
  0
VERTEX
  8
0
 10
264.000000
 20
341.000000
 42
0.000000
  0
VERTEX
  8
0
 10
264.000000
 20
348.500000
 42
0.000000
  0
VERTEX
  8
0
 10
264.000000
 20
356.000000
 42
0.000000
  0
VERTEX
  8
0
 10
256.500000
 20
356.000000
 42
0.000000
  0
VERTEX
  8
0
 10
249.000000
 20
356.000000
 42
0.000000
  0
SEQEND
  0
POLYLINE
  8
0
 66
1
 70
1
  0
VERTEX
  8
0
 10
249.000000
 20
318.500000
 42
0.000000
  0
VERTEX
  8
0
 10
249.000000
 20
311.000000
 42
0.000000
  0
VERTEX
  8
0
 10
256.500000
 20
311.000000
 42
0.000000
  0
VERTEX
  8
0
 10
264.000000
 20
311.000000
 42
0.000000
  0
VERTEX
  8
0
 10
264.000000
 20
318.500000
 42
0.000000
  0
VERTEX
  8
0
 10
264.000000
 20
326.000000
 42
0.000000
  0
VERTEX
  8
0
 10
256.500000
 20
326.000000
 42
0.000000
  0
VERTEX
  8
0
 10
249.000000
 20
326.000000
 42
0.000000
  0
SEQEND
  0
POLYLINE
  8
0
 66
1
 70
1
  0
VERTEX
  8
0
 10
159.000000
 20
288.500000
 42
0.000000
  0
VERTEX
  8
0
 10
159.000000
 20
281.000000
 42
0.000000
  0
VERTEX
  8
0
 10
166.500000
 20
281.000000
 42
0.000000
  0
VERTEX
  8
0
 10
174.000000
 20
281.000000
 42
0.000000
  0
VERTEX
  8
0
 10
174.000000
 20
288.500000
 42
0.000000
  0
VERTEX
  8
0
 10
174.000000
 20
296.000000
 42
0.000000
  0
VERTEX
  8
0
 10
166.500000
 20
296.000000
 42
0.000000
  0
VERTEX
  8
0
 10
159.000000
 20
296.000000
 42
0.000000
  0
SEQEND
  0
POLYLINE
  8
0
 66
1
 70
1
  0
VERTEX
  8
0
 10
189.000000
 20
288.500000
 42
0.000000
  0
VERTEX
  8
0
 10
189.000000
 20
281.000000
 42
0.000000
  0
VERTEX
  8
0
 10
196.500000
 20
281.000000
 42
0.000000
  0
VERTEX
  8
0
 10
204.000000
 20
281.000000
 42
0.000000
  0
VERTEX
  8
0
 10
204.000000
 20
288.500000
 42
0.000000
  0
VERTEX
  8
0
 10
204.000000
 20
296.000000
 42
0.000000
  0
VERTEX
  8
0
 10
196.500000
 20
296.000000
 42
0.000000
  0
VERTEX
  8
0
 10
189.000000
 20
296.000000
 42
0.000000
  0
SEQEND
  0
POLYLINE
  8
0
 66
1
 70
1
  0
VERTEX
  8
0
 10
219.000000
 20
288.500000
 42
0.000000
  0
VERTEX
  8
0
 10
219.000000
 20
281.000000
 42
0.000000
  0
VERTEX
  8
0
 10
226.500000
 20
281.000000
 42
0.000000
  0
VERTEX
  8
0
 10
234.000000
 20
281.000000
 42
0.000000
  0
VERTEX
  8
0
 10
234.000000
 20
288.500000
 42
0.000000
  0
VERTEX
  8
0
 10
234.000000
 20
296.000000
 42
0.000000
  0
VERTEX
  8
0
 10
226.500000
 20
296.000000
 42
0.000000
  0
VERTEX
  8
0
 10
219.000000
 20
296.000000
 42
0.000000
  0
SEQEND
  0
POLYLINE
  8
0
 66
1
 70
1
  0
VERTEX
  8
0
 10
249.000000
 20
288.500000
 42
0.000000
  0
VERTEX
  8
0
 10
249.000000
 20
281.000000
 42
0.000000
  0
VERTEX
  8
0
 10
256.500000
 20
281.000000
 42
0.000000
  0
VERTEX
  8
0
 10
264.000000
 20
281.000000
 42
0.000000
  0
VERTEX
  8
0
 10
264.000000
 20
288.500000
 42
0.000000
  0
VERTEX
  8
0
 10
264.000000
 20
296.000000
 42
0.000000
  0
VERTEX
  8
0
 10
256.500000
 20
296.000000
 42
0.000000
  0
VERTEX
  8
0
 10
249.000000
 20
296.000000
 42
0.000000
  0
SEQEND
  0
POLYLINE
  8
0
 66
1
 70
1
  0
VERTEX
  8
0
 10
279.000000
 20
288.500000
 42
0.000000
  0
VERTEX
  8
0
 10
279.000000
 20
281.000000
 42
0.000000
  0
VERTEX
  8
0
 10
286.500000
 20
281.000000
 42
0.000000
  0
VERTEX
  8
0
 10
294.000000
 20
281.000000
 42
0.000000
  0
VERTEX
  8
0
 10
294.000000
 20
288.500000
 42
0.000000
  0
VERTEX
  8
0
 10
294.000000
 20
296.000000
 42
0.000000
  0
VERTEX
  8
0
 10
286.500000
 20
296.000000
 42
0.000000
  0
VERTEX
  8
0
 10
279.000000
 20
296.000000
 42
0.000000
  0
SEQEND
  0
POLYLINE
  8
0
 66
1
 70
1
  0
VERTEX
  8
0
 10
309.000000
 20
288.500000
 42
0.000000
  0
VERTEX
  8
0
 10
309.000000
 20
281.000000
 42
0.000000
  0
VERTEX
  8
0
 10
316.500000
 20
281.000000
 42
0.000000
  0
VERTEX
  8
0
 10
324.000000
 20
281.000000
 42
0.000000
  0
VERTEX
  8
0
 10
324.000000
 20
288.500000
 42
0.000000
  0
VERTEX
  8
0
 10
324.000000
 20
296.000000
 42
0.000000
  0
VERTEX
  8
0
 10
316.500000
 20
296.000000
 42
0.000000
  0
VERTEX
  8
0
 10
309.000000
 20
296.000000
 42
0.000000
  0
SEQEND
  0
POLYLINE
  8
0
 66
1
 70
1
  0
VERTEX
  8
0
 10
339.000000
 20
288.500000
 42
0.000000
  0
VERTEX
  8
0
 10
339.000000
 20
281.000000
 42
0.000000
  0
VERTEX
  8
0
 10
346.500000
 20
281.000000
 42
0.000000
  0
VERTEX
  8
0
 10
354.000000
 20
281.000000
 42
0.000000
  0
VERTEX
  8
0
 10
354.000000
 20
288.500000
 42
0.000000
  0
VERTEX
  8
0
 10
354.000000
 20
296.000000
 42
0.000000
  0
VERTEX
  8
0
 10
346.500000
 20
296.000000
 42
0.000000
  0
VERTEX
  8
0
 10
339.000000
 20
296.000000
 42
0.000000
  0
SEQEND
  0
POLYLINE
  8
0
 66
1
 70
1
  0
VERTEX
  8
0
 10
249.000000
 20
258.500000
 42
0.000000
  0
VERTEX
  8
0
 10
249.000000
 20
251.000000
 42
0.000000
  0
VERTEX
  8
0
 10
256.500000
 20
251.000000
 42
0.000000
  0
VERTEX
  8
0
 10
264.000000
 20
251.000000
 42
0.000000
  0
VERTEX
  8
0
 10
264.000000
 20
258.500000
 42
0.000000
  0
VERTEX
  8
0
 10
264.000000
 20
266.000000
 42
0.000000
  0
VERTEX
  8
0
 10
256.500000
 20
266.000000
 42
0.000000
  0
VERTEX
  8
0
 10
249.000000
 20
266.000000
 42
0.000000
  0
SEQEND
  0
ENDSEC
  0
EOF
