  0
SECTION
  2
HEADER
  9
$ACADVER
  1
AC1006
  9
$EXTMIN
 10
0.000000
 20
0.000000
 30
0.000000
  9
$EXTMAX
 10
218.000000
 20
321.000000
 30
0.000000
  0
ENDSEC
  0
SECTION
  2
ENTITIES
  0
POLYLINE
  8
0
 66
1
 70
1
  0
VERTEX
  8
0
 10
0.000000
 20
160.500000
 42
0.000000
  0
VERTEX
  8
0
 10
0.000000
 20
0.000000
 42
0.000000
  0
VERTEX
  8
0
 10
109.000000
 20
0.000000
 42
0.000000
  0
VERTEX
  8
0
 10
218.000000
 20
0.000000
 42
0.000000
  0
VERTEX
  8
0
 10
218.000000
 20
160.500000
 42
0.000000
  0
VERTEX
  8
0
 10
218.000000
 20
321.000000
 42
0.000000
  0
VERTEX
  8
0
 10
109.000000
 20
321.000000
 42
0.000000
  0
VERTEX
  8
0
 10
0.000000
 20
321.000000
 42
0.000000
  0
SEQEND
  0
POLYLINE
  8
0
 66
1
 70
1
  0
VERTEX
  8
0
 10
100.000000
 20
266.500000
 42
0.000000
  0
VERTEX
  8
0
 10
100.000000
 20
239.000000
 42
0.000000
  0
VERTEX
  8
0
 10
68.500000
 20
239.000000
 42
0.000000
  0
VERTEX
  8
0
 10
37.000000
 20
239.000000
 42
0.000000
  0
VERTEX
  8
0
 10
37.000000
 20
266.500000
 42
0.000000
  0
VERTEX
  8
0
 10
37.000000
 20
294.000000
 42
0.000000
  0
VERTEX
  8
0
 10
68.500000
 20
294.000000
 42
0.000000
  0
VERTEX
  8
0
 10
100.000000
 20
294.000000
 42
0.000000
  0
SEQEND
  0
POLYLINE
  8
0
 66
1
 70
1
  0
VERTEX
  8
0
 10
154.783772
 20
292.011810
 42
-0.118032
  0
VERTEX
  8
0
 10
159.281222
 20
288.513801
 42
-0.093237
  0
VERTEX
  8
0
 10
162.184803
 20
283.054913
 42
-0.093485
  0
VERTEX
  8
0
 10
162.901733
 20
276.927567
 42
-0.119516
  0
VERTEX
  8
0
 10
161.185120
 20
271.528836
 42
0.000000
  0
VERTEX
  8
0
 10
159.380769
 20
268.557673
 42
0.000000
  0
VERTEX
  8
0
 10
163.099871
 20
265.019776
 42
-0.093738
  0
VERTEX
  8
0
 10
166.614751
 20
260.131908
 42
-0.102484
  0
VERTEX
  8
0
 10
167.958516
 20
254.450360
 42
-0.102580
  0
VERTEX
  8
0
 10
166.934384
 20
248.706775
 42
-0.094085
  0
VERTEX
  8
0
 10
163.698421
 20
243.641711
 42
-0.068704
  0
VERTEX
  8
0
 10
160.315395
 20
240.920121
 42
-0.067936
  0
VERTEX
  8
0
 10
156.308879
 20
239.204367
 42
-0.049331
  0
VERTEX
  8
0
 10
150.964199
 20
238.284901
 42
-0.017797
  0
VERTEX
  8
0
 10
143.250000
 20
238.005577
 42
0.000000
  0
VERTEX
  8
0
 10
134.000000
 20
238.000000
 42
0.000000
  0
VERTEX
  8
0
 10
134.000000
 20
266.000000
 42
0.000000
  0
VERTEX
  8
0
 10
134.000000
 20
294.000000
 42
0.000000
  0
VERTEX
  8
0
 10
142.250000
 20
293.978038
 42
-0.012915
  0
VERTEX
  8
0
 10
146.351245
 20
293.861163
 42
-0.025328
  0
VERTEX
  8
0
 10
149.598365
 20
293.519082
 42
-0.030841
  0
VERTEX
  8
0
 10
152.319101
 20
292.918470
 42
-0.036800
  0
SEQEND
  0
POLYLINE
  8
0
 66
1
 70
1
  0
VERTEX
  8
0
 10
210.000000
 20
290.032751
 42
0.000000
  0
VERTEX
  8
0
 10
210.000000
 20
286.065502
 42
0.000000
  0
VERTEX
  8
0
 10
198.750000
 20
285.782751
 42
0.000000
  0
VERTEX
  8
0
 10
187.500000
 20
285.500000
 42
0.000000
  0
VERTEX
  8
0
 10
187.202283
 20
279.250000
 42
0.000000
  0
VERTEX
  8
0
 10
186.904565
 20
273.000000
 42
0.000000
  0
VERTEX
  8
0
 10
197.952283
 20
273.000000
 42
0.000000
  0
VERTEX
  8
0
 10
209.000000
 20
273.000000
 42
0.000000
  0
VERTEX
  8
0
 10
209.000000
 20
268.500000
 42
0.000000
  0
VERTEX
  8
0
 10
209.000000
 20
264.000000
 42
0.000000
  0
VERTEX
  8
0
 10
197.961067
 20
264.000000
 42
0.000000
  0
VERTEX
  8
0
 10
186.922134
 20
264.000000
 42
0.000000
  0
VERTEX
  8
0
 10
187.211067
 20
255.250000
 42
0.000000
  0
VERTEX
  8
0
 10
187.500000
 20
246.500000
 42
0.000000
  0
VERTEX
  8
0
 10
198.750000
 20
246.217249
 42
0.000000
  0
VERTEX
  8
0
 10
210.000000
 20
245.934498
 42
0.000000
  0
VERTEX
  8
0
 10
210.000000
 20
241.967249
 42
0.000000
  0
VERTEX
  8
0
 10
210.000000
 20
238.000000
 42
0.000000
  0
VERTEX
  8
0
 10
194.000000
 20
238.000000
 42
0.000000
  0
VERTEX
  8
0
 10
178.000000
 20
238.000000
 42
0.000000
  0
VERTEX
  8
0
 10
178.000000
 20
266.000000
 42
0.000000
  0
VERTEX
  8
0
 10
178.000000
 20
294.000000
 42
0.000000
  0
VERTEX
  8
0
 10
194.000000
 20
294.000000
 42
0.000000
  0
VERTEX
  8
0
 10
210.000000
 20
294.000000
 42
0.000000
  0
SEQEND
  0
POLYLINE
  8
0
 66
1
 70
1
  0
VERTEX
  8
0
 10
94.500000
 20
223.484975
 42
-0.051420
  0
VERTEX
  8
0
 10
98.401136
 20
221.066210
 42
-0.031601
  0
VERTEX
  8
0
 10
102.466069
 20
217.494238
 42
-0.031562
  0
VERTEX
  8
0
 10
106.058399
 20
213.427813
 42
-0.050291
  0
VERTEX
  8
0
 10
108.520803
 20
209.500000
 42
-0.039784
  0
VERTEX
  8
0
 10
109.472028
 20
207.118109
 42
-0.035864
  0
VERTEX
  8
0
 10
110.074141
 20
204.531747
 42
-0.027726
  0
VERTEX
  8
0
 10
110.399909
 20
201.336232
 42
-0.011540
  0
VERTEX
  8
0
 10
110.500000
 20
197.000000
 42
-0.029683
  0
VERTEX
  8
0
 10
110.100016
 20
190.268293
 42
-0.065346
  0
VERTEX
  8
0
 10
108.831243
 20
185.282795
 42
-0.068796
  0
VERTEX
  8
0
 10
106.368663
 20
180.952572
 42
-0.036065
  0
VERTEX
  8
0
 10
102.243526
 20
176.310991
 42
-0.115909
  0
VERTEX
  8
0
 10
90.995440
 20
169.547836
 42
-0.112995
  0
VERTEX
  8
0
 10
77.802124
 20
168.416649
 42
-0.112430
  0
VERTEX
  8
0
 10
65.379071
 20
173.141358
 42
-0.113828
  0
VERTEX
  8
0
 10
56.292834
 20
182.763289
 42
-0.074488
  0
VERTEX
  8
0
 10
54.084467
 20
188.270096
 42
-0.042907
  0
VERTEX
  8
0
 10
53.036258
 20
195.352892
 42
-0.042970
  0
VERTEX
  8
0
 10
53.212639
 20
202.486394
 42
-0.076616
  0
VERTEX
  8
0
 10
54.738593
 20
208.141950
 42
-0.046749
  0
VERTEX
  8
0
 10
57.768021
 20
213.559079
 42
-0.054171
  0
VERTEX
  8
0
 10
61.625096
 20
218.032281
 42
-0.052153
  0
VERTEX
  8
0
 10
66.483283
 20
221.700861
 42
-0.038679
  0
VERTEX
  8
0
 10
72.500000
 20
224.721272
 42
-0.084236
  0
VERTEX
  8
0
 10
76.797671
 20
225.681658
 42
-0.026985
  0
VERTEX
  8
0
 10
83.362884
 20
225.667355
 42
-0.027389
  0
VERTEX
  8
0
 10
89.966479
 20
224.931995
 42
-0.071771
  0
SEQEND
  0
POLYLINE
  8
0
 66
1
 70
1
  0
VERTEX
  8
0
 10
22.554330
 20
214.990488
 42
0.003062
  0
VERTEX
  8
0
 10
24.774626
 20
211.124529
 42
0.004673
  0
VERTEX
  8
0
 10
26.752871
 20
207.800188
 42
0.001783
  0
VERTEX
  8
0
 10
28.485838
 20
204.971776
 42
0.116511
  0
VERTEX
  8
0
 10
28.888710
 20
204.568781
 42
0.401131
  0
VERTEX
  8
0
 10
29.301287
 20
204.656454
 42
0.004148
  0
VERTEX
  8
0
 10
31.098017
 20
207.339044
 42
0.010231
  0
VERTEX
  8
0
 10
33.156209
 20
210.611773
 42
0.006130
  0
VERTEX
  8
0
 10
35.473191
 20
214.578293
 42
0.000000
  0
VERTEX
  8
0
 10
41.390726
 20
225.000000
 42
0.000000
  0
VERTEX
  8
0
 10
46.737517
 20
225.000000
 42
0.000000
  0
VERTEX
  8
0
 10
52.084308
 20
225.000000
 42
0.000000
  0
VERTEX
  8
0
 10
49.624148
 20
220.750000
 42
-0.000357
  0
VERTEX
  8
0
 10
48.266336
 20
218.408201
 42
-0.000081
  0
VERTEX
  8
0
 10
45.953199
 20
214.426808
 42
-0.000083
  0
VERTEX
  8
0
 10
43.282333
 20
209.833155
 42
-0.000081
  0
VERTEX
  8
0
 10
40.581994
 20
205.192324
 42
0.000000
  0
VERTEX
  8
0
 10
34.000000
 20
193.884649
 42
0.000000
  0
VERTEX
  8
0
 10
34.000000
 20
181.442324
 42
0.000000
  0
VERTEX
  8
0
 10
34.000000
 20
169.000000
 42
0.000000
  0
VERTEX
  8
0
 10
29.500000
 20
169.000000
 42
0.000000
  0
VERTEX
  8
0
 10
25.000000
 20
169.000000
 42
0.000000
  0
VERTEX
  8
0
 10
25.000000
 20
180.630407
 42
0.000000
  0
VERTEX
  8
0
 10
25.000000
 20
192.260814
 42
0.000000
  0
VERTEX
  8
0
 10
16.000000
 20
208.000000
 42
-0.001614
  0
VERTEX
  8
0
 10
12.549909
 20
214.078982
 42
-0.002574
  0
VERTEX
  8
0
 10
9.643750
 20
219.300982
 42
-0.000535
  0
VERTEX
  8
0
 10
7.118667
 20
223.905386
 42
-0.125794
  0
VERTEX
  8
0
 10
7.000000
 20
224.369593
 42
-0.360956
  0
VERTEX
  8
0
 10
7.206993
 20
224.618965
 42
-0.014589
  0
VERTEX
  8
0
 10
8.452138
 20
224.814818
 42
-0.019740
  0
VERTEX
  8
0
 10
10.048165
 20
224.954609
 42
-0.011973
  0
VERTEX
  8
0
 10
11.943448
 20
225.000000
 42
0.000000
  0
VERTEX
  8
0
 10
16.886895
 20
225.000000
 42
0.000000
  0
SEQEND
  0
POLYLINE
  8
0
 66
1
 70
1
  0
VERTEX
  8
0
 10
129.005577
 20
207.250000
 42
0.007350
  0
VERTEX
  8
0
 10
129.195254
 20
194.617702
 42
0.034534
  0
VERTEX
  8
0
 10
129.910750
 20
187.396120
 42
0.063045
  0
VERTEX
  8
0
 10
131.319471
 20
182.738700
 42
0.101280
  0
VERTEX
  8
0
 10
133.726909
 20
179.377288
 42
0.110864
  0
VERTEX
  8
0
 10
136.596805
 20
177.708913
 42
0.062011
  0
VERTEX
  8
0
 10
140.587562
 20
176.974910
 42
0.061753
  0
VERTEX
  8
0
 10
144.661339
 20
177.241388
 42
0.105980
  0
VERTEX
  8
0
 10
147.783205
 20
178.560704
 42
0.099181
  0
VERTEX
  8
0
 10
150.608805
 20
181.521326
 42
0.093452
  0
VERTEX
  8
0
 10
152.150417
 20
185.403670
 42
0.042213
  0
VERTEX
  8
0
 10
152.844435
 20
191.849793
 42
0.005719
  0
VERTEX
  8
0
 10
153.000000
 20
205.450340
 42
0.000000
  0
VERTEX
  8
0
 10
153.000000
 20
225.000000
 42
0.000000
  0
VERTEX
  8
0
 10
157.569920
 20
225.000000
 42
0.000000
  0
VERTEX
  8
0
 10
162.139840
 20
225.000000
 42
0.000000
  0
VERTEX
  8
0
 10
161.819920
 20
203.250000
 42
-0.002001
  0
VERTEX
  8
0
 10
161.568564
 20
189.816666
 42
-0.019557
  0
VERTEX
  8
0
 10
161.217906
 20
184.151655
 42
-0.047816
  0
VERTEX
  8
0
 10
160.537037
 20
180.731194
 42
-0.066173
  0
VERTEX
  8
0
 10
159.250962
 20
177.883523
 42
-0.120325
  0
VERTEX
  8
0
 10
152.460960
 20
171.234076
 42
-0.112487
  0
VERTEX
  8
0
 10
143.199203
 20
168.252881
 42
-0.112299
  0
VERTEX
  8
0
 10
133.547655
 20
169.576438
 42
-0.119600
  0
VERTEX
  8
0
 10
125.671424
 20
174.941934
 42
-0.077904
  0
VERTEX
  8
0
 10
122.757095
 20
179.397750
 42
-0.062302
  0
VERTEX
  8
0
 10
121.063616
 20
184.886314
 42
-0.035830
  0
VERTEX
  8
0
 10
120.221583
 20
193.016025
 42
-0.007894
  0
VERTEX
  8
0
 10
120.000000
 20
207.049221
 42
0.000000
  0
VERTEX
  8
0
 10
120.000000
 20
225.000000
 42
0.000000
  0
VERTEX
  8
0
 10
124.500000
 20
225.000000
 42
0.000000
  0
VERTEX
  8
0
 10
129.000000
 20
225.000000
 42
0.000000
  0
SEQEND
  0
POLYLINE
  8
0
 66
1
 70
1
  0
VERTEX
  8
0
 10
198.902903
 20
222.483718
 42
-0.049010
  0
VERTEX
  8
0
 10
202.553197
 20
219.835425
 42
-0.087106
  0
VERTEX
  8
0
 10
204.857414
 20
216.935605
 42
-0.083210
  0
VERTEX
  8
0
 10
206.099230
 20
213.329340
 42
-0.041422
  0
VERTEX
  8
0
 10
206.500000
 20
208.500000
 42
-0.041775
  0
VERTEX
  8
0
 10
206.090762
 20
203.610401
 42
-0.084708
  0
VERTEX
  8
0
 10
204.821714
 20
199.976849
 42
-0.089784
  0
VERTEX
  8
0
 10
202.478537
 20
197.103508
 42
-0.051682
  0
VERTEX
  8
0
 10
198.792307
 20
194.558163
 42
0.000000
  0
VERTEX
  8
0
 10
195.246657
 20
192.616326
 42
0.000000
  0
VERTEX
  8
0
 10
202.932423
 20
182.058163
 42
-0.000920
  0
VERTEX
  8
0
 10
205.931476
 20
177.922299
 42
-0.001308
  0
VERTEX
  8
0
 10
208.580786
 20
174.234273
 42
-0.000725
  0
VERTEX
  8
0
 10
210.807279
 20
171.108078
 42
-0.019264
  0
VERTEX
  8
0
 10
211.368112
 20
170.250000
 42
-0.299618
  0
VERTEX
  8
0
 10
211.344154
 20
169.677697
 42
-0.174051
  0
VERTEX
  8
0
 10
210.754888
 20
169.272741
 42
-0.054206
  0
VERTEX
  8
0
 10
209.304505
 20
169.054809
 42
-0.010209
  0
VERTEX
  8
0
 10
206.620520
 20
169.000000
 42
0.000000
  0
VERTEX
  8
0
 10
201.123005
 20
169.000000
 42
0.000000
  0
VERTEX
  8
0
 10
193.500000
 20
180.000000
 42
0.005390
  0
VERTEX
  8
0
 10
190.510302
 20
184.216324
 42
0.008452
  0
VERTEX
  8
0
 10
187.840569
 20
187.768750
 42
0.003412
  0
VERTEX
  8
0
 10
185.504792
 20
190.727924
 42
0.227763
  0
VERTEX
  8
0
 10
184.938497
 20
191.000000
 42
0.380990
  0
VERTEX
  8
0
 10
184.556007
 20
190.659061
 42
0.007409
  0
VERTEX
  8
0
 10
184.271329
 20
187.819784
 42
0.013566
  0
VERTEX
  8
0
 10
184.066092
 20
184.284089
 42
0.007713
  0
VERTEX
  8
0
 10
184.000000
 20
180.000000
 42
0.000000
  0
VERTEX
  8
0
 10
184.000000
 20
169.000000
 42
0.000000
  0
VERTEX
  8
0
 10
179.500000
 20
169.000000
 42
0.000000
  0
VERTEX
  8
0
 10
175.000000
 20
169.000000
 42
0.000000
  0
VERTEX
  8
0
 10
175.000000
 20
197.113419
 42
0.000000
  0
VERTEX
  8
0
 10
175.000000
 20
225.226839
 42
0.000000
  0
VERTEX
  8
0
 10
185.257434
 20
224.847137
 42
-0.008407
  0
VERTEX
  8
0
 10
190.507996
 20
224.564308
 42
-0.025223
  0
VERTEX
  8
0
 10
194.072537
 20
224.130649
 42
-0.036592
  0
VERTEX
  8
0
 10
196.713414
 20
223.471346
 42
-0.053022
  0
SEQEND
  0
POLYLINE
  8
0
 66
1
 70
1
  0
VERTEX
  8
0
 10
197.963121
 20
136.250000
 42
0.000000
  0
VERTEX
  8
0
 10
198.000000
 20
155.000000
 42
0.000000
  0
VERTEX
  8
0
 10
202.500000
 20
155.000000
 42
0.000000
  0
VERTEX
  8
0
 10
207.000000
 20
155.000000
 42
0.000000
  0
VERTEX
  8
0
 10
207.000000
 20
125.416667
 42
-0.002448
  0
VERTEX
  8
0
 10
206.944566
 20
114.095631
 42
-0.004153
  0
VERTEX
  8
0
 10
206.773076
 20
104.621354
 42
-0.000756
  0
VERTEX
  8
0
 10
206.542598
 20
96.367311
 42
-0.529774
  0
VERTEX
  8
0
 10
206.227492
 20
96.166667
 42
-0.096991
  0
VERTEX
  8
0
 10
205.689269
 20
96.535466
 42
-0.000313
  0
VERTEX
  8
0
 10
199.960395
 20
102.372368
 42
-0.001740
  0
VERTEX
  8
0
 10
193.499942
 20
109.008934
 42
-0.001087
  0
VERTEX
  8
0
 10
185.977492
 20
116.824374
 42
0.000000
  0
VERTEX
  8
0
 10
166.500000
 20
137.148748
 42
0.000000
  0
VERTEX
  8
0
 10
166.228407
 20
118.074374
 42
0.000000
  0
VERTEX
  8
0
 10
165.956814
 20
99.000000
 42
0.000000
  0
VERTEX
  8
0
 10
161.478407
 20
99.000000
 42
0.000000
  0
VERTEX
  8
0
 10
157.000000
 20
99.000000
 42
0.000000
  0
VERTEX
  8
0
 10
157.040917
 20
129.250000
 42
0.000000
  0
VERTEX
  8
0
 10
157.081834
 20
159.500000
 42
0.000000
  0
VERTEX
  8
0
 10
177.504038
 20
138.500000
 42
0.000000
  0
VERTEX
  8
0
 10
197.926243
 20
117.500000
 42
0.000000
  0
SEQEND
  0
POLYLINE
  8
0
 66
1
 70
1
  0
VERTEX
  8
0
 10
118.532328
 20
140.750000
 42
0.000707
  0
VERTEX
  8
0
 10
120.847120
 20
134.326990
 42
0.000928
  0
VERTEX
  8
0
 10
122.979161
 20
128.471182
 42
0.000674
  0
VERTEX
  8
0
 10
124.782166
 20
123.568032
 42
0.008891
  0
VERTEX
  8
0
 10
125.483095
 20
121.768918
 42
0.364896
  0
VERTEX
  8
0
 10
126.432846
 20
121.272362
 42
0.213940
  0
VERTEX
  8
0
 10
127.528708
 20
122.087510
 42
0.027986
  0
VERTEX
  8
0
 10
129.349477
 20
125.820827
 42
0.001796
  0
VERTEX
  8
0
 10
134.007790
 20
137.018918
 42
0.000000
  0
VERTEX
  8
0
 10
141.412130
 20
155.000000
 42
0.000000
  0
VERTEX
  8
0
 10
146.313054
 20
155.000000
 42
-0.009511
  0
VERTEX
  8
0
 10
149.079789
 20
154.947366
 42
-0.088420
  0
VERTEX
  8
0
 10
150.242961
 20
154.694058
 42
-0.266323
  0
VERTEX
  8
0
 10
150.659999
 20
154.156073
 42
-0.124684
  0
VERTEX
  8
0
 10
150.560638
 20
153.250000
 42
-0.010607
  0
VERTEX
  8
0
 10
146.783542
 20
143.752740
 42
-0.001085
  0
VERTEX
  8
0
 10
137.318580
 20
121.484551
 42
-0.000069
  0
VERTEX
  8
0
 10
126.550339
 20
96.311639
 42
-0.304561
  0
VERTEX
  8
0
 10
126.084137
 20
96.009405
 42
-0.303596
  0
VERTEX
  8
0
 10
125.769171
 20
96.227487
 42
-0.000822
  0
VERTEX
  8
0
 10
123.768259
 20
101.325100
 42
-0.004374
  0
VERTEX
  8
0
 10
121.546878
 20
107.162016
 42
-0.002667
  0
VERTEX
  8
0
 10
119.020573
 20
114.092182
 42
0.002227
  0
VERTEX
  8
0
 10
116.491738
 20
121.048298
 42
0.003551
  0
VERTEX
  8
0
 10
114.261250
 20
126.969741
 42
0.000810
  0
VERTEX
  8
0
 10
112.264388
 20
132.133953
 42
0.163082
  0
VERTEX
  8
0
 10
111.917392
 20
132.551054
 42
0.460417
  0
VERTEX
  8
0
 10
111.563333
 20
132.437877
 42
0.001360
  0
VERTEX
  8
0
 10
109.458009
 20
127.398258
 42
0.005764
  0
VERTEX
  8
0
 10
107.101222
 20
121.522696
 42
0.003421
  0
VERTEX
  8
0
 10
104.420933
 20
114.468278
 42
-0.002616
  0
VERTEX
  8
0
 10
101.743613
 20
107.387354
 42
-0.004293
  0
VERTEX
  8
0
 10
99.394590
 20
101.425057
 42
-0.000790
  0
VERTEX
  8
0
 10
97.280376
 20
96.214699
 42
-0.304889
  0
VERTEX
  8
0
 10
96.961011
 20
96.000000
 42
-0.304082
  0
VERTEX
  8
0
 10
96.490837
 20
96.315076
 42
-0.000227
  0
VERTEX
  8
0
 10
90.647067
 20
110.549648
 42
-0.001926
  0
VERTEX
  8
0
 10
83.436405
 20
128.331334
 42
-0.000689
  0
VERTEX
  8
0
 10
73.283320
 20
153.750000
 42
-0.290731
  0
VERTEX
  8
0
 10
73.390009
 20
154.313175
 42
-0.137443
  0
VERTEX
  8
0
 10
74.049035
 20
154.712290
 42
-0.054814
  0
VERTEX
  8
0
 10
75.436165
 20
154.938769
 42
-0.013082
  0
VERTEX
  8
0
 10
77.776072
 20
155.000000
 42
0.000000
  0
VERTEX
  8
0
 10
82.766121
 20
155.000000
 42
0.000000
  0
VERTEX
  8
0
 10
87.341323
 20
143.250000
 42
-0.000378
  0
VERTEX
  8
0
 10
89.252884
 20
138.329733
 42
-0.000347
  0
VERTEX
  8
0
 10
91.213087
 20
133.262500
 42
-0.000346
  0
VERTEX
  8
0
 10
92.956021
 20
128.738280
 42
-0.001141
  0
VERTEX
  8
0
 10
94.097045
 20
125.750000
 42
0.008778
  0
VERTEX
  8
0
 10
94.976992
 20
123.547035
 42
0.013854
  0
VERTEX
  8
0
 10
95.816582
 20
121.693327
 42
0.007789
  0
VERTEX
  8
0
 10
96.572111
 20
120.200677
 42
0.284956
  0
VERTEX
  8
0
 10
96.888783
 20
120.014516
 42
0.297854
  0
VERTEX
  8
0
 10
97.221094
 20
120.243191
 42
0.000843
  0
VERTEX
  8
0
 10
99.347677
 20
125.454879
 42
0.004413
  0
VERTEX
  8
0
 10
101.711239
 20
131.426028
 42
0.002694
  0
VERTEX
  8
0
 10
104.401182
 20
138.514516
 42
-0.003112
  0
VERTEX
  8
0
 10
107.097477
 20
145.601883
 42
-0.005090
  0
VERTEX
  8
0
 10
109.480701
 20
151.569889
 42
-0.001109
  0
VERTEX
  8
0
 10
111.622952
 20
156.747142
 42
-0.302842
  0
VERTEX
  8
0
 10
112.002139
 20
157.000000
 42
-0.304659
  0
VERTEX
  8
0
 10
112.376676
 20
156.748438
 42
-0.001447
  0
VERTEX
  8
0
 10
114.209039
 20
152.226562
 42
-0.005832
  0
VERTEX
  8
0
 10
116.246591
 20
146.980185
 42
-0.003573
  0
SEQEND
  0
POLYLINE
  8
0
 66
1
 70
1
  0
VERTEX
  8
0
 10
54.500000
 20
153.484975
 42
-0.051420
  0
VERTEX
  8
0
 10
58.401136
 20
151.066210
 42
-0.031601
  0
VERTEX
  8
0
 10
62.466069
 20
147.494238
 42
-0.031562
  0
VERTEX
  8
0
 10
66.058399
 20
143.427813
 42
-0.050291
  0
VERTEX
  8
0
 10
68.520803
 20
139.500000
 42
-0.039784
  0
VERTEX
  8
0
 10
69.472028
 20
137.118109
 42
-0.035864
  0
VERTEX
  8
0
 10
70.074141
 20
134.531747
 42
-0.027726
  0
VERTEX
  8
0
 10
70.399909
 20
131.336232
 42
-0.011540
  0
VERTEX
  8
0
 10
70.500000
 20
127.000000
 42
-0.029683
  0
VERTEX
  8
0
 10
70.100016
 20
120.268293
 42
-0.065346
  0
VERTEX
  8
0
 10
68.831243
 20
115.282795
 42
-0.068796
  0
VERTEX
  8
0
 10
66.368663
 20
110.952572
 42
-0.036065
  0
VERTEX
  8
0
 10
62.243526
 20
106.310991
 42
-0.115909
  0
VERTEX
  8
0
 10
50.995440
 20
99.547836
 42
-0.112995
  0
VERTEX
  8
0
 10
37.802124
 20
98.416649
 42
-0.112430
  0
VERTEX
  8
0
 10
25.379071
 20
103.141358
 42
-0.113828
  0
VERTEX
  8
0
 10
16.292834
 20
112.763289
 42
-0.074488
  0
VERTEX
  8
0
 10
14.084467
 20
118.270096
 42
-0.042907
  0
VERTEX
  8
0
 10
13.036258
 20
125.352892
 42
-0.042970
  0
VERTEX
  8
0
 10
13.212639
 20
132.486394
 42
-0.076616
  0
VERTEX
  8
0
 10
14.738593
 20
138.141950
 42
-0.046749
  0
VERTEX
  8
0
 10
17.768021
 20
143.559079
 42
-0.054171
  0
VERTEX
  8
0
 10
21.625096
 20
148.032281
 42
-0.052153
  0
VERTEX
  8
0
 10
26.483283
 20
151.700861
 42
-0.038679
  0
VERTEX
  8
0
 10
32.500000
 20
154.721272
 42
-0.084236
  0
VERTEX
  8
0
 10
36.797671
 20
155.681658
 42
-0.026985
  0
VERTEX
  8
0
 10
43.362884
 20
155.667355
 42
-0.027389
  0
VERTEX
  8
0
 10
49.966479
 20
154.931995
 42
-0.071771
  0
SEQEND
  0
POLYLINE
  8
0
 66
1
 70
1
  0
VERTEX
  8
0
 10
192.500000
 20
84.484975
 42
-0.051420
  0
VERTEX
  8
0
 10
196.401136
 20
82.066210
 42
-0.031601
  0
VERTEX
  8
0
 10
200.466069
 20
78.494238
 42
-0.031562
  0
VERTEX
  8
0
 10
204.058399
 20
74.427813
 42
-0.050291
  0
VERTEX
  8
0
 10
206.520803
 20
70.500000
 42
-0.039784
  0
VERTEX
  8
0
 10
207.472028
 20
68.118109
 42
-0.035864
  0
VERTEX
  8
0
 10
208.074141
 20
65.531747
 42
-0.027726
  0
VERTEX
  8
0
 10
208.399909
 20
62.336232
 42
-0.011540
  0
VERTEX
  8
0
 10
208.500000
 20
58.000000
 42
-0.029683
  0
VERTEX
  8
0
 10
208.100016
 20
51.268293
 42
-0.065346
  0
VERTEX
  8
0
 10
206.831243
 20
46.282795
 42
-0.068796
  0
VERTEX
  8
0
 10
204.368663
 20
41.952572
 42
-0.036065
  0
VERTEX
  8
0
 10
200.243526
 20
37.310991
 42
-0.115909
  0
VERTEX
  8
0
 10
188.995440
 20
30.547836
 42
-0.112995
  0
VERTEX
  8
0
 10
175.802124
 20
29.416649
 42
-0.112430
  0
VERTEX
  8
0
 10
163.379071
 20
34.141358
 42
-0.113828
  0
VERTEX
  8
0
 10
154.292834
 20
43.763289
 42
-0.074488
  0
VERTEX
  8
0
 10
152.084467
 20
49.270096
 42
-0.042907
  0
VERTEX
  8
0
 10
151.036258
 20
56.352892
 42
-0.042970
  0
VERTEX
  8
0
 10
151.212639
 20
63.486394
 42
-0.076616
  0
VERTEX
  8
0
 10
152.738593
 20
69.141950
 42
-0.046749
  0
VERTEX
  8
0
 10
155.768021
 20
74.559079
 42
-0.054171
  0
VERTEX
  8
0
 10
159.625096
 20
79.032281
 42
-0.052153
  0
VERTEX
  8
0
 10
164.483283
 20
82.700861
 42
-0.038679
  0
VERTEX
  8
0
 10
170.500000
 20
85.721272
 42
-0.084236
  0
VERTEX
  8
0
 10
174.797671
 20
86.681658
 42
-0.026985
  0
VERTEX
  8
0
 10
181.362884
 20
86.667355
 42
-0.027389
  0
VERTEX
  8
0
 10
187.966479
 20
85.931995
 42
-0.071771
  0
SEQEND
  0
POLYLINE
  8
0
 66
1
 70
1
  0
VERTEX
  8
0
 10
24.216168
 20
75.250000
 42
0.000000
  0
VERTEX
  8
0
 10
24.500000
 20
64.500000
 42
0.000000
  0
VERTEX
  8
0
 10
36.000000
 20
64.500000
 42
0.000000
  0
VERTEX
  8
0
 10
47.500000
 20
64.500000
 42
0.000000
  0
VERTEX
  8
0
 10
47.783832
 20
75.250000
 42
0.000000
  0
VERTEX
  8
0
 10
48.067663
 20
86.000000
 42
0.000000
  0
VERTEX
  8
0
 10
52.533832
 20
86.000000
 42
0.000000
  0
VERTEX
  8
0
 10
57.000000
 20
86.000000
 42
0.000000
  0
VERTEX
  8
0
 10
57.000000
 20
58.000000
 42
0.000000
  0
VERTEX
  8
0
 10
57.000000
 20
30.000000
 42
0.000000
  0
VERTEX
  8
0
 10
52.500000
 20
30.000000
 42
0.000000
  0
VERTEX
  8
0
 10
48.000000
 20
30.000000
 42
0.000000
  0
VERTEX
  8
0
 10
48.000000
 20
43.000000
 42
0.000000
  0
VERTEX
  8
0
 10
48.000000
 20
56.000000
 42
0.000000
  0
VERTEX
  8
0
 10
36.000000
 20
56.000000
 42
0.000000
  0
VERTEX
  8
0
 10
24.000000
 20
56.000000
 42
0.000000
  0
VERTEX
  8
0
 10
24.000000
 20
43.000000
 42
0.000000
  0
VERTEX
  8
0
 10
24.000000
 20
30.000000
 42
0.000000
  0
VERTEX
  8
0
 10
19.500000
 20
30.000000
 42
0.000000
  0
VERTEX
  8
0
 10
15.000000
 20
30.000000
 42
0.000000
  0
VERTEX
  8
0
 10
15.000000
 20
58.000000
 42
0.000000
  0
VERTEX
  8
0
 10
15.000000
 20
86.000000
 42
0.000000
  0
VERTEX
  8
0
 10
19.466168
 20
86.000000
 42
0.000000
  0
VERTEX
  8
0
 10
23.932337
 20
86.000000
 42
0.000000
  0
SEQEND
  0
POLYLINE
  8
0
 66
1
 70
1
  0
VERTEX
  8
0
 10
101.000000
 20
82.032751
 42
0.000000
  0
VERTEX
  8
0
 10
101.000000
 20
78.065502
 42
0.000000
  0
VERTEX
  8
0
 10
89.750000
 20
77.782751
 42
0.000000
  0
VERTEX
  8
0
 10
78.500000
 20
77.500000
 42
0.000000
  0
VERTEX
  8
0
 10
78.202283
 20
71.250000
 42
0.000000
  0
VERTEX
  8
0
 10
77.904565
 20
65.000000
 42
0.000000
  0
VERTEX
  8
0
 10
88.952283
 20
65.000000
 42
0.000000
  0
VERTEX
  8
0
 10
100.000000
 20
65.000000
 42
0.000000
  0
VERTEX
  8
0
 10
100.000000
 20
60.500000
 42
0.000000
  0
VERTEX
  8
0
 10
100.000000
 20
56.000000
 42
0.000000
  0
VERTEX
  8
0
 10
88.961067
 20
56.000000
 42
0.000000
  0
VERTEX
  8
0
 10
77.922134
 20
56.000000
 42
0.000000
  0
VERTEX
  8
0
 10
78.211067
 20
47.250000
 42
0.000000
  0
VERTEX
  8
0
 10
78.500000
 20
38.500000
 42
0.000000
  0
VERTEX
  8
0
 10
89.750000
 20
38.217249
 42
0.000000
  0
VERTEX
  8
0
 10
101.000000
 20
37.934498
 42
0.000000
  0
VERTEX
  8
0
 10
101.000000
 20
33.967249
 42
0.000000
  0
VERTEX
  8
0
 10
101.000000
 20
30.000000
 42
0.000000
  0
VERTEX
  8
0
 10
85.000000
 20
30.000000
 42
0.000000
  0
VERTEX
  8
0
 10
69.000000
 20
30.000000
 42
0.000000
  0
VERTEX
  8
0
 10
69.000000
 20
58.000000
 42
0.000000
  0
VERTEX
  8
0
 10
69.000000
 20
86.000000
 42
0.000000
  0
VERTEX
  8
0
 10
85.000000
 20
86.000000
 42
0.000000
  0
VERTEX
  8
0
 10
101.000000
 20
86.000000
 42
0.000000
  0
SEQEND
  0
POLYLINE
  8
0
 66
1
 70
1
  0
VERTEX
  8
0
 10
133.902903
 20
83.483718
 42
-0.049010
  0
VERTEX
  8
0
 10
137.553197
 20
80.835425
 42
-0.087106
  0
VERTEX
  8
0
 10
139.857414
 20
77.935605
 42
-0.083210
  0
VERTEX
  8
0
 10
141.099230
 20
74.329340
 42
-0.041422
  0
VERTEX
  8
0
 10
141.500000
 20
69.500000
 42
-0.041775
  0
VERTEX
  8
0
 10
141.090762
 20
64.610401
 42
-0.084708
  0
VERTEX
  8
0
 10
139.821714
 20
60.976849
 42
-0.089784
  0
VERTEX
  8
0
 10
137.478537
 20
58.103508
 42
-0.051682
  0
VERTEX
  8
0
 10
133.792307
 20
55.558163
 42
0.000000
  0
VERTEX
  8
0
 10
130.246657
 20
53.616326
 42
0.000000
  0
VERTEX
  8
0
 10
137.932423
 20
43.058163
 42
-0.000920
  0
VERTEX
  8
0
 10
140.931476
 20
38.922299
 42
-0.001308
  0
VERTEX
  8
0
 10
143.580786
 20
35.234273
 42
-0.000725
  0
VERTEX
  8
0
 10
145.807279
 20
32.108078
 42
-0.019264
  0
VERTEX
  8
0
 10
146.368112
 20
31.250000
 42
-0.299618
  0
VERTEX
  8
0
 10
146.344154
 20
30.677697
 42
-0.174051
  0
VERTEX
  8
0
 10
145.754888
 20
30.272741
 42
-0.054206
  0
VERTEX
  8
0
 10
144.304505
 20
30.054809
 42
-0.010209
  0
VERTEX
  8
0
 10
141.620520
 20
30.000000
 42
0.000000
  0
VERTEX
  8
0
 10
136.123005
 20
30.000000
 42
0.000000
  0
VERTEX
  8
0
 10
128.500000
 20
41.000000
 42
0.005390
  0
VERTEX
  8
0
 10
125.510302
 20
45.216324
 42
0.008452
  0
VERTEX
  8
0
 10
122.840569
 20
48.768750
 42
0.003412
  0
VERTEX
  8
0
 10
120.504792
 20
51.727924
 42
0.227763
  0
VERTEX
  8
0
 10
119.938497
 20
52.000000
 42
0.380990
  0
VERTEX
  8
0
 10
119.556007
 20
51.659061
 42
0.007409
  0
VERTEX
  8
0
 10
119.271329
 20
48.819784
 42
0.013566
  0
VERTEX
  8
0
 10
119.066092
 20
45.284089
 42
0.007713
  0
VERTEX
  8
0
 10
119.000000
 20
41.000000
 42
0.000000
  0
VERTEX
  8
0
 10
119.000000
 20
30.000000
 42
0.000000
  0
VERTEX
  8
0
 10
114.500000
 20
30.000000
 42
0.000000
  0
VERTEX
  8
0
 10
110.000000
 20
30.000000
 42
0.000000
  0
VERTEX
  8
0
 10
110.000000
 20
58.113419
 42
0.000000
  0
VERTEX
  8
0
 10
110.000000
 20
86.226839
 42
0.000000
  0
VERTEX
  8
0
 10
120.257434
 20
85.847137
 42
-0.008407
  0
VERTEX
  8
0
 10
125.507996
 20
85.564308
 42
-0.025223
  0
VERTEX
  8
0
 10
129.072537
 20
85.130649
 42
-0.036592
  0
VERTEX
  8
0
 10
131.713414
 20
84.471346
 42
-0.053022
  0
SEQEND
  0
POLYLINE
  8
0
 66
1
 70
1
  0
VERTEX
  8
0
 10
67.411162
 20
289.504760
 42
0.099892
  0
VERTEX
  8
0
 10
66.688510
 20
287.700275
 42
0.129389
  0
VERTEX
  8
0
 10
66.822559
 20
285.929453
 42
0.045306
  0
VERTEX
  8
0
 10
68.020987
 20
283.270529
 42
0.003520
  0
VERTEX
  8
0
 10
71.909229
 20
276.495942
 42
-0.003584
  0
VERTEX
  8
0
 10
75.840300
 20
269.644698
 42
-0.046625
  0
VERTEX
  8
0
 10
77.038587
 20
266.965446
 42
-0.123594
  0
VERTEX
  8
0
 10
77.191924
 20
265.086736
 42
-0.078346
  0
VERTEX
  8
0
 10
76.495440
 20
262.991182
 42
-0.033449
  0
VERTEX
  8
0
 10
75.126172
 20
260.728113
 42
-0.251953
  0
VERTEX
  8
0
 10
74.046257
 20
260.184749
 42
-0.221779
  0
VERTEX
  8
0
 10
72.898392
 20
260.759126
 42
-0.026482
  0
VERTEX
  8
0
 10
71.210601
 20
263.136360
 42
0.000000
  0
VERTEX
  8
0
 10
69.224798
 20
266.272719
 42
0.000000
  0
VERTEX
  8
0
 10
67.502302
 20
263.643857
 42
0.084118
  0
VERTEX
  8
0
 10
66.685444
 20
261.775681
 42
0.138489
  0
VERTEX
  8
0
 10
66.738289
 20
260.064212
 42
0.049693
  0
VERTEX
  8
0
 10
67.807225
 20
257.573509
 42
0.003561
  0
VERTEX
  8
0
 10
71.495718
 20
251.007497
 42
0.005304
  0
VERTEX
  8
0
 10
74.929117
 20
245.141620
 42
0.042606
  0
VERTEX
  8
0
 10
76.758183
 20
242.608190
 42
0.101361
  0
VERTEX
  8
0
 10
78.293647
 20
241.420726
 42
0.114560
  0
VERTEX
  8
0
 10
80.105816
 20
241.000000
 42
0.023949
  0
VERTEX
  8
0
 10
81.214954
 20
241.053156
 42
0.038180
  0
VERTEX
  8
0
 10
82.149833
 20
241.215657
 42
0.044712
  0
VERTEX
  8
0
 10
82.817176
 20
241.450061
 42
0.293965
  0
VERTEX
  8
0
 10
83.000000
 20
241.734150
 42
0.103383
  0
VERTEX
  8
0
 10
82.898474
 20
242.219924
 42
0.004616
  0
VERTEX
  8
0
 10
82.193581
 20
243.792884
 42
0.007601
  0
VERTEX
  8
0
 10
81.306483
 20
245.649504
 42
0.005347
  0
VERTEX
  8
0
 10
80.254744
 20
247.711671
 42
-0.009898
  0
VERTEX
  8
0
 10
78.669467
 20
250.891114
 42
-0.070606
  0
VERTEX
  8
0
 10
78.159680
 20
252.528932
 42
-0.122479
  0
VERTEX
  8
0
 10
78.268681
 20
253.839683
 42
-0.054721
  0
VERTEX
  8
0
 10
79.004744
 20
255.419354
 42
-0.026106
  0
VERTEX
  8
0
 10
79.650591
 20
256.368308
 42
-0.031665
  0
VERTEX
  8
0
 10
80.354518
 20
257.182178
 42
-0.033206
  0
VERTEX
  8
0
 10
81.018084
 20
257.773642
 42
-0.147430
  0
VERTEX
  8
0
 10
81.500000
 20
257.959935
 42
-0.247394
  0
VERTEX
  8
0
 10
82.064050
 20
257.715500
 42
-0.008995
  0
VERTEX
  8
0
 10
83.543397
 20
255.804772
 42
-0.014614
  0
VERTEX
  8
0
 10
85.235095
 20
253.392632
 42
-0.009519
  0
VERTEX
  8
0
 10
87.051991
 20
250.516111
 42
0.005114
  0
VERTEX
  8
0
 10
90.795430
 20
244.472201
 42
0.053739
  0
VERTEX
  8
0
 10
92.604481
 20
242.198823
 42
0.151146
  0
VERTEX
  8
0
 10
94.127796
 20
241.383850
 42
0.125291
  0
VERTEX
  8
0
 10
95.971658
 20
241.491005
 42
0.050114
  0
VERTEX
  8
0
 10
96.916888
 20
241.898998
 42
0.121491
  0
VERTEX
  8
0
 10
97.469656
 20
242.413353
 42
0.148330
  0
VERTEX
  8
0
 10
97.657536
 20
243.054468
 42
0.089479
  0
VERTEX
  8
0
 10
97.508398
 20
243.838711
 42
0.040089
  0
VERTEX
  8
0
 10
96.046817
 20
246.891316
 42
0.000364
  0
VERTEX
  8
0
 10
83.302490
 20
268.772379
 42
0.000069
  0
VERTEX
  8
0
 10
69.916429
 20
291.709579
 42
0.266661
  0
VERTEX
  8
0
 10
69.410600
 20
292.000000
 42
0.218047
  0
VERTEX
  8
0
 10
69.203796
 20
291.905312
 42
0.009129
  0
VERTEX
  8
0
 10
68.672911
 20
291.267023
 42
0.014332
  0
VERTEX
  8
0
 10
68.064091
 20
290.460939
 42
0.009543
  0
SEQEND
  0
POLYLINE
  8
0
 66
1
 70
1
  0
VERTEX
  8
0
 10
53.716590
 20
266.250000
 42
0.001396
  0
VERTEX
  8
0
 10
46.194995
 20
253.344864
 42
0.009213
  0
VERTEX
  8
0
 10
42.570180
 20
246.810774
 42
0.009668
  0
VERTEX
  8
0
 10
40.490158
 20
242.703010
 42
0.318891
  0
VERTEX
  8
0
 10
40.665773
 20
241.667560
 42
0.198197
  0
VERTEX
  8
0
 10
42.107386
 20
241.068097
 42
0.002184
  0
VERTEX
  8
0
 10
52.926637
 20
241.085558
 42
0.003927
  0
VERTEX
  8
0
 10
63.299521
 20
241.229070
 42
0.089992
  0
VERTEX
  8
0
 10
66.198398
 20
241.820285
 42
0.162452
  0
VERTEX
  8
0
 10
66.924231
 20
242.435100
 42
0.205092
  0
VERTEX
  8
0
 10
67.047026
 20
243.297996
 42
0.065405
  0
VERTEX
  8
0
 10
66.437418
 20
244.764985
 42
0.007129
  0
VERTEX
  8
0
 10
64.557209
 20
247.910757
 42
0.000000
  0
VERTEX
  8
0
 10
61.217622
 20
253.321515
 42
0.000000
  0
VERTEX
  8
0
 10
59.583131
 20
250.160757
 42
-0.035411
  0
VERTEX
  8
0
 10
58.538745
 20
248.449815
 42
-0.110138
  0
VERTEX
  8
0
 10
57.540275
 20
247.551640
 42
-0.101293
  0
VERTEX
  8
0
 10
56.205324
 20
247.122136
 42
-0.027352
  0
VERTEX
  8
0
 10
53.974320
 20
247.000000
 42
-0.009649
  0
VERTEX
  8
0
 10
52.450514
 20
247.029408
 42
-0.015973
  0
VERTEX
  8
0
 10
51.167456
 20
247.120062
 42
-0.009807
  0
VERTEX
  8
0
 10
50.141161
 20
247.245992
 42
-0.373292
  0
VERTEX
  8
0
 10
50.000000
 20
247.408720
 42
-0.127465
  0
VERTEX
  8
0
 10
50.078767
 20
247.712673
 42
-0.000330
  0
VERTEX
  8
0
 10
52.222436
 20
251.565031
 42
-0.002021
  0
VERTEX
  8
0
 10
54.665286
 20
255.906871
 42
-0.001255
  0
VERTEX
  8
0
 10
57.565740
 20
260.983916
 42
0.002801
  0
VERTEX
  8
0
 10
62.340787
 20
269.402656
 42
0.036084
  0
VERTEX
  8
0
 10
63.874311
 20
272.675265
 42
0.110569
  0
VERTEX
  8
0
 10
64.173952
 20
274.715407
 42
0.127084
  0
VERTEX
  8
0
 10
63.542687
 20
276.575196
 42
0.010213
  0
VERTEX
  8
0
 10
62.906390
 20
277.504342
 42
0.015222
  0
VERTEX
  8
0
 10
62.309220
 20
278.287714
 42
0.010187
  0
VERTEX
  8
0
 10
61.788197
 20
278.903607
 42
0.215306
  0
VERTEX
  8
0
 10
61.574723
 20
279.000000
 42
0.259692
  0
VERTEX
  8
0
 10
61.344711
 20
278.871896
 42
0.000536
  0
VERTEX
  8
0
 10
59.109988
 20
275.254687
 42
0.003388
  0
VERTEX
  8
0
 10
56.611330
 20
271.138374
 42
0.002072
  0
SEQEND
  0
POLYLINE
  8
0
 66
1
 70
1
  0
VERTEX
  8
0
 10
143.207936
 20
278.250000
 42
0.000000
  0
VERTEX
  8
0
 10
143.500000
 20
270.500000
 42
0.000000
  0
VERTEX
  8
0
 10
146.956394
 20
270.781796
 42
0.064837
  0
VERTEX
  8
0
 10
150.080483
 20
271.450425
 42
0.116264
  0
VERTEX
  8
0
 10
152.275016
 20
272.862707
 42
0.120252
  0
VERTEX
  8
0
 10
153.561750
 20
275.068269
 42
0.072319
  0
VERTEX
  8
0
 10
154.000000
 20
278.082407
 42
0.098528
  0
VERTEX
  8
0
 10
153.387424
 20
281.160878
 42
0.102524
  0
VERTEX
  8
0
 10
151.646468
 20
283.721110
 42
0.100805
  0
VERTEX
  8
0
 10
149.003463
 20
285.409064
 42
0.092115
  0
VERTEX
  8
0
 10
145.823077
 20
286.000000
 42
0.000000
  0
VERTEX
  8
0
 10
142.915871
 20
286.000000
 42
0.000000
  0
SEQEND
  0
POLYLINE
  8
0
 66
1
 70
1
  0
VERTEX
  8
0
 10
143.470609
 20
261.784004
 42
0.074802
  0
VERTEX
  8
0
 10
143.263466
 20
260.844821
 42
0.008898
  0
VERTEX
  8
0
 10
143.156718
 20
258.709930
 42
0.010462
  0
VERTEX
  8
0
 10
143.127957
 20
256.151704
 42
0.008410
  0
VERTEX
  8
0
 10
143.200873
 20
253.400785
 42
0.000000
  0
VERTEX
  8
0
 10
143.500000
 20
246.500000
 42
0.000000
  0
VERTEX
  8
0
 10
148.500000
 20
246.814941
 42
0.038496
  0
VERTEX
  8
0
 10
152.433859
 20
247.368747
 42
0.073244
  0
VERTEX
  8
0
 10
155.414959
 20
248.501205
 42
0.094003
  0
VERTEX
  8
0
 10
157.447970
 20
250.202229
 42
0.110626
  0
VERTEX
  8
0
 10
158.574417
 20
252.440478
 42
0.110650
  0
VERTEX
  8
0
 10
158.670051
 20
256.189910
 42
0.144671
  0
VERTEX
  8
0
 10
157.087668
 20
259.212747
 42
0.113582
  0
VERTEX
  8
0
 10
153.742070
 20
261.380856
 42
0.053198
  0
VERTEX
  8
0
 10
148.704775
 20
262.626987
 42
0.014476
  0
VERTEX
  8
0
 10
146.334471
 20
262.882220
 42
0.059570
  0
VERTEX
  8
0
 10
144.894400
 20
262.823600
 42
0.112300
  0
VERTEX
  8
0
 10
144.004480
 20
262.464697
 42
0.150465
  0
SEQEND
  0
POLYLINE
  8
0
 66
1
 70
1
  0
VERTEX
  8
0
 10
77.244585
 20
217.044337
 42
0.078724
  0
VERTEX
  8
0
 10
71.376017
 20
214.588416
 42
0.083471
  0
VERTEX
  8
0
 10
66.687802
 20
210.476359
 42
0.082476
  0
VERTEX
  8
0
 10
63.561359
 20
205.011350
 42
0.074490
  0
VERTEX
  8
0
 10
62.225816
 20
198.631415
 42
0.054052
  0
VERTEX
  8
0
 10
62.493592
 20
193.317535
 42
0.066038
  0
VERTEX
  8
0
 10
63.916598
 20
188.552981
 42
0.065872
  0
VERTEX
  8
0
 10
66.536381
 20
184.314975
 42
0.053407
  0
VERTEX
  8
0
 10
70.342821
 20
180.557966
 42
0.029373
  0
VERTEX
  8
0
 10
72.798855
 20
178.828862
 42
0.074675
  0
VERTEX
  8
0
 10
74.797059
 20
177.970773
 42
0.054127
  0
VERTEX
  8
0
 10
77.315433
 20
177.594287
 42
0.010063
  0
VERTEX
  8
0
 10
82.000000
 20
177.500000
 42
0.010063
  0
VERTEX
  8
0
 10
86.684567
 20
177.594287
 42
0.054127
  0
VERTEX
  8
0
 10
89.202941
 20
177.970773
 42
0.074675
  0
VERTEX
  8
0
 10
91.201145
 20
178.828862
 42
0.029373
  0
VERTEX
  8
0
 10
93.657179
 20
180.557966
 42
0.099294
  0
VERTEX
  8
0
 10
99.333888
 20
187.287932
 42
0.105500
  0
VERTEX
  8
0
 10
101.820384
 20
195.543574
 42
0.106888
  0
VERTEX
  8
0
 10
100.708165
 20
204.008519
 42
0.104398
  0
VERTEX
  8
0
 10
96.196952
 20
211.339276
 42
0.065269
  0
VERTEX
  8
0
 10
92.165725
 20
214.604164
 42
0.064590
  0
VERTEX
  8
0
 10
87.415268
 20
216.733538
 42
0.065067
  0
VERTEX
  8
0
 10
82.311672
 20
217.569953
 42
0.068032
  0
SEQEND
  0
POLYLINE
  8
0
 66
1
 70
1
  0
VERTEX
  8
0
 10
184.734050
 20
216.400716
 42
0.168258
  0
VERTEX
  8
0
 10
184.442939
 20
215.801146
 42
0.008286
  0
VERTEX
  8
0
 10
184.215627
 20
213.581252
 42
0.012641
  0
VERTEX
  8
0
 10
184.053319
 20
210.887885
 42
0.008727
  0
VERTEX
  8
0
 10
184.000000
 20
207.833333
 42
0.000000
  0
VERTEX
  8
0
 10
184.000000
 20
200.000000
 42
0.000000
  0
VERTEX
  8
0
 10
187.549660
 20
200.000000
 42
0.034951
  0
VERTEX
  8
0
 10
189.122735
 20
200.110095
 42
0.022554
  0
VERTEX
  8
0
 10
190.919014
 20
200.445968
 42
0.022668
  0
VERTEX
  8
0
 10
192.654213
 20
200.936072
 42
0.039181
  0
VERTEX
  8
0
 10
194.035173
 20
201.518189
 42
0.129571
  0
VERTEX
  8
0
 10
196.789472
 20
204.007749
 42
0.126058
  0
VERTEX
  8
0
 10
197.994819
 20
207.557508
 42
0.126469
  0
VERTEX
  8
0
 10
197.343423
 20
211.240536
 42
0.130877
  0
VERTEX
  8
0
 10
195.000000
 20
214.097713
 42
0.064431
  0
VERTEX
  8
0
 10
192.519362
 20
215.436535
 42
0.036402
  0
VERTEX
  8
0
 10
189.242843
 20
216.426619
 42
0.032520
  0
VERTEX
  8
0
 10
186.147341
 20
216.912408
 42
0.222582
  0
SEQEND
  0
POLYLINE
  8
0
 66
1
 70
1
  0
VERTEX
  8
0
 10
37.244585
 20
147.044337
 42
0.078724
  0
VERTEX
  8
0
 10
31.376017
 20
144.588416
 42
0.083471
  0
VERTEX
  8
0
 10
26.687802
 20
140.476359
 42
0.082476
  0
VERTEX
  8
0
 10
23.561359
 20
135.011350
 42
0.074490
  0
VERTEX
  8
0
 10
22.225816
 20
128.631415
 42
0.054052
  0
VERTEX
  8
0
 10
22.493592
 20
123.317535
 42
0.066038
  0
VERTEX
  8
0
 10
23.916598
 20
118.552981
 42
0.065872
  0
VERTEX
  8
0
 10
26.536381
 20
114.314975
 42
0.053407
  0
VERTEX
  8
0
 10
30.342821
 20
110.557966
 42
0.029373
  0
VERTEX
  8
0
 10
32.798855
 20
108.828862
 42
0.074675
  0
VERTEX
  8
0
 10
34.797059
 20
107.970773
 42
0.054127
  0
VERTEX
  8
0
 10
37.315433
 20
107.594287
 42
0.010063
  0
VERTEX
  8
0
 10
42.000000
 20
107.500000
 42
0.010063
  0
VERTEX
  8
0
 10
46.684567
 20
107.594287
 42
0.054127
  0
VERTEX
  8
0
 10
49.202941
 20
107.970773
 42
0.074675
  0
VERTEX
  8
0
 10
51.201145
 20
108.828862
 42
0.029373
  0
VERTEX
  8
0
 10
53.657179
 20
110.557966
 42
0.099294
  0
VERTEX
  8
0
 10
59.333888
 20
117.287932
 42
0.105500
  0
VERTEX
  8
0
 10
61.820384
 20
125.543574
 42
0.106888
  0
VERTEX
  8
0
 10
60.708165
 20
134.008519
 42
0.104398
  0
VERTEX
  8
0
 10
56.196952
 20
141.339276
 42
0.065269
  0
VERTEX
  8
0
 10
52.165725
 20
144.604164
 42
0.064590
  0
VERTEX
  8
0
 10
47.415268
 20
146.733538
 42
0.065067
  0
VERTEX
  8
0
 10
42.311672
 20
147.569953
 42
0.068032
  0
SEQEND
  0
POLYLINE
  8
0
 66
1
 70
1
  0
VERTEX
  8
0
 10
175.244585
 20
78.044337
 42
0.078724
  0
VERTEX
  8
0
 10
169.376017
 20
75.588416
 42
0.083471
  0
VERTEX
  8
0
 10
164.687802
 20
71.476359
 42
0.082476
  0
VERTEX
  8
0
 10
161.561359
 20
66.011350
 42
0.074490
  0
VERTEX
  8
0
 10
160.225816
 20
59.631415
 42
0.054052
  0
VERTEX
  8
0
 10
160.493592
 20
54.317535
 42
0.066038
  0
VERTEX
  8
0
 10
161.916598
 20
49.552981
 42
0.065872
  0
VERTEX
  8
0
 10
164.536381
 20
45.314975
 42
0.053407
  0
VERTEX
  8
0
 10
168.342821
 20
41.557966
 42
0.029373
  0
VERTEX
  8
0
 10
170.798855
 20
39.828862
 42
0.074675
  0
VERTEX
  8
0
 10
172.797059
 20
38.970773
 42
0.054127
  0
VERTEX
  8
0
 10
175.315433
 20
38.594287
 42
0.010063
  0
VERTEX
  8
0
 10
180.000000
 20
38.500000
 42
0.010063
  0
VERTEX
  8
0
 10
184.684567
 20
38.594287
 42
0.054127
  0
VERTEX
  8
0
 10
187.202941
 20
38.970773
 42
0.074675
  0
VERTEX
  8
0
 10
189.201145
 20
39.828862
 42
0.029373
  0
VERTEX
  8
0
 10
191.657179
 20
41.557966
 42
0.099294
  0
VERTEX
  8
0
 10
197.333888
 20
48.287932
 42
0.105500
  0
VERTEX
  8
0
 10
199.820384
 20
56.543574
 42
0.106888
  0
VERTEX
  8
0
 10
198.708165
 20
65.008519
 42
0.104398
  0
VERTEX
  8
0
 10
194.196952
 20
72.339276
 42
0.065269
  0
VERTEX
  8
0
 10
190.165725
 20
75.604164
 42
0.064590
  0
VERTEX
  8
0
 10
185.415268
 20
77.733538
 42
0.065067
  0
VERTEX
  8
0
 10
180.311672
 20
78.569953
 42
0.068032
  0
SEQEND
  0
POLYLINE
  8
0
 66
1
 70
1
  0
VERTEX
  8
0
 10
119.734050
 20
77.400716
 42
0.168258
  0
VERTEX
  8
0
 10
119.442939
 20
76.801146
 42
0.008286
  0
VERTEX
  8
0
 10
119.215627
 20
74.581252
 42
0.012641
  0
VERTEX
  8
0
 10
119.053319
 20
71.887885
 42
0.008727
  0
VERTEX
  8
0
 10
119.000000
 20
68.833333
 42
0.000000
  0
VERTEX
  8
0
 10
119.000000
 20
61.000000
 42
0.000000
  0
VERTEX
  8
0
 10
122.549660
 20
61.000000
 42
0.034951
  0
VERTEX
  8
0
 10
124.122735
 20
61.110095
 42
0.022554
  0
VERTEX
  8
0
 10
125.919014
 20
61.445968
 42
0.022668
  0
VERTEX
  8
0
 10
127.654213
 20
61.936072
 42
0.039181
  0
VERTEX
  8
0
 10
129.035173
 20
62.518189
 42
0.129571
  0
VERTEX
  8
0
 10
131.789472
 20
65.007749
 42
0.126058
  0
VERTEX
  8
0
 10
132.994819
 20
68.557508
 42
0.126469
  0
VERTEX
  8
0
 10
132.343423
 20
72.240536
 42
0.130877
  0
VERTEX
  8
0
 10
130.000000
 20
75.097713
 42
0.064431
  0
VERTEX
  8
0
 10
127.519362
 20
76.436535
 42
0.036402
  0
VERTEX
  8
0
 10
124.242843
 20
77.426619
 42
0.032520
  0
VERTEX
  8
0
 10
121.147341
 20
77.912408
 42
0.222582
  0
SEQEND
  0
ENDSEC
  0
EOF
