  0
SECTION
  2
HEADER
  9
$ACADVER
  1
AC1006
  9
$EXTMIN
 10
0.000000
 20
0.000000
 30
0.000000
  9
$EXTMAX
 10
319.000000
 20
255.000000
 30
0.000000
  0
ENDSEC
  0
SECTION
  2
ENTITIES
  0
POLYLINE
  8
0
 66
1
 70
1
  0
VERTEX
  8
0
 10
161.058961
 20
227.058961
 42
0.066519
  0
VERTEX
  8
0
 10
160.045310
 20
225.732619
 42
0.067497
  0
VERTEX
  8
0
 10
159.421580
 20
224.193057
 42
0.047263
  0
VERTEX
  8
0
 10
159.095380
 20
222.114706
 42
0.015308
  0
VERTEX
  8
0
 10
159.000000
 20
219.000000
 42
-0.015416
  0
VERTEX
  8
0
 10
158.928566
 20
216.683687
 42
-0.025878
  0
VERTEX
  8
0
 10
158.708333
 20
214.750000
 42
-0.024068
  0
VERTEX
  8
0
 10
158.395008
 20
213.303225
 42
-0.339565
  0
VERTEX
  8
0
 10
158.000000
 20
213.000000
 42
0.226478
  0
VERTEX
  8
0
 10
157.617064
 20
212.817169
 42
0.074992
  0
VERTEX
  8
0
 10
157.293750
 20
212.265625
 42
0.057076
  0
VERTEX
  8
0
 10
157.073116
 20
211.457356
 42
0.038131
  0
VERTEX
  8
0
 10
157.000000
 20
210.500000
 42
0.038131
  0
VERTEX
  8
0
 10
157.073116
 20
209.542644
 42
0.057076
  0
VERTEX
  8
0
 10
157.293750
 20
208.734375
 42
0.074992
  0
VERTEX
  8
0
 10
157.617064
 20
208.182831
 42
0.226478
  0
VERTEX
  8
0
 10
158.000000
 20
208.000000
 42
-0.362465
  0
VERTEX
  8
0
 10
158.417447
 20
207.651608
 42
-0.015687
  0
VERTEX
  8
0
 10
158.720588
 20
205.625000
 42
-0.019442
  0
VERTEX
  8
0
 10
158.932720
 20
202.918912
 42
-0.009838
  0
VERTEX
  8
0
 10
159.000000
 20
199.500000
 42
0.000000
  0
VERTEX
  8
0
 10
159.000000
 20
191.000000
 42
0.000000
  0
VERTEX
  8
0
 10
162.000000
 20
191.000000
 42
0.000000
  0
VERTEX
  8
0
 10
165.000000
 20
191.000000
 42
0.000000
  0
VERTEX
  8
0
 10
165.000000
 20
199.500000
 42
-0.004059
  0
VERTEX
  8
0
 10
165.045242
 20
205.072835
 42
-0.067556
  0
VERTEX
  8
0
 10
165.323529
 20
206.900000
 42
-0.226266
  0
VERTEX
  8
0
 10
166.050108
 20
207.710115
 42
-0.098988
  0
VERTEX
  8
0
 10
167.500000
 20
208.000000
 42
0.045527
  0
VERTEX
  8
0
 10
168.768514
 20
208.115743
 42
0.152009
  0
VERTEX
  8
0
 10
169.500000
 20
208.500000
 42
0.152009
  0
VERTEX
  8
0
 10
169.884257
 20
209.231486
 42
0.045527
  0
VERTEX
  8
0
 10
170.000000
 20
210.500000
 42
0.045693
  0
VERTEX
  8
0
 10
169.883194
 20
211.775491
 42
0.154486
  0
VERTEX
  8
0
 10
169.494774
 20
212.505119
 42
0.151513
  0
VERTEX
  8
0
 10
168.751873
 20
212.886530
 42
0.043422
  0
VERTEX
  8
0
 10
167.447740
 20
213.000000
 42
-0.057720
  0
VERTEX
  8
0
 10
165.965672
 20
213.171663
 42
-0.238176
  0
VERTEX
  8
0
 10
165.294919
 20
213.734643
 42
-0.107681
  0
VERTEX
  8
0
 10
165.062504
 20
214.940808
 42
-0.008333
  0
VERTEX
  8
0
 10
165.197740
 20
218.250000
 42
-0.009361
  0
VERTEX
  8
0
 10
165.439225
 20
221.411635
 42
-0.099052
  0
VERTEX
  8
0
 10
165.810282
 20
222.644207
 42
-0.231617
  0
VERTEX
  8
0
 10
166.515976
 20
223.154123
 42
-0.077559
  0
VERTEX
  8
0
 10
167.823693
 20
223.174657
 42
0.040702
  0
VERTEX
  8
0
 10
169.087782
 20
223.101578
 42
0.221637
  0
VERTEX
  8
0
 10
169.686341
 20
223.398009
 42
0.174772
  0
VERTEX
  8
0
 10
169.927067
 20
224.103819
 42
0.024183
  0
VERTEX
  8
0
 10
169.823693
 20
225.674657
 42
0.044806
  0
VERTEX
  8
0
 10
169.515091
 20
227.169219
 42
0.138215
  0
VERTEX
  8
0
 10
168.965411
 20
228.030845
 42
0.124964
  0
VERTEX
  8
0
 10
168.009581
 20
228.527981
 42
0.033624
  0
VERTEX
  8
0
 10
166.308961
 20
228.808961
 42
0.044254
  0
VERTEX
  8
0
 10
164.759596
 20
228.821465
 42
0.060416
  0
VERTEX
  8
0
 10
163.392837
 20
228.542894
 42
0.062802
  0
VERTEX
  8
0
 10
162.172519
 20
227.957637
 42
0.053243
  0
SEQEND
  0
POLYLINE
  8
0
 66
1
 70
1
  0
VERTEX
  8
0
 10
210.058961
 20
227.058961
 42
0.066519
  0
VERTEX
  8
0
 10
209.045310
 20
225.732619
 42
0.067497
  0
VERTEX
  8
0
 10
208.421580
 20
224.193057
 42
0.047263
  0
VERTEX
  8
0
 10
208.095380
 20
222.114706
 42
0.015308
  0
VERTEX
  8
0
 10
208.000000
 20
219.000000
 42
-0.015416
  0
VERTEX
  8
0
 10
207.928566
 20
216.683687
 42
-0.025878
  0
VERTEX
  8
0
 10
207.708333
 20
214.750000
 42
-0.024068
  0
VERTEX
  8
0
 10
207.395008
 20
213.303225
 42
-0.339565
  0
VERTEX
  8
0
 10
207.000000
 20
213.000000
 42
0.226478
  0
VERTEX
  8
0
 10
206.617064
 20
212.817169
 42
0.074992
  0
VERTEX
  8
0
 10
206.293750
 20
212.265625
 42
0.057076
  0
VERTEX
  8
0
 10
206.073116
 20
211.457356
 42
0.038131
  0
VERTEX
  8
0
 10
206.000000
 20
210.500000
 42
0.038131
  0
VERTEX
  8
0
 10
206.073116
 20
209.542644
 42
0.057076
  0
VERTEX
  8
0
 10
206.293750
 20
208.734375
 42
0.074992
  0
VERTEX
  8
0
 10
206.617064
 20
208.182831
 42
0.226478
  0
VERTEX
  8
0
 10
207.000000
 20
208.000000
 42
-0.362465
  0
VERTEX
  8
0
 10
207.417447
 20
207.651608
 42
-0.015687
  0
VERTEX
  8
0
 10
207.720588
 20
205.625000
 42
-0.019442
  0
VERTEX
  8
0
 10
207.932720
 20
202.918912
 42
-0.009838
  0
VERTEX
  8
0
 10
208.000000
 20
199.500000
 42
0.000000
  0
VERTEX
  8
0
 10
208.000000
 20
191.000000
 42
0.000000
  0
VERTEX
  8
0
 10
211.000000
 20
191.000000
 42
0.000000
  0
VERTEX
  8
0
 10
214.000000
 20
191.000000
 42
0.000000
  0
VERTEX
  8
0
 10
214.000000
 20
199.500000
 42
-0.004059
  0
VERTEX
  8
0
 10
214.045242
 20
205.072835
 42
-0.067556
  0
VERTEX
  8
0
 10
214.323529
 20
206.900000
 42
-0.226266
  0
VERTEX
  8
0
 10
215.050108
 20
207.710115
 42
-0.098988
  0
VERTEX
  8
0
 10
216.500000
 20
208.000000
 42
0.045527
  0
VERTEX
  8
0
 10
217.768514
 20
208.115743
 42
0.152009
  0
VERTEX
  8
0
 10
218.500000
 20
208.500000
 42
0.152009
  0
VERTEX
  8
0
 10
218.884257
 20
209.231486
 42
0.045527
  0
VERTEX
  8
0
 10
219.000000
 20
210.500000
 42
0.045693
  0
VERTEX
  8
0
 10
218.883194
 20
211.775491
 42
0.154486
  0
VERTEX
  8
0
 10
218.494774
 20
212.505119
 42
0.151513
  0
VERTEX
  8
0
 10
217.751873
 20
212.886530
 42
0.043422
  0
VERTEX
  8
0
 10
216.447740
 20
213.000000
 42
-0.057720
  0
VERTEX
  8
0
 10
214.965672
 20
213.171663
 42
-0.238176
  0
VERTEX
  8
0
 10
214.294919
 20
213.734643
 42
-0.107681
  0
VERTEX
  8
0
 10
214.062504
 20
214.940808
 42
-0.008333
  0
VERTEX
  8
0
 10
214.197740
 20
218.250000
 42
-0.009361
  0
VERTEX
  8
0
 10
214.439225
 20
221.411635
 42
-0.099052
  0
VERTEX
  8
0
 10
214.810282
 20
222.644207
 42
-0.231617
  0
VERTEX
  8
0
 10
215.515976
 20
223.154123
 42
-0.077559
  0
VERTEX
  8
0
 10
216.823693
 20
223.174657
 42
0.040702
  0
VERTEX
  8
0
 10
218.087782
 20
223.101578
 42
0.221637
  0
VERTEX
  8
0
 10
218.686341
 20
223.398009
 42
0.174772
  0
VERTEX
  8
0
 10
218.927067
 20
224.103819
 42
0.024183
  0
VERTEX
  8
0
 10
218.823693
 20
225.674657
 42
0.044806
  0
VERTEX
  8
0
 10
218.515091
 20
227.169219
 42
0.138215
  0
VERTEX
  8
0
 10
217.965411
 20
228.030845
 42
0.124964
  0
VERTEX
  8
0
 10
217.009581
 20
228.527981
 42
0.033624
  0
VERTEX
  8
0
 10
215.308961
 20
228.808961
 42
0.044254
  0
VERTEX
  8
0
 10
213.759596
 20
228.821465
 42
0.060416
  0
VERTEX
  8
0
 10
212.392837
 20
228.542894
 42
0.062802
  0
VERTEX
  8
0
 10
211.172519
 20
227.957637
 42
0.053243
  0
SEQEND
  0
POLYLINE
  8
0
 66
1
 70
1
  0
VERTEX
  8
0
 10
64.000000
 20
209.500000
 42
0.000000
  0
VERTEX
  8
0
 10
64.000000
 20
191.000000
 42
0.000000
  0
VERTEX
  8
0
 10
66.500000
 20
191.000000
 42
0.000000
  0
VERTEX
  8
0
 10
69.000000
 20
191.000000
 42
0.000000
  0
VERTEX
  8
0
 10
69.000000
 20
209.500000
 42
0.000000
  0
VERTEX
  8
0
 10
69.000000
 20
228.000000
 42
0.000000
  0
VERTEX
  8
0
 10
66.500000
 20
228.000000
 42
0.000000
  0
VERTEX
  8
0
 10
64.000000
 20
228.000000
 42
0.000000
  0
SEQEND
  0
POLYLINE
  8
0
 66
1
 70
1
  0
VERTEX
  8
0
 10
186.000000
 20
209.500000
 42
0.000000
  0
VERTEX
  8
0
 10
186.000000
 20
191.000000
 42
0.000000
  0
VERTEX
  8
0
 10
188.500000
 20
191.000000
 42
0.000000
  0
VERTEX
  8
0
 10
191.000000
 20
191.000000
 42
0.000000
  0
VERTEX
  8
0
 10
191.000000
 20
209.500000
 42
0.000000
  0
VERTEX
  8
0
 10
191.000000
 20
228.000000
 42
0.000000
  0
VERTEX
  8
0
 10
188.500000
 20
228.000000
 42
0.000000
  0
VERTEX
  8
0
 10
186.000000
 20
228.000000
 42
0.000000
  0
SEQEND
  0
POLYLINE
  8
0
 66
1
 70
1
  0
VERTEX
  8
0
 10
15.000000
 20
208.112847
 42
0.000000
  0
VERTEX
  8
0
 10
15.000000
 20
191.000000
 42
0.000000
  0
VERTEX
  8
0
 10
17.500000
 20
191.000000
 42
0.077921
  0
VERTEX
  8
0
 10
18.940826
 20
191.225912
 42
0.226921
  0
VERTEX
  8
0
 10
19.653846
 20
191.900000
 42
0.085635
  0
VERTEX
  8
0
 10
19.947488
 20
193.376461
 42
0.006367
  0
VERTEX
  8
0
 10
20.000000
 20
197.500000
 42
-0.010832
  0
VERTEX
  8
0
 10
20.053949
 20
199.989957
 42
-0.018029
  0
VERTEX
  8
0
 10
20.220312
 20
202.081321
 42
-0.012366
  0
VERTEX
  8
0
 10
20.452476
 20
203.726821
 42
-0.378718
  0
VERTEX
  8
0
 10
20.750000
 20
203.968328
 42
-0.212913
  0
VERTEX
  8
0
 10
21.188204
 20
203.750255
 42
-0.005809
  0
VERTEX
  8
0
 10
22.560414
 20
202.045888
 42
-0.011051
  0
VERTEX
  8
0
 10
24.134734
 20
199.949554
 42
-0.007236
  0
VERTEX
  8
0
 10
25.859919
 20
197.468328
 42
0.009470
  0
VERTEX
  8
0
 10
28.498664
 20
193.709136
 42
0.062094
  0
VERTEX
  8
0
 10
30.074117
 20
192.034861
 42
0.111054
  0
VERTEX
  8
0
 10
31.598346
 20
191.259514
 42
0.062423
  0
VERTEX
  8
0
 10
33.668936
 20
191.000000
 42
0.047689
  0
VERTEX
  8
0
 10
35.890525
 20
191.212374
 42
0.437904
  0
VERTEX
  8
0
 10
36.345739
 20
191.947099
 42
0.084077
  0
VERTEX
  8
0
 10
35.623760
 20
193.486373
 42
0.002174
  0
VERTEX
  8
0
 10
31.239640
 20
199.750000
 42
-0.009372
  0
VERTEX
  8
0
 10
29.299979
 20
202.607916
 42
-0.035792
  0
VERTEX
  8
0
 10
28.256946
 20
204.490296
 42
-0.086219
  0
VERTEX
  8
0
 10
27.962361
 20
205.586969
 42
-0.440949
  0
VERTEX
  8
0
 10
28.339642
 20
206.000000
 42
0.121145
  0
VERTEX
  8
0
 10
29.063261
 20
206.177936
 42
0.037821
  0
VERTEX
  8
0
 10
30.018571
 20
206.773990
 42
0.035296
  0
VERTEX
  8
0
 10
31.022539
 20
207.626515
 42
0.032440
  0
VERTEX
  8
0
 10
31.927420
 20
208.634859
 42
0.092071
  0
VERTEX
  8
0
 10
33.511459
 20
211.656152
 42
0.080883
  0
VERTEX
  8
0
 10
34.001469
 20
215.188241
 42
0.080764
  0
VERTEX
  8
0
 10
33.345582
 20
218.698026
 42
0.091364
  0
VERTEX
  8
0
 10
31.620561
 20
221.654735
 42
0.049412
  0
VERTEX
  8
0
 10
30.037849
 20
223.164116
 42
0.085459
  0
VERTEX
  8
0
 10
28.439848
 20
224.021484
 42
0.055353
  0
VERTEX
  8
0
 10
26.199895
 20
224.502058
 42
0.011077
  0
VERTEX
  8
0
 10
22.120561
 20
224.823346
 42
0.000000
  0
VERTEX
  8
0
 10
15.000000
 20
225.225693
 42
0.000000
  0
SEQEND
  0
POLYLINE
  8
0
 66
1
 70
1
  0
VERTEX
  8
0
 10
26.065741
 20
218.964816
 42
-0.165936
  0
VERTEX
  8
0
 10
27.504409
 20
217.422132
 42
-0.105804
  0
VERTEX
  8
0
 10
28.022753
 20
215.000000
 42
-0.105804
  0
VERTEX
  8
0
 10
27.504409
 20
212.577868
 42
-0.165936
  0
VERTEX
  8
0
 10
26.065741
 20
211.035184
 42
-0.036280
  0
VERTEX
  8
0
 10
25.174777
 20
210.638512
 42
-0.023279
  0
VERTEX
  8
0
 10
24.092860
 20
210.304085
 42
-0.023381
  0
VERTEX
  8
0
 10
22.997001
 20
210.074534
 42
-0.039954
  0
VERTEX
  8
0
 10
22.065741
 20
210.000000
 42
-0.092543
  0
VERTEX
  8
0
 10
20.987430
 20
210.201304
 42
-0.191499
  0
VERTEX
  8
0
 10
20.369177
 20
210.774428
 42
-0.096773
  0
VERTEX
  8
0
 10
20.070741
 20
211.934020
 42
-0.014739
  0
VERTEX
  8
0
 10
20.000000
 20
214.333333
 42
-0.040278
  0
VERTEX
  8
0
 10
20.294142
 20
217.978787
 42
-0.191712
  0
VERTEX
  8
0
 10
21.348432
 20
219.738193
 42
-0.231443
  0
VERTEX
  8
0
 10
23.171414
 20
220.102490
 42
-0.058506
  0
SEQEND
  0
POLYLINE
  8
0
 66
1
 70
1
  0
VERTEX
  8
0
 10
197.039869
 20
223.548039
 42
0.105868
  0
VERTEX
  8
0
 10
196.097382
 20
221.745503
 42
0.183079
  0
VERTEX
  8
0
 10
196.249621
 20
220.083112
 42
0.179694
  0
VERTEX
  8
0
 10
197.471581
 20
218.917666
 42
0.101885
  0
VERTEX
  8
0
 10
199.500000
 20
218.500000
 42
0.037662
  0
VERTEX
  8
0
 10
200.868502
 20
218.603227
 42
0.086696
  0
VERTEX
  8
0
 10
201.844027
 20
218.930339
 42
0.115824
  0
VERTEX
  8
0
 10
202.477261
 20
219.493750
 42
0.106097
  0
VERTEX
  8
0
 10
202.818881
 20
220.298039
 42
0.117102
  0
VERTEX
  8
0
 10
202.752172
 20
221.852450
 42
0.084855
  0
VERTEX
  8
0
 10
202.002931
 20
223.422144
 42
0.088961
  0
VERTEX
  8
0
 10
200.817871
 20
224.591435
 42
0.151454
  0
VERTEX
  8
0
 10
199.500000
 20
225.000000
 42
0.090616
  0
VERTEX
  8
0
 10
198.932435
 20
224.896287
 42
0.042952
  0
VERTEX
  8
0
 10
198.259603
 20
224.573487
 42
0.040685
  0
VERTEX
  8
0
 10
197.593698
 20
224.103593
 42
0.045592
  0
SEQEND
  0
POLYLINE
  8
0
 66
1
 70
1
  0
VERTEX
  8
0
 10
40.000000
 20
204.174314
 42
0.006929
  0
VERTEX
  8
0
 10
40.071009
 20
199.050293
 42
0.044133
  0
VERTEX
  8
0
 10
40.371607
 20
196.468836
 42
0.085205
  0
VERTEX
  8
0
 10
41.033532
 20
194.782932
 42
0.072484
  0
VERTEX
  8
0
 10
42.250000
 20
193.305553
 42
0.065243
  0
VERTEX
  8
0
 10
44.777150
 20
191.550786
 42
0.077278
  0
VERTEX
  8
0
 10
47.532352
 20
190.630443
 42
0.077008
  0
VERTEX
  8
0
 10
50.444815
 20
190.588433
 42
0.064210
  0
VERTEX
  8
0
 10
53.432667
 20
191.407420
 42
0.118145
  0
VERTEX
  8
0
 10
56.076117
 20
193.338767
 42
0.092495
  0
VERTEX
  8
0
 10
57.847344
 20
196.431200
 42
0.067003
  0
VERTEX
  8
0
 10
58.751823
 20
200.850491
 42
0.030092
  0
VERTEX
  8
0
 10
58.798771
 20
206.787979
 42
0.009461
  0
VERTEX
  8
0
 10
58.547967
 20
210.305573
 42
0.094813
  0
VERTEX
  8
0
 10
58.143733
 20
211.715792
 42
0.188792
  0
VERTEX
  8
0
 10
57.338568
 20
212.435453
 42
0.060481
  0
VERTEX
  8
0
 10
55.750000
 20
212.816422
 42
0.000000
  0
VERTEX
  8
0
 10
53.000000
 20
213.132845
 42
0.000000
  0
VERTEX
  8
0
 10
53.000000
 20
205.637851
 42
-0.024564
  0
VERTEX
  8
0
 10
52.733693
 20
200.220384
 42
-0.094100
  0
VERTEX
  8
0
 10
51.785449
 20
196.994346
 42
-0.214657
  0
VERTEX
  8
0
 10
50.186820
 20
195.716414
 42
-0.187883
  0
VERTEX
  8
0
 10
48.048203
 20
195.974203
 42
-0.099044
  0
VERTEX
  8
0
 10
46.502176
 20
197.247186
 42
-0.101519
  0
VERTEX
  8
0
 10
45.581409
 20
199.006502
 42
-0.057411
  0
VERTEX
  8
0
 10
45.121431
 20
201.766777
 42
-0.012608
  0
VERTEX
  8
0
 10
45.000000
 20
206.581787
 42
0.006511
  0
VERTEX
  8
0
 10
44.947075
 20
210.646128
 42
0.086564
  0
VERTEX
  8
0
 10
44.652621
 20
212.108179
 42
0.226676
  0
VERTEX
  8
0
 10
43.940137
 20
212.776654
 42
0.077083
  0
VERTEX
  8
0
 10
42.500000
 20
213.000000
 42
0.102468
  0
VERTEX
  8
0
 10
41.049476
 20
212.699580
 42
0.225278
  0
VERTEX
  8
0
 10
40.320816
 20
211.867431
 42
0.065278
  0
VERTEX
  8
0
 10
40.044418
 20
209.983347
 42
0.003823
  0
SEQEND
  0
POLYLINE
  8
0
 66
1
 70
1
  0
VERTEX
  8
0
 10
76.901210
 20
209.894245
 42
0.032983
  0
VERTEX
  8
0
 10
75.412752
 20
208.073860
 42
0.067839
  0
VERTEX
  8
0
 10
74.557830
 20
206.447641
 42
0.062631
  0
VERTEX
  8
0
 10
74.130812
 20
204.568394
 42
0.024589
  0
VERTEX
  8
0
 10
74.000000
 20
201.910021
 42
0.073644
  0
VERTEX
  8
0
 10
74.671208
 20
197.377607
 42
0.104487
  0
VERTEX
  8
0
 10
76.627055
 20
193.816619
 42
0.112652
  0
VERTEX
  8
0
 10
79.725773
 20
191.528889
 42
0.096646
  0
VERTEX
  8
0
 10
83.690392
 20
190.646866
 42
0.047892
  0
VERTEX
  8
0
 10
86.916831
 20
190.871452
 42
0.061180
  0
VERTEX
  8
0
 10
89.772469
 20
191.715577
 42
0.067725
  0
VERTEX
  8
0
 10
92.103509
 20
193.128336
 42
0.083302
  0
VERTEX
  8
0
 10
93.787085
 20
195.030676
 42
0.038659
  0
VERTEX
  8
0
 10
94.338628
 20
196.087594
 42
0.167649
  0
VERTEX
  8
0
 10
94.388410
 20
196.782869
 42
0.167599
  0
VERTEX
  8
0
 10
93.998892
 20
197.361062
 42
0.038631
  0
VERTEX
  8
0
 10
92.993999
 20
198.003212
 42
0.071201
  0
VERTEX
  8
0
 10
91.859054
 20
198.416514
 42
0.107928
  0
VERTEX
  8
0
 10
90.812432
 20
198.408191
 42
0.079084
  0
VERTEX
  8
0
 10
89.641107
 20
197.939241
 42
0.024501
  0
VERTEX
  8
0
 10
88.056498
 20
196.883649
 42
-0.017324
  0
VERTEX
  8
0
 10
86.200762
 20
195.608631
 42
-0.119304
  0
VERTEX
  8
0
 10
85.161911
 20
195.252954
 42
-0.141321
  0
VERTEX
  8
0
 10
84.158475
 20
195.444272
 42
-0.027721
  0
VERTEX
  8
0
 10
82.552381
 20
196.373722
 42
-0.048885
  0
VERTEX
  8
0
 10
80.379715
 20
198.122540
 42
-0.445253
  0
VERTEX
  8
0
 10
80.425482
 20
199.200606
 42
-0.160449
  0
VERTEX
  8
0
 10
82.138783
 20
199.869835
 42
-0.013550
  0
VERTEX
  8
0
 10
86.940983
 20
200.000000
 42
0.013129
  0
VERTEX
  8
0
 10
89.644112
 20
200.070991
 42
0.019066
  0
VERTEX
  8
0
 10
92.020411
 20
200.286972
 42
0.014992
  0
VERTEX
  8
0
 10
93.926976
 20
200.592209
 42
0.210136
  0
VERTEX
  8
0
 10
94.485740
 20
200.976927
 42
0.190687
  0
VERTEX
  8
0
 10
94.820263
 20
202.850081
 42
0.035566
  0
VERTEX
  8
0
 10
93.866711
 20
206.279153
 42
0.037766
  0
VERTEX
  8
0
 10
92.379925
 20
209.628044
 42
0.117148
  0
VERTEX
  8
0
 10
90.748808
 20
211.463388
 42
0.067806
  0
VERTEX
  8
0
 10
89.601793
 20
212.054148
 42
0.027620
  0
VERTEX
  8
0
 10
87.913889
 20
212.548620
 42
0.026708
  0
VERTEX
  8
0
 10
86.015160
 20
212.886968
 42
0.030745
  0
VERTEX
  8
0
 10
84.178704
 20
213.000000
 42
0.029278
  0
VERTEX
  8
0
 10
81.784993
 20
212.859712
 42
0.071693
  0
VERTEX
  8
0
 10
80.084137
 20
212.406846
 42
0.072971
  0
VERTEX
  8
0
 10
78.598215
 20
211.497769
 42
0.031187
  0
SEQEND
  0
POLYLINE
  8
0
 66
1
 70
1
  0
VERTEX
  8
0
 10
88.000000
 20
206.500000
 42
-0.102947
  0
VERTEX
  8
0
 10
88.411082
 20
205.724737
 42
-0.378769
  0
VERTEX
  8
0
 10
88.192919
 20
205.263441
 42
-0.093787
  0
VERTEX
  8
0
 10
87.190299
 20
205.041483
 42
-0.007709
  0
VERTEX
  8
0
 10
84.500000
 20
205.000000
 42
-0.007709
  0
VERTEX
  8
0
 10
81.809701
 20
205.041483
 42
-0.093787
  0
VERTEX
  8
0
 10
80.807081
 20
205.263441
 42
-0.378769
  0
VERTEX
  8
0
 10
80.588918
 20
205.724737
 42
-0.102947
  0
VERTEX
  8
0
 10
81.000000
 20
206.500000
 42
-0.073891
  0
VERTEX
  8
0
 10
81.641271
 20
207.074529
 42
-0.044567
  0
VERTEX
  8
0
 10
82.541642
 20
207.559375
 42
-0.043604
  0
VERTEX
  8
0
 10
83.545202
 20
207.889428
 42
-0.057711
  0
VERTEX
  8
0
 10
84.500000
 20
208.000000
 42
-0.057711
  0
VERTEX
  8
0
 10
85.454798
 20
207.889428
 42
-0.043604
  0
VERTEX
  8
0
 10
86.458358
 20
207.559375
 42
-0.044567
  0
VERTEX
  8
0
 10
87.358729
 20
207.074529
 42
-0.073891
  0
SEQEND
  0
POLYLINE
  8
0
 66
1
 70
1
  0
VERTEX
  8
0
 10
102.312561
 20
212.214335
 42
0.123554
  0
VERTEX
  8
0
 10
101.043041
 20
210.874793
 42
0.060391
  0
VERTEX
  8
0
 10
100.138025
 20
208.685992
 42
0.059287
  0
VERTEX
  8
0
 10
99.766092
 20
206.274023
 42
0.098294
  0
VERTEX
  8
0
 10
100.095791
 20
204.249014
 42
0.084539
  0
VERTEX
  8
0
 10
100.666433
 20
203.266165
 42
0.035830
  0
VERTEX
  8
0
 10
101.726871
 20
202.164514
 42
0.034147
  0
VERTEX
  8
0
 10
103.054563
 20
201.124349
 42
0.037849
  0
VERTEX
  8
0
 10
104.468140
 20
200.313802
 42
-0.028245
  0
VERTEX
  8
0
 10
105.820317
 20
199.572565
 42
-0.036534
  0
VERTEX
  8
0
 10
106.962516
 20
198.738098
 42
-0.039782
  0
VERTEX
  8
0
 10
107.772167
 20
197.931497
 42
-0.178811
  0
VERTEX
  8
0
 10
108.000000
 20
197.314788
 42
-0.271474
  0
VERTEX
  8
0
 10
107.465662
 20
196.403174
 42
-0.123733
  0
VERTEX
  8
0
 10
106.084191
 20
196.029392
 42
-0.109825
  0
VERTEX
  8
0
 10
104.570765
 20
196.337356
 42
-0.210406
  0
VERTEX
  8
0
 10
103.753920
 20
197.238240
 42
0.129543
  0
VERTEX
  8
0
 10
103.403758
 20
197.773400
 42
0.184381
  0
VERTEX
  8
0
 10
102.879174
 20
197.976311
 42
0.090335
  0
VERTEX
  8
0
 10
102.051176
 20
197.829259
 42
0.017896
  0
VERTEX
  8
0
 10
100.653567
 20
197.251924
 42
0.022734
  0
VERTEX
  8
0
 10
99.164835
 20
196.490098
 42
0.160644
  0
VERTEX
  8
0
 10
98.627868
 20
195.894631
 42
0.205735
  0
VERTEX
  8
0
 10
98.621132
 20
195.178864
 42
0.040485
  0
VERTEX
  8
0
 10
99.224971
 20
194.011372
 42
0.146204
  0
VERTEX
  8
0
 10
102.082414
 20
191.494062
 42
0.106079
  0
VERTEX
  8
0
 10
106.243764
 20
190.561401
 42
0.109508
  0
VERTEX
  8
0
 10
110.314329
 20
191.424896
 42
0.164516
  0
VERTEX
  8
0
 10
112.939198
 20
193.886391
 42
0.071564
  0
VERTEX
  8
0
 10
113.988435
 20
196.774125
 42
0.130740
  0
VERTEX
  8
0
 10
113.853109
 20
199.260225
 42
0.118852
  0
VERTEX
  8
0
 10
112.470915
 20
201.509695
 42
0.053420
  0
VERTEX
  8
0
 10
109.750000
 20
203.694217
 42
-0.000383
  0
VERTEX
  8
0
 10
108.091388
 20
204.758533
 42
-0.000552
  0
VERTEX
  8
0
 10
106.626042
 20
205.702705
 42
-0.000284
  0
VERTEX
  8
0
 10
105.384543
 20
206.505586
 42
-0.008997
  0
VERTEX
  8
0
 10
105.083333
 20
206.708405
 42
-0.187992
  0
VERTEX
  8
0
 10
104.975429
 20
206.870073
 42
-0.114018
  0
VERTEX
  8
0
 10
104.977797
 20
207.103079
 42
-0.083382
  0
VERTEX
  8
0
 10
105.093970
 20
207.375122
 42
-0.053908
  0
VERTEX
  8
0
 10
105.309167
 20
207.642501
 42
-0.175292
  0
VERTEX
  8
0
 10
105.655223
 20
207.804716
 42
-0.081309
  0
VERTEX
  8
0
 10
106.157239
 20
207.769022
 42
-0.065474
  0
VERTEX
  8
0
 10
106.732895
 20
207.549709
 42
-0.049530
  0
VERTEX
  8
0
 10
107.293984
 20
207.170978
 42
0.085902
  0
VERTEX
  8
0
 10
108.056121
 20
206.733249
 42
0.119846
  0
VERTEX
  8
0
 10
108.834341
 20
206.646193
 42
0.089292
  0
VERTEX
  8
0
 10
109.731411
 20
206.928870
 42
0.031920
  0
VERTEX
  8
0
 10
110.881601
 20
207.629624
 42
0.019318
  0
VERTEX
  8
0
 10
112.212504
 20
208.640634
 42
0.185046
  0
VERTEX
  8
0
 10
112.558122
 20
209.249099
 42
0.200905
  0
VERTEX
  8
0
 10
112.393411
 20
209.905334
 42
0.023284
  0
VERTEX
  8
0
 10
111.408463
 20
211.101147
 42
0.120469
  0
VERTEX
  8
0
 10
109.672537
 20
212.277199
 42
0.058539
  0
VERTEX
  8
0
 10
107.053315
 20
212.914622
 42
0.058342
  0
VERTEX
  8
0
 10
104.339773
 20
212.928804
 42
0.114254
  0
SEQEND
  0
POLYLINE
  8
0
 66
1
 70
1
  0
VERTEX
  8
0
 10
134.400000
 20
209.600000
 42
0.071529
  0
VERTEX
  8
0
 10
132.113665
 20
206.545714
 42
0.092006
  0
VERTEX
  8
0
 10
131.024824
 20
203.218534
 42
0.089318
  0
VERTEX
  8
0
 10
131.187106
 20
199.645519
 42
0.063510
  0
VERTEX
  8
0
 10
132.566418
 20
195.871562
 42
0.091326
  0
VERTEX
  8
0
 10
134.192758
 20
193.773430
 42
0.049627
  0
VERTEX
  8
0
 10
136.837010
 20
191.845139
 42
0.049352
  0
VERTEX
  8
0
 10
139.841460
 20
190.458925
 42
0.083609
  0
VERTEX
  8
0
 10
142.566752
 20
190.000000
 42
0.091616
  0
VERTEX
  8
0
 10
145.047263
 20
190.458356
 42
0.045359
  0
VERTEX
  8
0
 10
147.931897
 20
191.873559
 42
0.045035
  0
VERTEX
  8
0
 10
150.565736
 20
193.821357
 42
0.077771
  0
VERTEX
  8
0
 10
152.293937
 20
195.920450
 42
0.072202
  0
VERTEX
  8
0
 10
153.771854
 20
199.521916
 42
0.092376
  0
VERTEX
  8
0
 10
153.990107
 20
203.093829
 42
0.092703
  0
VERTEX
  8
0
 10
152.907790
 20
206.495073
 42
0.073241
  0
VERTEX
  8
0
 10
150.600000
 20
209.600000
 42
0.025574
  0
VERTEX
  8
0
 10
148.589913
 20
211.414346
 42
0.071548
  0
VERTEX
  8
0
 10
146.966114
 20
212.388298
 42
0.072595
  0
VERTEX
  8
0
 10
145.147395
 20
212.857504
 42
0.026893
  0
VERTEX
  8
0
 10
142.500000
 20
213.000000
 42
0.026893
  0
VERTEX
  8
0
 10
139.852605
 20
212.857504
 42
0.072595
  0
VERTEX
  8
0
 10
138.033886
 20
212.388298
 42
0.071548
  0
VERTEX
  8
0
 10
136.410087
 20
211.414346
 42
0.025574
  0
SEQEND
  0
POLYLINE
  8
0
 66
1
 70
1
  0
VERTEX
  8
0
 10
146.428571
 20
206.428571
 42
-0.131729
  0
VERTEX
  8
0
 10
147.559436
 20
204.469173
 42
-0.063648
  0
VERTEX
  8
0
 10
147.950356
 20
201.577475
 42
-0.064496
  0
VERTEX
  8
0
 10
147.604666
 20
198.747847
 42
-0.158224
  0
VERTEX
  8
0
 10
146.496921
 20
196.997445
 42
-0.064074
  0
VERTEX
  8
0
 10
145.741782
 20
196.518998
 42
-0.033576
  0
VERTEX
  8
0
 10
144.702805
 20
196.116437
 42
-0.032754
  0
VERTEX
  8
0
 10
143.565044
 20
195.841579
 42
-0.042914
  0
VERTEX
  8
0
 10
142.500000
 20
195.750000
 42
-0.079797
  0
VERTEX
  8
0
 10
140.136905
 20
196.129555
 42
-0.124008
  0
VERTEX
  8
0
 10
138.402772
 20
197.229546
 42
-0.119497
  0
VERTEX
  8
0
 10
137.355674
 20
199.054524
 42
-0.070877
  0
VERTEX
  8
0
 10
137.000000
 20
201.551016
 42
-0.073182
  0
VERTEX
  8
0
 10
137.385380
 20
204.169953
 42
-0.103856
  0
VERTEX
  8
0
 10
138.508957
 20
206.230684
 42
-0.114121
  0
VERTEX
  8
0
 10
140.272707
 20
207.536742
 42
-0.102895
  0
VERTEX
  8
0
 10
142.500000
 20
208.000000
 42
-0.056383
  0
VERTEX
  8
0
 10
143.517634
 20
207.884880
 42
-0.038823
  0
VERTEX
  8
0
 10
144.626339
 20
207.538393
 42
-0.039117
  0
VERTEX
  8
0
 10
145.654850
 20
207.030482
 42
-0.062206
  0
SEQEND
  0
POLYLINE
  8
0
 66
1
 70
1
  0
VERTEX
  8
0
 10
197.000000
 20
202.000000
 42
0.000000
  0
VERTEX
  8
0
 10
197.000000
 20
191.000000
 42
0.000000
  0
VERTEX
  8
0
 10
199.500000
 20
191.000000
 42
0.000000
  0
VERTEX
  8
0
 10
202.000000
 20
191.000000
 42
0.000000
  0
VERTEX
  8
0
 10
202.000000
 20
202.000000
 42
0.000000
  0
VERTEX
  8
0
 10
202.000000
 20
213.000000
 42
0.000000
  0
VERTEX
  8
0
 10
199.500000
 20
213.000000
 42
0.000000
  0
VERTEX
  8
0
 10
197.000000
 20
213.000000
 42
0.000000
  0
SEQEND
  0
POLYLINE
  8
0
 66
1
 70
1
  0
VERTEX
  8
0
 10
223.901210
 20
209.894245
 42
0.032983
  0
VERTEX
  8
0
 10
222.412752
 20
208.073860
 42
0.067839
  0
VERTEX
  8
0
 10
221.557830
 20
206.447641
 42
0.062631
  0
VERTEX
  8
0
 10
221.130812
 20
204.568394
 42
0.024589
  0
VERTEX
  8
0
 10
221.000000
 20
201.910021
 42
0.073644
  0
VERTEX
  8
0
 10
221.671208
 20
197.377607
 42
0.104487
  0
VERTEX
  8
0
 10
223.627055
 20
193.816619
 42
0.112652
  0
VERTEX
  8
0
 10
226.725773
 20
191.528889
 42
0.096646
  0
VERTEX
  8
0
 10
230.690392
 20
190.646866
 42
0.047892
  0
VERTEX
  8
0
 10
233.916831
 20
190.871452
 42
0.061180
  0
VERTEX
  8
0
 10
236.772469
 20
191.715577
 42
0.067725
  0
VERTEX
  8
0
 10
239.103509
 20
193.128336
 42
0.083302
  0
VERTEX
  8
0
 10
240.787085
 20
195.030676
 42
0.038659
  0
VERTEX
  8
0
 10
241.338628
 20
196.087594
 42
0.167649
  0
VERTEX
  8
0
 10
241.388410
 20
196.782869
 42
0.167599
  0
VERTEX
  8
0
 10
240.998892
 20
197.361062
 42
0.038631
  0
VERTEX
  8
0
 10
239.993999
 20
198.003212
 42
0.071201
  0
VERTEX
  8
0
 10
238.859054
 20
198.416514
 42
0.107928
  0
VERTEX
  8
0
 10
237.812432
 20
198.408191
 42
0.079084
  0
VERTEX
  8
0
 10
236.641107
 20
197.939241
 42
0.024501
  0
VERTEX
  8
0
 10
235.056498
 20
196.883649
 42
-0.017324
  0
VERTEX
  8
0
 10
233.200762
 20
195.608631
 42
-0.119304
  0
VERTEX
  8
0
 10
232.161911
 20
195.252954
 42
-0.141321
  0
VERTEX
  8
0
 10
231.158475
 20
195.444272
 42
-0.027721
  0
VERTEX
  8
0
 10
229.552381
 20
196.373722
 42
-0.048885
  0
VERTEX
  8
0
 10
227.379715
 20
198.122540
 42
-0.445253
  0
VERTEX
  8
0
 10
227.425482
 20
199.200606
 42
-0.160449
  0
VERTEX
  8
0
 10
229.138783
 20
199.869835
 42
-0.013550
  0
VERTEX
  8
0
 10
233.940983
 20
200.000000
 42
0.013129
  0
VERTEX
  8
0
 10
236.644112
 20
200.070991
 42
0.019066
  0
VERTEX
  8
0
 10
239.020411
 20
200.286972
 42
0.014992
  0
VERTEX
  8
0
 10
240.926976
 20
200.592209
 42
0.210136
  0
VERTEX
  8
0
 10
241.485740
 20
200.976927
 42
0.190687
  0
VERTEX
  8
0
 10
241.820263
 20
202.850081
 42
0.035566
  0
VERTEX
  8
0
 10
240.866711
 20
206.279153
 42
0.037766
  0
VERTEX
  8
0
 10
239.379925
 20
209.628044
 42
0.117148
  0
VERTEX
  8
0
 10
237.748808
 20
211.463388
 42
0.067806
  0
VERTEX
  8
0
 10
236.601793
 20
212.054148
 42
0.027620
  0
VERTEX
  8
0
 10
234.913889
 20
212.548620
 42
0.026708
  0
VERTEX
  8
0
 10
233.015160
 20
212.886968
 42
0.030745
  0
VERTEX
  8
0
 10
231.178704
 20
213.000000
 42
0.029278
  0
VERTEX
  8
0
 10
228.784993
 20
212.859712
 42
0.071693
  0
VERTEX
  8
0
 10
227.084137
 20
212.406846
 42
0.072971
  0
VERTEX
  8
0
 10
225.598215
 20
211.497769
 42
0.031187
  0
SEQEND
  0
POLYLINE
  8
0
 66
1
 70
1
  0
VERTEX
  8
0
 10
235.000000
 20
206.500000
 42
-0.102947
  0
VERTEX
  8
0
 10
235.411082
 20
205.724737
 42
-0.378769
  0
VERTEX
  8
0
 10
235.192919
 20
205.263441
 42
-0.093787
  0
VERTEX
  8
0
 10
234.190299
 20
205.041483
 42
-0.007709
  0
VERTEX
  8
0
 10
231.500000
 20
205.000000
 42
-0.007709
  0
VERTEX
  8
0
 10
228.809701
 20
205.041483
 42
-0.093787
  0
VERTEX
  8
0
 10
227.807081
 20
205.263441
 42
-0.378769
  0
VERTEX
  8
0
 10
227.588918
 20
205.724737
 42
-0.102947
  0
VERTEX
  8
0
 10
228.000000
 20
206.500000
 42
-0.073891
  0
VERTEX
  8
0
 10
228.641271
 20
207.074529
 42
-0.044567
  0
VERTEX
  8
0
 10
229.541642
 20
207.559375
 42
-0.043604
  0
VERTEX
  8
0
 10
230.545202
 20
207.889428
 42
-0.057711
  0
VERTEX
  8
0
 10
231.500000
 20
208.000000
 42
-0.057711
  0
VERTEX
  8
0
 10
232.454798
 20
207.889428
 42
-0.043604
  0
VERTEX
  8
0
 10
233.458358
 20
207.559375
 42
-0.044567
  0
VERTEX
  8
0
 10
234.358729
 20
207.074529
 42
-0.073891
  0
SEQEND
  0
POLYLINE
  8
0
 66
1
 70
1
  0
VERTEX
  8
0
 10
248.388540
 20
211.570137
 42
0.094489
  0
VERTEX
  8
0
 10
248.066301
 20
209.778845
 42
0.142573
  0
VERTEX
  8
0
 10
248.522244
 20
208.271157
 42
0.159681
  0
VERTEX
  8
0
 10
249.662609
 20
207.354253
 42
0.126054
  0
VERTEX
  8
0
 10
251.245529
 20
207.179863
 42
0.063694
  0
VERTEX
  8
0
 10
252.302356
 20
207.470385
 42
0.125889
  0
VERTEX
  8
0
 10
252.992539
 20
207.990667
 42
0.117597
  0
VERTEX
  8
0
 10
253.376446
 20
208.805567
 42
0.051583
  0
VERTEX
  8
0
 10
253.500000
 20
210.000000
 42
0.051583
  0
VERTEX
  8
0
 10
253.376446
 20
211.194433
 42
0.117597
  0
VERTEX
  8
0
 10
252.992539
 20
212.009333
 42
0.125889
  0
VERTEX
  8
0
 10
252.302356
 20
212.529615
 42
0.063694
  0
VERTEX
  8
0
 10
251.245529
 20
212.820137
 42
0.059912
  0
VERTEX
  8
0
 10
250.289159
 20
212.840584
 42
0.078693
  0
VERTEX
  8
0
 10
249.445456
 20
212.620322
 42
0.089548
  0
VERTEX
  8
0
 10
248.793053
 20
212.182509
 42
0.109110
  0
SEQEND
  0
POLYLINE
  8
0
 66
1
 70
1
  0
VERTEX
  8
0
 10
248.708849
 20
196.375516
 42
0.158890
  0
VERTEX
  8
0
 10
248.067325
 20
195.113376
 42
0.073165
  0
VERTEX
  8
0
 10
248.050480
 20
193.248926
 42
0.075011
  0
VERTEX
  8
0
 10
248.562650
 20
191.512205
 42
0.194361
  0
VERTEX
  8
0
 10
249.500000
 20
190.638374
 42
0.096816
  0
VERTEX
  8
0
 10
251.312523
 20
190.320936
 42
0.157669
  0
VERTEX
  8
0
 10
252.775698
 20
190.826062
 42
0.160638
  0
VERTEX
  8
0
 10
253.648367
 20
192.082505
 42
0.101335
  0
VERTEX
  8
0
 10
253.804095
 20
193.877747
 42
0.130088
  0
VERTEX
  8
0
 10
253.154108
 20
195.533034
 42
0.121114
  0
VERTEX
  8
0
 10
251.755640
 20
196.703423
 42
0.135145
  0
VERTEX
  8
0
 10
250.096213
 20
197.017622
 42
0.177804
  0
SEQEND
  0
POLYLINE
  8
0
 66
1
 70
1
  0
VERTEX
  8
0
 10
222.875981
 20
182.287024
 42
0.027237
  0
VERTEX
  8
0
 10
220.960757
 20
179.736940
 42
0.027488
  0
VERTEX
  8
0
 10
219.340446
 20
177.001361
 42
0.024725
  0
VERTEX
  8
0
 10
217.894740
 20
173.851920
 42
0.015465
  0
VERTEX
  8
0
 10
216.503324
 20
170.039820
 42
-0.005209
  0
VERTEX
  8
0
 10
215.407933
 20
166.836244
 42
-0.088836
  0
VERTEX
  8
0
 10
214.860034
 20
165.872823
 42
-0.484785
  0
VERTEX
  8
0
 10
214.386077
 20
165.885291
 42
-0.071968
  0
VERTEX
  8
0
 10
213.856018
 20
166.860183
 42
0.305255
  0
VERTEX
  8
0
 10
211.395695
 20
168.631313
 42
0.208079
  0
VERTEX
  8
0
 10
208.083314
 20
167.312521
 42
0.104038
  0
VERTEX
  8
0
 10
205.059515
 20
162.638927
 42
0.091991
  0
VERTEX
  8
0
 10
204.000000
 20
156.928842
 42
0.076342
  0
VERTEX
  8
0
 10
204.645327
 20
152.726899
 42
0.091364
  0
VERTEX
  8
0
 10
206.516353
 20
149.193576
 42
0.074398
  0
VERTEX
  8
0
 10
209.870744
 20
146.049442
 42
0.034277
  0
VERTEX
  8
0
 10
215.029113
 20
142.985304
 42
-0.043686
  0
VERTEX
  8
0
 10
219.699430
 20
140.091001
 42
-0.050812
  0
VERTEX
  8
0
 10
223.543108
 20
136.555576
 42
-0.050333
  0
VERTEX
  8
0
 10
226.622782
 20
132.287327
 42
-0.041573
  0
VERTEX
  8
0
 10
229.020303
 20
127.212487
 42
-0.013936
  0
VERTEX
  8
0
 10
230.625817
 20
122.531049
 42
-0.118802
  0
VERTEX
  8
0
 10
230.771185
 20
120.332319
 42
-0.200858
  0
VERTEX
  8
0
 10
229.837880
 20
118.866303
 42
-0.052964
  0
VERTEX
  8
0
 10
227.348527
 20
117.501157
 42
0.036194
  0
VERTEX
  8
0
 10
225.648823
 20
116.641748
 42
0.015726
  0
VERTEX
  8
0
 10
223.518795
 20
115.270623
 42
0.015466
  0
VERTEX
  8
0
 10
221.336470
 20
113.664964
 42
0.019868
  0
VERTEX
  8
0
 10
219.438740
 20
112.050297
 42
-0.040552
  0
VERTEX
  8
0
 10
214.648664
 20
108.304576
 42
-0.032985
  0
VERTEX
  8
0
 10
208.982452
 20
105.085495
 42
-0.024191
  0
VERTEX
  8
0
 10
201.445268
 20
101.878125
 42
-0.009010
  0
VERTEX
  8
0
 10
190.574823
 20
98.082485
 42
0.011665
  0
VERTEX
  8
0
 10
180.023836
 20
94.335404
 42
0.081150
  0
VERTEX
  8
0
 10
175.304067
 20
91.592018
 42
0.182272
  0
VERTEX
  8
0
 10
173.526609
 20
88.500137
 42
0.114109
  0
VERTEX
  8
0
 10
173.805519
 20
84.285330
 42
0.049127
  0
VERTEX
  8
0
 10
174.575642
 20
82.419704
 42
0.015730
  0
VERTEX
  8
0
 10
176.070535
 20
79.815582
 42
0.015525
  0
VERTEX
  8
0
 10
177.927340
 20
77.003774
 42
0.016749
  0
VERTEX
  8
0
 10
179.910774
 20
74.384734
 42
0.045965
  0
VERTEX
  8
0
 10
184.498109
 20
69.687156
 42
0.103867
  0
VERTEX
  8
0
 10
188.844140
 20
67.321850
 42
0.071659
  0
VERTEX
  8
0
 10
194.758989
 20
66.437887
 42
0.013880
  0
VERTEX
  8
0
 10
205.591593
 20
66.681442
 42
-0.013445
  0
VERTEX
  8
0
 10
214.532554
 20
66.890248
 42
-0.051934
  0
VERTEX
  8
0
 10
220.044444
 20
66.296467
 42
-0.080061
  0
VERTEX
  8
0
 10
224.008408
 20
64.755024
 42
-0.069151
  0
VERTEX
  8
0
 10
227.515804
 20
61.983504
 42
-0.050571
  0
VERTEX
  8
0
 10
229.181306
 20
59.850449
 42
-0.089908
  0
VERTEX
  8
0
 10
230.010703
 20
57.789106
 42
-0.041666
  0
VERTEX
  8
0
 10
230.389078
 20
54.648974
 42
-0.004032
  0
VERTEX
  8
0
 10
230.608403
 20
46.974250
 42
0.006250
  0
VERTEX
  8
0
 10
230.943429
 20
36.827431
 42
0.045690
  0
VERTEX
  8
0
 10
231.606096
 20
32.014392
 42
0.107379
  0
VERTEX
  8
0
 10
232.887569
 20
29.306970
 42
0.129913
  0
VERTEX
  8
0
 10
235.107435
 20
27.596874
 42
0.110947
  0
VERTEX
  8
0
 10
237.892062
 20
27.098679
 42
0.015669
  0
VERTEX
  8
0
 10
243.738354
 20
27.539680
 42
0.009452
  0
VERTEX
  8
0
 10
253.414466
 20
28.760734
 42
0.001441
  0
VERTEX
  8
0
 10
272.650853
 20
31.615221
 42
0.002509
  0
VERTEX
  8
0
 10
286.981358
 20
33.857569
 42
0.005111
  0
VERTEX
  8
0
 10
298.209587
 20
35.790215
 42
0.002025
  0
VERTEX
  8
0
 10
307.299659
 20
37.488743
 42
0.150272
  0
VERTEX
  8
0
 10
308.612848
 20
38.184276
 42
0.164352
  0
VERTEX
  8
0
 10
309.450718
 20
39.877085
 42
0.122595
  0
VERTEX
  8
0
 10
309.220069
 20
41.962418
 42
0.101541
  0
VERTEX
  8
0
 10
307.945772
 20
44.010771
 42
0.083856
  0
VERTEX
  8
0
 10
305.886394
 20
45.558748
 42
-0.058230
  0
VERTEX
  8
0
 10
300.380937
 20
49.273565
 42
-0.056164
  0
VERTEX
  8
0
 10
295.804866
 20
54.198687
 42
-0.050042
  0
VERTEX
  8
0
 10
292.034026
 20
60.540112
 42
-0.032405
  0
VERTEX
  8
0
 10
288.931298
 20
68.500000
 42
0.016369
  0
VERTEX
  8
0
 10
287.742541
 20
71.864574
 42
0.006919
  0
VERTEX
  8
0
 10
285.938015
 20
76.302475
 42
0.006837
  0
VERTEX
  8
0
 10
283.878419
 20
80.993516
 42
0.008872
  0
VERTEX
  8
0
 10
281.856488
 20
85.231831
 42
-0.004368
  0
VERTEX
  8
0
 10
279.995712
 20
89.043598
 42
-0.006350
  0
VERTEX
  8
0
 10
278.426593
 20
92.440743
 42
-0.003420
  0
VERTEX
  8
0
 10
277.160089
 20
95.329709
 42
-0.101931
  0
VERTEX
  8
0
 10
277.000000
 20
96.106831
 42
-0.232538
  0
VERTEX
  8
0
 10
277.217139
 20
96.548475
 42
-0.122663
  0
VERTEX
  8
0
 10
277.790113
 20
96.799404
 42
-0.067031
  0
VERTEX
  8
0
 10
278.746696
 20
96.832720
 42
-0.024592
  0
VERTEX
  8
0
 10
280.087202
 20
96.632560
 42
0.074008
  0
VERTEX
  8
0
 10
284.220410
 20
96.427184
 42
0.065364
  0
VERTEX
  8
0
 10
288.424337
 20
97.405485
 42
0.061954
  0
VERTEX
  8
0
 10
292.432705
 20
99.507262
 42
0.054905
  0
VERTEX
  8
0
 10
295.988092
 20
102.602908
 42
0.026457
  0
VERTEX
  8
0
 10
299.407985
 20
106.731288
 42
0.047205
  0
VERTEX
  8
0
 10
301.690495
 20
110.499916
 42
0.061932
  0
VERTEX
  8
0
 10
302.754230
 20
113.641051
 42
0.191924
  0
VERTEX
  8
0
 10
302.368662
 20
115.803873
 42
0.151670
  0
VERTEX
  8
0
 10
299.327817
 20
118.439309
 42
0.041414
  0
VERTEX
  8
0
 10
293.249056
 20
120.523279
 42
0.041007
  0
VERTEX
  8
0
 10
286.177127
 20
121.704656
 42
0.053912
  0
VERTEX
  8
0
 10
279.640254
 20
121.546666
 42
0.000000
  0
VERTEX
  8
0
 10
274.772764
 20
120.900970
 42
0.000000
  0
VERTEX
  8
0
 10
277.964609
 20
124.700485
 42
0.000275
  0
VERTEX
  8
0
 10
279.427586
 20
126.443934
 42
0.000156
  0
VERTEX
  8
0
 10
281.199276
 20
128.558979
 42
0.000155
  0
VERTEX
  8
0
 10
282.984735
 20
130.693155
 42
0.000255
  0
VERTEX
  8
0
 10
284.494075
 20
132.500295
 42
0.032820
  0
VERTEX
  8
0
 10
287.764423
 20
136.988324
 42
0.030375
  0
VERTEX
  8
0
 10
290.513456
 20
141.980324
 42
0.031814
  0
VERTEX
  8
0
 10
292.411849
 20
146.746639
 42
0.079021
  0
VERTEX
  8
0
 10
293.000000
 20
150.444887
 42
0.057565
  0
VERTEX
  8
0
 10
292.627576
 20
153.668997
 42
0.053594
  0
VERTEX
  8
0
 10
291.527978
 20
156.806515
 42
0.057355
  0
VERTEX
  8
0
 10
289.902461
 20
159.406400
 42
0.101863
  0
VERTEX
  8
0
 10
287.968983
 20
161.016600
 42
0.083355
  0
VERTEX
  8
0
 10
286.142914
 20
161.632033
 42
0.254109
  0
VERTEX
  8
0
 10
284.949738
 20
161.211387
 42
0.130801
  0
VERTEX
  8
0
 10
284.140744
 20
159.634619
 42
0.019314
  0
VERTEX
  8
0
 10
283.510484
 20
156.076230
 42
-0.017016
  0
VERTEX
  8
0
 10
283.165610
 20
154.075609
 42
-0.017817
  0
VERTEX
  8
0
 10
282.689687
 20
152.133890
 42
-0.017778
  0
VERTEX
  8
0
 10
282.161088
 20
150.492455
 42
-0.071759
  0
VERTEX
  8
0
 10
281.666800
 20
149.566590
 42
-0.252863
  0
VERTEX
  8
0
 10
281.123436
 20
149.309583
 42
-0.330788
  0
VERTEX
  8
0
 10
280.714270
 20
149.648972
 42
-0.050432
  0
VERTEX
  8
0
 10
280.495867
 20
151.214064
 42
-0.005922
  0
VERTEX
  8
0
 10
280.404092
 20
154.739243
 42
0.064277
  0
VERTEX
  8
0
 10
279.313681
 20
162.335995
 42
0.066204
  0
VERTEX
  8
0
 10
276.332676
 20
169.325175
 42
0.077227
  0
VERTEX
  8
0
 10
272.216879
 20
174.316893
 42
0.183812
  0
VERTEX
  8
0
 10
267.793222
 20
176.000000
 42
0.079514
  0
VERTEX
  8
0
 10
266.699448
 20
175.824953
 42
0.235043
  0
VERTEX
  8
0
 10
266.173209
 20
175.305308
 42
0.106314
  0
VERTEX
  8
0
 10
266.046185
 20
174.235337
 42
0.011508
  0
VERTEX
  8
0
 10
266.337505
 20
171.750000
 42
0.006374
  0
VERTEX
  8
0
 10
266.637357
 20
169.798318
 42
0.003543
  0
VERTEX
  8
0
 10
267.050054
 20
167.426562
 42
0.003533
  0
VERTEX
  8
0
 10
267.501833
 20
165.031409
 42
0.005705
  0
VERTEX
  8
0
 10
267.924006
 20
163.000000
 42
-0.029069
  0
VERTEX
  8
0
 10
268.635664
 20
158.538954
 42
-0.022494
  0
VERTEX
  8
0
 10
268.906720
 20
153.623917
 42
-0.019696
  0
VERTEX
  8
0
 10
268.777707
 20
149.218259
 42
-0.124588
  0
VERTEX
  8
0
 10
268.084768
 20
147.102917
 42
-0.257635
  0
VERTEX
  8
0
 10
266.211595
 20
146.074647
 42
-0.072433
  0
VERTEX
  8
0
 10
262.793448
 20
146.580351
 42
-0.046653
  0
VERTEX
  8
0
 10
258.054501
 20
148.499202
 42
-0.019298
  0
VERTEX
  8
0
 10
252.034318
 20
151.918707
 42
0.007209
  0
VERTEX
  8
0
 10
248.792491
 20
153.865201
 42
0.010022
  0
VERTEX
  8
0
 10
245.830844
 20
155.507370
 42
0.006858
  0
VERTEX
  8
0
 10
243.322590
 20
156.789422
 42
0.115205
  0
VERTEX
  8
0
 10
242.420793
 20
157.000000
 42
0.508671
  0
VERTEX
  8
0
 10
241.069015
 20
155.144738
 42
0.080821
  0
VERTEX
  8
0
 10
243.495172
 20
150.400704
 42
0.045319
  0
VERTEX
  8
0
 10
249.084694
 20
144.086605
 42
0.036118
  0
VERTEX
  8
0
 10
256.141363
 20
138.340204
 42
-0.009817
  0
VERTEX
  8
0
 10
259.152644
 20
136.140748
 42
-0.014600
  0
VERTEX
  8
0
 10
261.691525
 20
134.089023
 42
-0.009598
  0
VERTEX
  8
0
 10
263.692296
 20
132.305455
 42
-0.208843
  0
VERTEX
  8
0
 10
264.000000
 20
131.600897
 42
-0.192775
  0
VERTEX
  8
0
 10
263.754023
 20
130.986618
 42
-0.027969
  0
VERTEX
  8
0
 10
262.751562
 20
130.046879
 42
-0.028300
  0
VERTEX
  8
0
 10
261.377646
 20
129.022641
 42
-0.020784
  0
VERTEX
  8
0
 10
259.750000
 20
128.041528
 42
0.015292
  0
VERTEX
  8
0
 10
257.926441
 20
126.969442
 42
0.011060
  0
VERTEX
  8
0
 10
255.959742
 20
125.669133
 42
0.011190
  0
VERTEX
  8
0
 10
254.144622
 20
124.349362
 42
0.023782
  0
VERTEX
  8
0
 10
252.815079
 20
123.232645
 42
-0.031319
  0
VERTEX
  8
0
 10
251.371272
 20
122.056586
 42
-0.073447
  0
VERTEX
  8
0
 10
250.136330
 20
121.422578
 42
-0.086308
  0
VERTEX
  8
0
 10
248.900143
 20
121.228807
 42
-0.057363
  0
VERTEX
  8
0
 10
247.474158
 20
121.417130
 42
-0.033605
  0
VERTEX
  8
0
 10
246.215460
 20
121.824618
 42
-0.124518
  0
VERTEX
  8
0
 10
245.545488
 20
122.311092
 42
-0.180820
  0
VERTEX
  8
0
 10
245.323488
 20
122.944262
 42
-0.089309
  0
VERTEX
  8
0
 10
245.494155
 20
123.791872
 42
0.085482
  0
VERTEX
  8
0
 10
246.706189
 20
129.583680
 42
0.090427
  0
VERTEX
  8
0
 10
245.869641
 20
135.327582
 42
0.198490
  0
VERTEX
  8
0
 10
243.578647
 20
137.956210
 42
0.348151
  0
VERTEX
  8
0
 10
240.911384
 20
137.393225
 42
-0.030653
  0
VERTEX
  8
0
 10
240.237093
 20
136.675220
 42
-0.167325
  0
VERTEX
  8
0
 10
239.758452
 20
136.459218
 42
-0.221422
  0
VERTEX
  8
0
 10
239.329028
 20
136.612801
 42
-0.056616
  0
VERTEX
  8
0
 10
238.853584
 20
137.202666
 42
-0.130737
  0
VERTEX
  8
0
 10
238.106585
 20
139.573001
 42
-0.032354
  0
VERTEX
  8
0
 10
238.186289
 20
143.682531
 42
-0.022408
  0
VERTEX
  8
0
 10
238.961763
 20
149.665903
 42
-0.006916
  0
VERTEX
  8
0
 10
240.656740
 20
158.598253
 42
0.006614
  0
VERTEX
  8
0
 10
241.634951
 20
163.736348
 42
0.009370
  0
VERTEX
  8
0
 10
242.358851
 20
168.334095
 42
0.005989
  0
VERTEX
  8
0
 10
242.844497
 20
172.185099
 42
0.120548
  0
VERTEX
  8
0
 10
242.696604
 20
173.348253
 42
0.201654
  0
VERTEX
  8
0
 10
241.474554
 20
174.622788
 42
0.137452
  0
VERTEX
  8
0
 10
239.458936
 20
174.897086
 42
0.099307
  0
VERTEX
  8
0
 10
237.037341
 20
174.051630
 42
0.070532
  0
VERTEX
  8
0
 10
234.785110
 20
172.250000
 42
0.066735
  0
VERTEX
  8
0
 10
232.703323
 20
169.346216
 42
0.032078
  0
VERTEX
  8
0
 10
230.812072
 20
165.162804
 42
0.031900
  0
VERTEX
  8
0
 10
229.434469
 20
160.656322
 42
0.052808
  0
VERTEX
  8
0
 10
228.929715
 20
156.715053
 42
-0.020650
  0
VERTEX
  8
0
 10
228.842611
 20
155.337588
 42
-0.016272
  0
VERTEX
  8
0
 10
228.638502
 20
153.856922
 42
-0.016562
  0
VERTEX
  8
0
 10
228.358076
 20
152.492119
 42
-0.038605
  0
VERTEX
  8
0
 10
228.037050
 20
151.500000
 42
-0.367276
  0
VERTEX
  8
0
 10
227.116792
 20
151.024736
 42
-0.310849
  0
VERTEX
  8
0
 10
226.354242
 20
151.858542
 42
-0.043346
  0
VERTEX
  8
0
 10
226.138911
 20
156.044787
 42
-0.013433
  0
VERTEX
  8
0
 10
226.530659
 20
162.344023
 42
0.006073
  0
VERTEX
  8
0
 10
227.302797
 20
172.374542
 42
0.023083
  0
VERTEX
  8
0
 10
227.419160
 20
178.655543
 42
0.032621
  0
VERTEX
  8
0
 10
227.050292
 20
182.616769
 42
0.314670
  0
VERTEX
  8
0
 10
225.938493
 20
183.768421
 42
0.106222
  0
VERTEX
  8
0
 10
225.231064
 20
183.755425
 42
0.055186
  0
VERTEX
  8
0
 10
224.394759
 20
183.459331
 42
0.051255
  0
VERTEX
  8
0
 10
223.566024
 20
182.947849
 42
0.054250
  0
SEQEND
  0
POLYLINE
  8
0
 66
1
 70
1
  0
VERTEX
  8
0
 10
214.413412
 20
149.080079
 42
-0.395182
  0
VERTEX
  8
0
 10
213.571384
 20
149.052529
 42
-0.020815
  0
VERTEX
  8
0
 10
211.442396
 20
151.082554
 42
-0.024244
  0
VERTEX
  8
0
 10
209.473336
 20
153.331738
 42
-0.169241
  0
VERTEX
  8
0
 10
209.000000
 20
154.690091
 42
-0.459356
  0
VERTEX
  8
0
 10
209.255723
 20
154.909706
 42
-0.108246
  0
VERTEX
  8
0
 10
209.856973
 20
154.678379
 42
-0.045496
  0
VERTEX
  8
0
 10
210.795755
 20
153.928702
 42
-0.019200
  0
VERTEX
  8
0
 10
211.917355
 20
152.766465
 42
-0.012753
  0
VERTEX
  8
0
 10
213.005379
 20
151.484396
 42
-0.020756
  0
VERTEX
  8
0
 10
213.853981
 20
150.336741
 42
-0.015948
  0
VERTEX
  8
0
 10
214.452802
 20
149.388570
 42
-0.341632
  0
SEQEND
  0
POLYLINE
  8
0
 66
1
 70
1
  0
VERTEX
  8
0
 10
225.073219
 20
144.750000
 42
0.043975
  0
VERTEX
  8
0
 10
226.061715
 20
144.079993
 42
0.032557
  0
VERTEX
  8
0
 10
227.255486
 20
143.514062
 42
0.033232
  0
VERTEX
  8
0
 10
228.462959
 20
143.125732
 42
0.061256
  0
VERTEX
  8
0
 10
229.485384
 20
143.000000
 42
-0.130640
  0
VERTEX
  8
0
 10
230.762063
 20
142.660637
 42
-0.120371
  0
VERTEX
  8
0
 10
231.748295
 20
141.724760
 42
-0.055917
  0
VERTEX
  8
0
 10
232.689674
 20
139.826056
 42
-0.009366
  0
VERTEX
  8
0
 10
234.008033
 20
135.975017
 42
0.015573
  0
VERTEX
  8
0
 10
234.989654
 20
133.219702
 42
0.019893
  0
VERTEX
  8
0
 10
236.071723
 20
130.751500
 42
0.018188
  0
VERTEX
  8
0
 10
237.114725
 20
128.792877
 42
0.134527
  0
VERTEX
  8
0
 10
237.861380
 20
128.057700
 42
-0.112571
  0
VERTEX
  8
0
 10
238.484184
 20
127.495384
 42
-0.049434
  0
VERTEX
  8
0
 10
239.033047
 20
126.521950
 42
-0.045509
  0
VERTEX
  8
0
 10
239.433544
 20
125.328086
 42
-0.045647
  0
VERTEX
  8
0
 10
239.610929
 20
124.082683
 42
-0.027474
  0
VERTEX
  8
0
 10
239.603765
 20
122.553069
 42
-0.108824
  0
VERTEX
  8
0
 10
239.348700
 20
121.653919
 42
-0.172777
  0
VERTEX
  8
0
 10
238.815629
 20
121.171642
 42
-0.098628
  0
VERTEX
  8
0
 10
237.953941
 20
121.000000
 42
-0.161657
  0
VERTEX
  8
0
 10
237.020978
 20
121.309735
 42
-0.091575
  0
VERTEX
  8
0
 10
236.203589
 20
122.192308
 42
-0.053854
  0
VERTEX
  8
0
 10
235.428452
 20
123.769378
 42
-0.016580
  0
VERTEX
  8
0
 10
234.603600
 20
126.291625
 42
0.051012
  0
VERTEX
  8
0
 10
232.504302
 20
131.474542
 42
0.032751
  0
VERTEX
  8
0
 10
229.097277
 20
137.003476
 42
0.032990
  0
VERTEX
  8
0
 10
225.067153
 20
141.949692
 42
0.059204
  0
VERTEX
  8
0
 10
221.076260
 20
145.330836
 42
-0.009290
  0
VERTEX
  8
0
 10
218.416861
 20
147.162683
 42
-0.064661
  0
VERTEX
  8
0
 10
217.264635
 20
148.238044
 42
-0.515327
  0
VERTEX
  8
0
 10
217.382670
 20
148.680111
 42
-0.139801
  0
VERTEX
  8
0
 10
218.250000
 20
148.750000
 42
0.219009
  0
VERTEX
  8
0
 10
218.768420
 20
148.873472
 42
0.095561
  0
VERTEX
  8
0
 10
219.242951
 20
149.419749
 42
0.065872
  0
VERTEX
  8
0
 10
219.619111
 20
150.326773
 42
0.037058
  0
VERTEX
  8
0
 10
219.841698
 20
151.500000
 42
0.000000
  0
VERTEX
  8
0
 10
220.183395
 20
154.500000
 42
0.000000
  0
VERTEX
  8
0
 10
221.554133
 20
150.500000
 42
0.030001
  0
VERTEX
  8
0
 10
222.236633
 20
148.840235
 42
0.024779
  0
VERTEX
  8
0
 10
223.153294
 20
147.160938
 42
0.025479
  0
VERTEX
  8
0
 10
224.151975
 20
145.701651
 42
0.059101
  0
SEQEND
  0
POLYLINE
  8
0
 66
1
 70
1
  0
VERTEX
  8
0
 10
275.108482
 20
137.562172
 42
0.000000
  0
VERTEX
  8
0
 10
278.438837
 20
134.759863
 42
0.000000
  0
VERTEX
  8
0
 10
266.248938
 20
122.879931
 42
-0.003723
  0
VERTEX
  8
0
 10
258.491724
 20
115.431770
 42
-0.029788
  0
VERTEX
  8
0
 10
254.696067
 20
112.247218
 42
-0.134946
  0
VERTEX
  8
0
 10
252.854412
 20
111.532391
 42
-0.444406
  0
VERTEX
  8
0
 10
252.000000
 20
112.303833
 42
-0.189007
  0
VERTEX
  8
0
 10
252.653789
 20
113.971588
 42
-0.022863
  0
VERTEX
  8
0
 10
255.515110
 20
116.790133
 42
-0.024001
  0
VERTEX
  8
0
 10
259.451103
 20
120.000165
 42
-0.015903
  0
VERTEX
  8
0
 10
264.250000
 20
123.314078
 42
0.011602
  0
VERTEX
  8
0
 10
267.541141
 20
125.545243
 42
0.068196
  0
VERTEX
  8
0
 10
269.057098
 20
126.972138
 42
0.112448
  0
VERTEX
  8
0
 10
269.765847
 20
128.418932
 42
0.057955
  0
VERTEX
  8
0
 10
270.000000
 20
130.432291
 42
0.052051
  0
VERTEX
  8
0
 10
269.804697
 20
132.303284
 42
0.078993
  0
VERTEX
  8
0
 10
269.221026
 20
133.827647
 42
0.062838
  0
VERTEX
  8
0
 10
268.084337
 20
135.326482
 42
0.022127
  0
VERTEX
  8
0
 10
266.110298
 20
137.173594
 42
0.000000
  0
VERTEX
  8
0
 10
262.220595
 20
140.503034
 42
0.000000
  0
VERTEX
  8
0
 10
266.999361
 20
140.433758
 42
-0.027594
  0
VERTEX
  8
0
 10
269.519300
 20
140.257910
 42
-0.053926
  0
VERTEX
  8
0
 10
271.476008
 20
139.794408
 42
-0.056502
  0
VERTEX
  8
0
 10
273.228933
 20
138.940672
 42
-0.033363
  0
SEQEND
  0
POLYLINE
  8
0
 66
1
 70
1
  0
VERTEX
  8
0
 10
250.129858
 20
106.621597
 42
0.064901
  0
VERTEX
  8
0
 10
252.319424
 20
105.477810
 42
0.084279
  0
VERTEX
  8
0
 10
254.541537
 20
105.065161
 42
0.098005
  0
VERTEX
  8
0
 10
256.513859
 20
105.423933
 42
0.126354
  0
VERTEX
  8
0
 10
258.000000
 20
106.500000
 42
-0.055242
  0
VERTEX
  8
0
 10
258.596407
 20
107.075663
 42
-0.042548
  0
VERTEX
  8
0
 10
259.357298
 20
107.565826
 42
-0.043674
  0
VERTEX
  8
0
 10
260.158399
 20
107.904477
 42
-0.074930
  0
VERTEX
  8
0
 10
260.872445
 20
108.021962
 42
0.065060
  0
VERTEX
  8
0
 10
261.772141
 20
108.151898
 42
0.012760
  0
VERTEX
  8
0
 10
263.337402
 20
108.634183
 42
0.013341
  0
VERTEX
  8
0
 10
265.144415
 20
109.296021
 42
0.012020
  0
VERTEX
  8
0
 10
266.978286
 20
110.075277
 42
0.000000
  0
VERTEX
  8
0
 10
271.456572
 20
112.106629
 42
0.000000
  0
VERTEX
  8
0
 10
267.552722
 20
108.732018
 42
0.018492
  0
VERTEX
  8
0
 10
265.729116
 20
107.033859
 42
0.056816
  0
VERTEX
  8
0
 10
264.682352
 20
105.714008
 42
0.091997
  0
VERTEX
  8
0
 10
264.244827
 20
104.597665
 42
0.140018
  0
VERTEX
  8
0
 10
264.335956
 20
103.566895
 42
0.089999
  0
VERTEX
  8
0
 10
264.830586
 20
102.752701
 42
0.123855
  0
VERTEX
  8
0
 10
265.534789
 20
102.272062
 42
0.091686
  0
VERTEX
  8
0
 10
266.548649
 20
102.098455
 42
0.033126
  0
VERTEX
  8
0
 10
268.011520
 20
102.214999
 42
-0.025776
  0
VERTEX
  8
0
 10
269.803845
 20
102.384316
 42
-0.206994
  0
VERTEX
  8
0
 10
270.560196
 20
102.094798
 42
-0.181949
  0
VERTEX
  8
0
 10
270.921904
 20
101.320539
 42
-0.019271
  0
VERTEX
  8
0
 10
271.000000
 20
99.295057
 42
0.073364
  0
VERTEX
  8
0
 10
271.292479
 20
97.312451
 42
0.017548
  0
VERTEX
  8
0
 10
272.368105
 20
94.151816
 42
0.016219
  0
VERTEX
  8
0
 10
273.971789
 20
90.311225
 42
0.010528
  0
VERTEX
  8
0
 10
276.060683
 20
85.976313
 42
-0.009631
  0
VERTEX
  8
0
 10
278.211749
 20
81.532773
 42
-0.006564
  0
VERTEX
  8
0
 10
280.492942
 20
76.403184
 42
-0.006616
  0
VERTEX
  8
0
 10
282.563729
 20
71.395215
 42
-0.013224
  0
VERTEX
  8
0
 10
284.042730
 20
67.373587
 42
0.022129
  0
VERTEX
  8
0
 10
286.771603
 20
60.342418
 42
0.032257
  0
VERTEX
  8
0
 10
289.834214
 20
54.444694
 42
0.036169
  0
VERTEX
  8
0
 10
293.300339
 20
49.545726
 42
0.043725
  0
VERTEX
  8
0
 10
297.242319
 20
45.524580
 42
-0.004771
  0
VERTEX
  8
0
 10
299.822982
 20
43.272611
 42
-0.113828
  0
VERTEX
  8
0
 10
300.376237
 20
42.492853
 42
-0.409366
  0
VERTEX
  8
0
 10
300.170126
 20
41.986690
 42
-0.046348
  0
VERTEX
  8
0
 10
298.871975
 20
41.564613
 42
-0.018110
  0
VERTEX
  8
0
 10
294.156828
 20
40.679736
 42
-0.000350
  0
VERTEX
  8
0
 10
269.665113
 20
37.013405
 42
-0.000397
  0
VERTEX
  8
0
 10
245.388220
 20
33.416267
 42
-0.015645
  0
VERTEX
  8
0
 10
240.000000
 20
32.793759
 42
0.000000
  0
VERTEX
  8
0
 10
236.500000
 20
32.500000
 42
0.000000
  0
VERTEX
  8
0
 10
236.000000
 20
46.000000
 42
0.004675
  0
VERTEX
  8
0
 10
235.756238
 20
51.253043
 42
0.006893
  0
VERTEX
  8
0
 10
235.435581
 20
55.858920
 42
0.003529
  0
VERTEX
  8
0
 10
235.083969
 20
59.739975
 42
0.120504
  0
VERTEX
  8
0
 10
234.780701
 20
60.604833
 42
-0.451791
  0
VERTEX
  8
0
 10
234.929687
 20
61.139881
 42
-0.055301
  0
VERTEX
  8
0
 10
236.227168
 20
61.598921
 42
-0.029460
  0
VERTEX
  8
0
 10
238.575580
 20
62.003631
 42
-0.008277
  0
VERTEX
  8
0
 10
242.280701
 20
62.357432
 42
0.008721
  0
VERTEX
  8
0
 10
249.889440
 20
63.090806
 42
0.051701
  0
VERTEX
  8
0
 10
253.788254
 20
63.949733
 42
0.124607
  0
VERTEX
  8
0
 10
255.761681
 20
65.209318
 42
0.190965
  0
VERTEX
  8
0
 10
256.500000
 20
67.071947
 42
0.046080
  0
VERTEX
  8
0
 10
256.379943
 20
68.371872
 42
0.192348
  0
VERTEX
  8
0
 10
255.967549
 20
69.023487
 42
0.152778
  0
VERTEX
  8
0
 10
255.150737
 20
69.297150
 42
0.026370
  0
VERTEX
  8
0
 10
253.500000
 20
69.243226
 42
-0.003903
  0
VERTEX
  8
0
 10
241.576028
 20
68.316345
 42
-0.025457
  0
VERTEX
  8
0
 10
235.567125
 20
68.202960
 42
-0.043603
  0
VERTEX
  8
0
 10
231.033248
 20
68.745910
 42
-0.026634
  0
VERTEX
  8
0
 10
225.820880
 20
70.130243
 42
0.019837
  0
VERTEX
  8
0
 10
221.244230
 20
71.412552
 42
0.034268
  0
VERTEX
  8
0
 10
217.346247
 20
72.061624
 42
0.023778
  0
VERTEX
  8
0
 10
212.528699
 20
72.297598
 42
0.005155
  0
VERTEX
  8
0
 10
204.196355
 20
72.223311
 42
-0.005139
  0
VERTEX
  8
0
 10
198.628716
 20
72.173490
 42
-0.007586
  0
VERTEX
  8
0
 10
193.742976
 20
72.254123
 42
-0.003950
  0
VERTEX
  8
0
 10
189.629574
 20
72.416993
 42
-0.131277
  0
VERTEX
  8
0
 10
188.696355
 20
72.714423
 42
-0.642088
  0
VERTEX
  8
0
 10
188.746402
 20
73.068569
 42
-0.019535
  0
VERTEX
  8
0
 10
190.642054
 20
73.552118
 42
-0.017465
  0
VERTEX
  8
0
 10
193.436995
 20
74.048495
 42
-0.008738
  0
VERTEX
  8
0
 10
197.000000
 20
74.490285
 42
0.004535
  0
VERTEX
  8
0
 10
202.685977
 20
75.146833
 42
0.048436
  0
VERTEX
  8
0
 10
204.952564
 20
75.655652
 42
0.166443
  0
VERTEX
  8
0
 10
205.915525
 20
76.383886
 42
0.193435
  0
VERTEX
  8
0
 10
206.154931
 20
77.500000
 42
0.058555
  0
VERTEX
  8
0
 10
205.649912
 20
79.205853
 42
0.212521
  0
VERTEX
  8
0
 10
204.839480
 20
79.956588
 42
0.085113
  0
VERTEX
  8
0
 10
203.262336
 20
80.208762
 42
0.005274
  0
VERTEX
  8
0
 10
198.508785
 20
80.105051
 42
-0.006790
  0
VERTEX
  8
0
 10
194.605754
 20
80.031734
 42
-0.070368
  0
VERTEX
  8
0
 10
193.016999
 20
80.248018
 42
-0.203403
  0
VERTEX
  8
0
 10
192.277565
 20
80.842478
 42
-0.123707
  0
VERTEX
  8
0
 10
192.000000
 20
81.947170
 42
-0.068766
  0
VERTEX
  8
0
 10
192.110286
 20
82.745267
 42
-0.089336
  0
VERTEX
  8
0
 10
192.432675
 20
83.407862
 42
-0.104393
  0
VERTEX
  8
0
 10
192.918506
 20
83.844158
 42
-0.131678
  0
VERTEX
  8
0
 10
193.500000
 20
84.000000
 42
0.090674
  0
VERTEX
  8
0
 10
194.072657
 20
84.104712
 42
0.095580
  0
VERTEX
  8
0
 10
194.559375
 20
84.404657
 42
0.099644
  0
VERTEX
  8
0
 10
194.885048
 20
84.851990
 42
0.108083
  0
VERTEX
  8
0
 10
195.000000
 20
85.377555
 42
0.140902
  0
VERTEX
  8
0
 10
194.636929
 20
86.640356
 42
0.071442
  0
VERTEX
  8
0
 10
193.559211
 20
87.913231
 42
0.077257
  0
VERTEX
  8
0
 10
192.269850
 20
88.742188
 42
0.247567
  0
VERTEX
  8
0
 10
191.282776
 20
88.674765
 42
-0.165068
  0
VERTEX
  8
0
 10
190.848438
 20
88.574721
 42
-0.051273
  0
VERTEX
  8
0
 10
190.183267
 20
88.711814
 42
-0.044967
  0
VERTEX
  8
0
 10
189.421198
 20
89.030051
 42
-0.036495
  0
VERTEX
  8
0
 10
188.669956
 20
89.499383
 42
-0.009277
  0
VERTEX
  8
0
 10
187.530372
 20
90.365564
 42
-0.231058
  0
VERTEX
  8
0
 10
187.364296
 20
90.710978
 42
-0.315619
  0
VERTEX
  8
0
 10
187.558773
 20
90.984880
 42
-0.015286
  0
VERTEX
  8
0
 10
188.680985
 20
91.346041
 42
0.002492
  0
VERTEX
  8
0
 10
197.658520
 20
93.983807
 42
0.009084
  0
VERTEX
  8
0
 10
203.316552
 20
95.789541
 42
0.013611
  0
VERTEX
  8
0
 10
207.575892
 20
97.365185
 42
0.014964
  0
VERTEX
  8
0
 10
211.608759
 20
99.125010
 42
0.018379
  0
VERTEX
  8
0
 10
214.278263
 20
100.508481
 42
0.012306
  0
VERTEX
  8
0
 10
217.229533
 20
102.275576
 42
0.012402
  0
VERTEX
  8
0
 10
220.008035
 20
104.131587
 42
0.023771
  0
VERTEX
  8
0
 10
222.123540
 20
105.777694
 42
-0.007541
  0
VERTEX
  8
0
 10
226.755885
 20
109.629870
 42
-0.045347
  0
VERTEX
  8
0
 10
229.359609
 20
111.365639
 42
-0.050751
  0
VERTEX
  8
0
 10
232.114528
 20
112.517248
 42
-0.010846
  0
VERTEX
  8
0
 10
237.115832
 20
113.916681
 42
0.000000
  0
VERTEX
  8
0
 10
244.500000
 20
115.811173
 42
0.000000
  0
VERTEX
  8
0
 10
246.157352
 20
112.027184
 42
0.030636
  0
VERTEX
  8
0
 10
246.961714
 20
110.459546
 42
0.024612
  0
VERTEX
  8
0
 10
248.007933
 20
108.878397
 42
0.025252
  0
VERTEX
  8
0
 10
249.124271
 20
107.509867
 42
0.056319
  0
SEQEND
  0
POLYLINE
  8
0
 66
1
 70
1
  0
VERTEX
  8
0
 10
279.000000
 20
114.500000
 42
-0.010311
  0
VERTEX
  8
0
 10
276.010409
 20
113.418959
 42
-0.085406
  0
VERTEX
  8
0
 10
274.589591
 20
113.195563
 42
-0.764014
  0
VERTEX
  8
0
 10
274.507430
 20
113.515286
 42
-0.022031
  0
VERTEX
  8
0
 10
276.500000
 20
114.536115
 42
-0.017606
  0
VERTEX
  8
0
 10
277.758619
 20
115.059650
 42
-0.017255
  0
VERTEX
  8
0
 10
279.059375
 20
115.497176
 42
-0.017427
  0
VERTEX
  8
0
 10
280.225207
 20
115.801227
 42
-0.060302
  0
VERTEX
  8
0
 10
281.000000
 20
115.878818
 42
-0.401021
  0
VERTEX
  8
0
 10
281.161958
 20
115.717501
 42
-0.253165
  0
VERTEX
  8
0
 10
281.031250
 20
115.461014
 42
-0.045293
  0
VERTEX
  8
0
 10
280.252467
 20
115.022262
 42
-0.013736
  0
SEQEND
  0
POLYLINE
  8
0
 66
1
 70
1
  0
VERTEX
  8
0
 10
293.000000
 20
109.174314
 42
-0.191417
  0
VERTEX
  8
0
 10
292.580594
 20
108.118925
 42
-0.020820
  0
VERTEX
  8
0
 10
290.670322
 20
106.256764
 42
-0.026004
  0
VERTEX
  8
0
 10
288.378331
 20
104.407049
 42
-0.037612
  0
VERTEX
  8
0
 10
286.162810
 20
103.043117
 42
-0.111375
  0
VERTEX
  8
0
 10
283.632147
 20
102.383960
 42
-0.026804
  0
VERTEX
  8
0
 10
279.271173
 20
102.473915
 42
-0.022589
  0
VERTEX
  8
0
 10
274.996428
 20
102.986716
 42
-0.216454
  0
VERTEX
  8
0
 10
273.509934
 20
103.983927
 42
-0.410314
  0
VERTEX
  8
0
 10
273.688642
 20
104.764174
 42
-0.018462
  0
VERTEX
  8
0
 10
276.303281
 20
106.296097
 42
-0.024947
  0
VERTEX
  8
0
 10
279.547763
 20
107.836182
 42
-0.024680
  0
VERTEX
  8
0
 10
282.941058
 20
109.051627
 42
-0.043433
  0
VERTEX
  8
0
 10
285.829336
 20
109.660579
 42
-0.027203
  0
VERTEX
  8
0
 10
289.278147
 20
109.890570
 42
-0.019391
  0
VERTEX
  8
0
 10
292.407013
 20
109.807382
 42
-0.395198
  0
SEQEND
  0
POLYLINE
  8
0
 66
1
 70
1
  0
VERTEX
  8
0
 10
187.750000
 20
82.440978
 42
-0.047999
  0
VERTEX
  8
0
 10
187.646664
 20
81.367008
 42
-0.104626
  0
VERTEX
  8
0
 10
187.325704
 20
80.608586
 42
-0.134406
  0
VERTEX
  8
0
 10
186.788190
 20
80.160644
 42
-0.107294
  0
VERTEX
  8
0
 10
186.048193
 20
80.000000
 42
-0.101265
  0
VERTEX
  8
0
 10
185.252578
 20
80.162805
 42
-0.191657
  0
VERTEX
  8
0
 10
184.795522
 20
80.617134
 42
-0.113516
  0
VERTEX
  8
0
 10
184.638101
 20
81.464853
 42
-0.025824
  0
VERTEX
  8
0
 10
184.776280
 20
82.929057
 42
-0.084562
  0
VERTEX
  8
0
 10
185.398858
 20
84.843251
 42
-0.323169
  0
VERTEX
  8
0
 10
186.457920
 20
85.371224
 42
-0.282576
  0
VERTEX
  8
0
 10
187.426907
 20
84.532486
 42
-0.076784
  0
SEQEND
  0
POLYLINE
  8
0
 66
1
 70
1
  0
VERTEX
  8
0
 10
14.000000
 20
151.500000
 42
0.000000
  0
VERTEX
  8
0
 10
14.000000
 20
134.000000
 42
0.000000
  0
VERTEX
  8
0
 10
18.954310
 20
134.000000
 42
0.000000
  0
VERTEX
  8
0
 10
23.908620
 20
134.000000
 42
0.000000
  0
VERTEX
  8
0
 10
24.204310
 20
140.750000
 42
0.000000
  0
VERTEX
  8
0
 10
24.500000
 20
147.500000
 42
0.000000
  0
VERTEX
  8
0
 10
30.250000
 20
147.799904
 42
0.000000
  0
VERTEX
  8
0
 10
36.000000
 20
148.099808
 42
0.000000
  0
VERTEX
  8
0
 10
36.000000
 20
141.049904
 42
0.000000
  0
VERTEX
  8
0
 10
36.000000
 20
134.000000
 42
0.000000
  0
VERTEX
  8
0
 10
41.000000
 20
134.000000
 42
0.000000
  0
VERTEX
  8
0
 10
46.000000
 20
134.000000
 42
0.000000
  0
VERTEX
  8
0
 10
46.000000
 20
151.500000
 42
0.000000
  0
VERTEX
  8
0
 10
46.000000
 20
169.000000
 42
0.000000
  0
VERTEX
  8
0
 10
41.000000
 20
169.000000
 42
0.000000
  0
VERTEX
  8
0
 10
36.000000
 20
169.000000
 42
0.000000
  0
VERTEX
  8
0
 10
36.000000
 20
162.500000
 42
0.000000
  0
VERTEX
  8
0
 10
36.000000
 20
156.000000
 42
0.000000
  0
VERTEX
  8
0
 10
30.000000
 20
156.000000
 42
0.000000
  0
VERTEX
  8
0
 10
24.000000
 20
156.000000
 42
0.000000
  0
VERTEX
  8
0
 10
24.000000
 20
162.500000
 42
0.000000
  0
VERTEX
  8
0
 10
24.000000
 20
169.000000
 42
0.000000
  0
VERTEX
  8
0
 10
19.000000
 20
169.000000
 42
0.000000
  0
VERTEX
  8
0
 10
14.000000
 20
169.000000
 42
0.000000
  0
SEQEND
  0
POLYLINE
  8
0
 66
1
 70
1
  0
VERTEX
  8
0
 10
52.021962
 20
156.750000
 42
0.017738
  0
VERTEX
  8
0
 10
52.383304
 20
147.057784
 42
0.062179
  0
VERTEX
  8
0
 10
53.603611
 20
140.941556
 42
0.101481
  0
VERTEX
  8
0
 10
55.873713
 20
137.007829
 42
0.112811
  0
VERTEX
  8
0
 10
59.435841
 20
134.462361
 42
0.063220
  0
VERTEX
  8
0
 10
63.328243
 20
133.387171
 42
0.037508
  0
VERTEX
  8
0
 10
68.137974
 20
133.058371
 42
0.037693
  0
VERTEX
  8
0
 10
72.874022
 20
133.447962
 42
0.071531
  0
VERTEX
  8
0
 10
76.521598
 20
134.577273
 42
0.100824
  0
VERTEX
  8
0
 10
79.806813
 20
137.043919
 42
0.108130
  0
VERTEX
  8
0
 10
81.765675
 20
140.542844
 42
0.060687
  0
VERTEX
  8
0
 10
82.742974
 20
146.111730
 42
0.013126
  0
VERTEX
  8
0
 10
83.000000
 20
155.901129
 42
0.000000
  0
VERTEX
  8
0
 10
83.000000
 20
169.000000
 42
0.000000
  0
VERTEX
  8
0
 10
78.000000
 20
169.000000
 42
0.000000
  0
VERTEX
  8
0
 10
73.000000
 20
169.000000
 42
0.000000
  0
VERTEX
  8
0
 10
73.000000
 20
156.622445
 42
-0.008868
  0
VERTEX
  8
0
 10
72.842993
 20
147.770347
 42
-0.084793
  0
VERTEX
  8
0
 10
72.078202
 20
144.085621
 42
-0.224072
  0
VERTEX
  8
0
 10
70.379395
 20
142.483545
 42
-0.108004
  0
VERTEX
  8
0
 10
67.333643
 20
142.177742
 42
-0.151150
  0
VERTEX
  8
0
 10
64.737520
 20
143.321979
 42
-0.134819
  0
VERTEX
  8
0
 10
63.099072
 20
145.781725
 42
-0.065833
  0
VERTEX
  8
0
 10
62.246560
 20
150.259989
 42
-0.013818
  0
VERTEX
  8
0
 10
62.014742
 20
158.250000
 42
0.000000
  0
VERTEX
  8
0
 10
62.000000
 20
169.000000
 42
0.000000
  0
VERTEX
  8
0
 10
57.000000
 20
169.000000
 42
0.000000
  0
VERTEX
  8
0
 10
52.000000
 20
169.000000
 42
0.000000
  0
SEQEND
  0
POLYLINE
  8
0
 66
1
 70
1
  0
VERTEX
  8
0
 10
89.000000
 20
151.552260
 42
0.000000
  0
VERTEX
  8
0
 10
89.000000
 20
134.000000
 42
0.000000
  0
VERTEX
  8
0
 10
94.000000
 20
134.000000
 42
0.000000
  0
VERTEX
  8
0
 10
99.000000
 20
134.000000
 42
0.000000
  0
VERTEX
  8
0
 10
99.000000
 20
142.583333
 42
-0.006852
  0
VERTEX
  8
0
 10
99.057293
 20
146.764104
 42
-0.031017
  0
VERTEX
  8
0
 10
99.274989
 20
149.192163
 42
-0.064941
  0
VERTEX
  8
0
 10
99.653369
 20
150.502432
 42
-0.383232
  0
VERTEX
  8
0
 10
100.250000
 20
150.774637
 42
-0.127603
  0
VERTEX
  8
0
 10
100.990435
 20
150.312747
 42
-0.005787
  0
VERTEX
  8
0
 10
103.042187
 20
148.099918
 42
-0.009361
  0
VERTEX
  8
0
 10
105.418870
 20
145.375584
 42
-0.006539
  0
VERTEX
  8
0
 10
108.000000
 20
142.219718
 42
0.000000
  0
VERTEX
  8
0
 10
114.500000
 20
134.056829
 42
0.000000
  0
VERTEX
  8
0
 10
119.750000
 20
134.028414
 42
0.000000
  0
VERTEX
  8
0
 10
125.000000
 20
134.000000
 42
0.000000
  0
VERTEX
  8
0
 10
125.000000
 20
151.500000
 42
0.000000
  0
VERTEX
  8
0
 10
125.000000
 20
169.000000
 42
0.000000
  0
VERTEX
  8
0
 10
120.036212
 20
169.000000
 42
0.000000
  0
VERTEX
  8
0
 10
115.072424
 20
169.000000
 42
0.000000
  0
VERTEX
  8
0
 10
114.786212
 20
159.310209
 42
0.000000
  0
VERTEX
  8
0
 10
114.500000
 20
149.620419
 42
0.000000
  0
VERTEX
  8
0
 10
106.983301
 20
159.060209
 42
0.000000
  0
VERTEX
  8
0
 10
99.466602
 20
168.500000
 42
0.000000
  0
VERTEX
  8
0
 10
94.233301
 20
168.802260
 42
0.000000
  0
VERTEX
  8
0
 10
89.000000
 20
169.104519
 42
0.000000
  0
SEQEND
  0
POLYLINE
  8
0
 66
1
 70
1
  0
VERTEX
  8
0
 10
128.000000
 20
165.000000
 42
0.015830
  0
VERTEX
  8
0
 10
128.079836
 20
162.478972
 42
0.165362
  0
VERTEX
  8
0
 10
128.468750
 20
161.535714
 42
0.192545
  0
VERTEX
  8
0
 10
129.324962
 20
161.099137
 42
0.022778
  0
VERTEX
  8
0
 10
131.500000
 20
161.000000
 42
0.000000
  0
VERTEX
  8
0
 10
135.000000
 20
161.000000
 42
0.000000
  0
VERTEX
  8
0
 10
135.000000
 20
147.500000
 42
0.000000
  0
VERTEX
  8
0
 10
135.000000
 20
134.000000
 42
0.000000
  0
VERTEX
  8
0
 10
140.000000
 20
134.000000
 42
0.000000
  0
VERTEX
  8
0
 10
145.000000
 20
134.000000
 42
0.000000
  0
VERTEX
  8
0
 10
145.000000
 20
146.893011
 42
-0.005754
  0
VERTEX
  8
0
 10
145.105604
 20
156.068678
 42
-0.088670
  0
VERTEX
  8
0
 10
145.730599
 20
159.153539
 42
-0.235045
  0
VERTEX
  8
0
 10
147.285140
 20
160.551215
 42
-0.067754
  0
VERTEX
  8
0
 10
150.581787
 20
161.000000
 42
0.059333
  0
VERTEX
  8
0
 10
151.908473
 20
161.157990
 42
0.200103
  0
VERTEX
  8
0
 10
152.598862
 20
161.663529
 42
0.120235
  0
VERTEX
  8
0
 10
152.925153
 20
162.701988
 42
0.016281
  0
VERTEX
  8
0
 10
153.000000
 20
165.000000
 42
0.000000
  0
VERTEX
  8
0
 10
153.000000
 20
169.000000
 42
0.000000
  0
VERTEX
  8
0
 10
140.500000
 20
169.000000
 42
0.000000
  0
VERTEX
  8
0
 10
128.000000
 20
169.000000
 42
0.000000
  0
SEQEND
  0
POLYLINE
  8
0
 66
1
 70
1
  0
VERTEX
  8
0
 10
82.000000
 20
96.500000
 42
0.000000
  0
VERTEX
  8
0
 10
82.000000
 20
79.000000
 42
0.000000
  0
VERTEX
  8
0
 10
92.484223
 20
79.000000
 42
0.005160
  0
VERTEX
  8
0
 10
99.066914
 20
79.067929
 42
0.045791
  0
VERTEX
  8
0
 10
101.947106
 20
79.392323
 42
0.087909
  0
VERTEX
  8
0
 10
103.938141
 20
80.185358
 42
0.043728
  0
VERTEX
  8
0
 10
106.120587
 20
81.816437
 42
0.096920
  0
VERTEX
  8
0
 10
108.526431
 20
84.992047
 42
0.106504
  0
VERTEX
  8
0
 10
109.453987
 20
88.735259
 42
0.105577
  0
VERTEX
  8
0
 10
108.760318
 20
92.554247
 42
0.093756
  0
VERTEX
  8
0
 10
106.554366
 20
95.943254
 42
-0.023221
  0
VERTEX
  8
0
 10
105.467239
 20
97.188904
 42
-0.058677
  0
VERTEX
  8
0
 10
104.835588
 20
98.210207
 42
-0.103890
  0
VERTEX
  8
0
 10
104.657930
 20
98.970205
 42
-0.265974
  0
VERTEX
  8
0
 10
104.918003
 20
99.449323
 42
0.174634
  0
VERTEX
  8
0
 10
105.338095
 20
99.978006
 42
0.029703
  0
VERTEX
  8
0
 10
105.682163
 20
101.239491
 42
0.029334
  0
VERTEX
  8
0
 10
105.920808
 20
102.837616
 42
0.022399
  0
VERTEX
  8
0
 10
106.000000
 20
104.604472
 42
0.027211
  0
VERTEX
  8
0
 10
105.874188
 20
106.914585
 42
0.057837
  0
VERTEX
  8
0
 10
105.476448
 20
108.657509
 42
0.065722
  0
VERTEX
  8
0
 10
104.731561
 20
110.119717
 42
0.045778
  0
VERTEX
  8
0
 10
103.545455
 20
111.545455
 42
0.059748
  0
VERTEX
  8
0
 10
101.809312
 20
112.909776
 42
0.086446
  0
VERTEX
  8
0
 10
99.997258
 20
113.621429
 42
0.044403
  0
VERTEX
  8
0
 10
97.274233
 20
113.930487
 42
0.006067
  0
VERTEX
  8
0
 10
91.545455
 20
114.000000
 42
0.000000
  0
VERTEX
  8
0
 10
82.000000
 20
114.000000
 42
0.000000
  0
SEQEND
  0
POLYLINE
  8
0
 66
1
 70
1
  0
VERTEX
  8
0
 10
96.500000
 20
103.416667
 42
-0.090455
  0
VERTEX
  8
0
 10
96.348235
 20
102.584640
 42
-0.107317
  0
VERTEX
  8
0
 10
95.914841
 20
101.915363
 42
-0.097475
  0
VERTEX
  8
0
 10
95.204745
 20
101.441978
 42
-0.063228
  0
VERTEX
  8
0
 10
94.250000
 20
101.180449
 42
-0.117877
  0
VERTEX
  8
0
 10
92.806108
 20
101.315981
 42
-0.245854
  0
VERTEX
  8
0
 10
92.049010
 20
102.111928
 42
-0.190117
  0
VERTEX
  8
0
 10
92.173599
 20
103.385604
 42
-0.078194
  0
VERTEX
  8
0
 10
93.212500
 20
104.812500
 42
-0.096207
  0
VERTEX
  8
0
 10
94.390827
 20
105.607572
 42
-0.203562
  0
VERTEX
  8
0
 10
95.472072
 20
105.607697
 42
-0.201121
  0
VERTEX
  8
0
 10
96.232023
 20
104.827617
 42
-0.094122
  0
SEQEND
  0
POLYLINE
  8
0
 66
1
 70
1
  0
VERTEX
  8
0
 10
97.471350
 20
91.644608
 42
-0.128082
  0
VERTEX
  8
0
 10
98.701376
 20
90.137918
 42
-0.232450
  0
VERTEX
  8
0
 10
98.659527
 20
88.583717
 42
-0.185505
  0
VERTEX
  8
0
 10
97.320573
 20
87.408773
 42
-0.088583
  0
VERTEX
  8
0
 10
95.031385
 20
87.000000
 42
-0.030853
  0
VERTEX
  8
0
 10
93.572359
 20
87.090115
 42
-0.103484
  0
VERTEX
  8
0
 10
92.671026
 20
87.398447
 42
-0.156502
  0
VERTEX
  8
0
 10
92.177134
 20
87.956509
 42
-0.103868
  0
VERTEX
  8
0
 10
92.000000
 20
88.800000
 42
-0.096283
  0
VERTEX
  8
0
 10
92.260621
 20
90.140860
 42
-0.059494
  0
VERTEX
  8
0
 10
93.036960
 20
91.552537
 42
-0.062010
  0
VERTEX
  8
0
 10
94.049176
 20
92.648909
 42
-0.177176
  0
VERTEX
  8
0
 10
95.008870
 20
93.000000
 42
-0.109965
  0
VERTEX
  8
0
 10
95.350131
 20
92.924028
 42
-0.016267
  0
VERTEX
  8
0
 10
95.983383
 20
92.601853
 42
-0.017675
  0
VERTEX
  8
0
 10
96.717026
 20
92.163570
 42
-0.014379
  0
SEQEND
  0
POLYLINE
  8
0
 66
1
 70
1
  0
VERTEX
  8
0
 10
114.000000
 20
96.500000
 42
0.000000
  0
VERTEX
  8
0
 10
114.000000
 20
79.000000
 42
0.000000
  0
VERTEX
  8
0
 10
124.500000
 20
79.000000
 42
0.000000
  0
VERTEX
  8
0
 10
135.000000
 20
79.000000
 42
0.000000
  0
VERTEX
  8
0
 10
135.000000
 20
83.000000
 42
0.015825
  0
VERTEX
  8
0
 10
134.921461
 20
85.480829
 42
0.155576
  0
VERTEX
  8
0
 10
134.546022
 20
86.443165
 42
0.196244
  0
VERTEX
  8
0
 10
133.722283
 20
86.895944
 42
0.027712
  0
VERTEX
  8
0
 10
131.750000
 20
87.013655
 42
-0.015230
  0
VERTEX
  8
0
 10
130.342778
 20
87.062446
 42
-0.011473
  0
VERTEX
  8
0
 10
128.800768
 20
87.198587
 42
-0.011627
  0
VERTEX
  8
0
 10
127.355914
 20
87.393745
 42
-0.026104
  0
VERTEX
  8
0
 10
126.273892
 20
87.624038
 42
-0.036103
  0
VERTEX
  8
0
 10
125.147522
 20
88.014986
 42
-0.179404
  0
VERTEX
  8
0
 10
124.670561
 20
88.469480
 42
-0.195197
  0
VERTEX
  8
0
 10
124.627039
 20
89.099823
 42
-0.043724
  0
VERTEX
  8
0
 10
125.059075
 20
90.110384
 42
-0.093228
  0
VERTEX
  8
0
 10
125.759800
 20
90.981681
 42
-0.086375
  0
VERTEX
  8
0
 10
126.747027
 20
91.567084
 42
-0.063979
  0
VERTEX
  8
0
 10
128.125928
 20
91.897422
 42
-0.026844
  0
VERTEX
  8
0
 10
130.035184
 20
92.000000
 42
0.000000
  0
VERTEX
  8
0
 10
134.000000
 20
92.000000
 42
0.000000
  0
VERTEX
  8
0
 10
134.000000
 20
96.447740
 42
0.000000
  0
VERTEX
  8
0
 10
134.000000
 20
100.895481
 42
0.000000
  0
VERTEX
  8
0
 10
128.950195
 20
101.197740
 42
-0.006593
  0
VERTEX
  8
0
 10
125.856532
 20
101.423889
 42
-0.108455
  0
VERTEX
  8
0
 10
124.872787
 20
101.730595
 42
-0.369299
  0
VERTEX
  8
0
 10
124.673860
 20
102.284170
 42
-0.067915
  0
VERTEX
  8
0
 10
125.235281
 20
103.316331
 42
-0.095284
  0
VERTEX
  8
0
 10
126.046923
 20
104.067934
 42
-0.037928
  0
VERTEX
  8
0
 10
127.397690
 20
104.773213
 42
-0.035083
  0
VERTEX
  8
0
 10
129.042066
 20
105.346094
 42
-0.032954
  0
VERTEX
  8
0
 10
130.785086
 20
105.698000
 42
0.016725
  0
VERTEX
  8
0
 10
133.433741
 20
106.143882
 42
0.153811
  0
VERTEX
  8
0
 10
134.441065
 20
106.701344
 42
0.170086
  0
VERTEX
  8
0
 10
134.895566
 20
107.710516
 42
0.021557
  0
VERTEX
  8
0
 10
135.000000
 20
110.131669
 42
0.000000
  0
VERTEX
  8
0
 10
135.000000
 20
114.000000
 42
0.000000
  0
VERTEX
  8
0
 10
124.500000
 20
114.000000
 42
0.000000
  0
VERTEX
  8
0
 10
114.000000
 20
114.000000
 42
0.000000
  0
SEQEND
  0
POLYLINE
  8
0
 66
1
 70
1
  0
VERTEX
  8
0
 10
20.415186
 20
102.578588
 42
0.143109
  0
VERTEX
  8
0
 10
14.969853
 20
98.038995
 42
0.144818
  0
VERTEX
  8
0
 10
12.857136
 20
91.303200
 42
0.142317
  0
VERTEX
  8
0
 10
14.737679
 20
84.412818
 42
0.136941
  0
VERTEX
  8
0
 10
20.038636
 20
79.480020
 42
0.109687
  0
VERTEX
  8
0
 10
25.642794
 20
77.996701
 42
0.084132
  0
VERTEX
  8
0
 10
31.943513
 20
78.805198
 42
0.087237
  0
VERTEX
  8
0
 10
37.422150
 20
81.584869
 42
0.133653
  0
VERTEX
  8
0
 10
40.673637
 20
85.761330
 42
0.163934
  0
VERTEX
  8
0
 10
41.234448
 20
93.668997
 42
0.157219
  0
VERTEX
  8
0
 10
36.917561
 20
100.462675
 42
0.143872
  0
VERTEX
  8
0
 10
29.081290
 20
103.841248
 42
0.133771
  0
SEQEND
  0
POLYLINE
  8
0
 66
1
 70
1
  0
VERTEX
  8
0
 10
30.000000
 20
94.000000
 42
-0.059710
  0
VERTEX
  8
0
 10
31.480140
 20
92.116767
 42
-0.154426
  0
VERTEX
  8
0
 10
31.886890
 20
90.457579
 42
-0.163585
  0
VERTEX
  8
0
 10
31.258248
 20
88.929625
 42
-0.069145
  0
VERTEX
  8
0
 10
29.567058
 20
87.451981
 42
-0.033969
  0
VERTEX
  8
0
 10
28.261902
 20
86.718281
 42
-0.084254
  0
VERTEX
  8
0
 10
27.210327
 20
86.420326
 42
-0.096158
  0
VERTEX
  8
0
 10
26.206159
 20
86.504606
 42
-0.054037
  0
VERTEX
  8
0
 10
25.067058
 20
86.964112
 42
-0.159052
  0
VERTEX
  8
0
 10
23.592648
 20
88.503204
 42
-0.102518
  0
VERTEX
  8
0
 10
22.990437
 20
90.920527
 42
-0.104071
  0
VERTEX
  8
0
 10
23.401013
 20
93.347818
 42
-0.168679
  0
VERTEX
  8
0
 10
24.750000
 20
94.919901
 42
-0.033693
  0
VERTEX
  8
0
 10
26.378724
 20
95.726956
 42
-0.142490
  0
VERTEX
  8
0
 10
27.450076
 20
95.844866
 42
-0.128415
  0
VERTEX
  8
0
 10
28.479409
 20
95.374173
 42
-0.025274
  0
SEQEND
  0
POLYLINE
  8
0
 66
1
 70
1
  0
VERTEX
  8
0
 10
57.766935
 20
102.575659
 42
-0.030783
  0
VERTEX
  8
0
 10
56.640941
 20
102.068459
 42
-0.052417
  0
VERTEX
  8
0
 10
55.643520
 20
101.806388
 42
-0.070571
  0
VERTEX
  8
0
 10
54.876568
 20
101.797725
 42
-0.225617
  0
VERTEX
  8
0
 10
54.457918
 20
102.068089
 42
0.185014
  0
VERTEX
  8
0
 10
53.981671
 20
102.431136
 42
0.025451
  0
VERTEX
  8
0
 10
52.746613
 20
102.726251
 42
0.026405
  0
VERTEX
  8
0
 10
51.183833
 20
102.931937
 42
0.019519
  0
VERTEX
  8
0
 10
49.440983
 20
103.000000
 42
0.000000
  0
VERTEX
  8
0
 10
45.000000
 20
103.000000
 42
0.000000
  0
VERTEX
  8
0
 10
45.000000
 20
91.000000
 42
0.000000
  0
VERTEX
  8
0
 10
45.000000
 20
79.000000
 42
0.000000
  0
VERTEX
  8
0
 10
50.000000
 20
79.000000
 42
0.000000
  0
VERTEX
  8
0
 10
55.000000
 20
79.000000
 42
0.000000
  0
VERTEX
  8
0
 10
55.000000
 20
85.065741
 42
-0.022886
  0
VERTEX
  8
0
 10
55.235031
 20
90.197854
 42
-0.105695
  0
VERTEX
  8
0
 10
56.114651
 20
93.020049
 42
-0.174799
  0
VERTEX
  8
0
 10
57.813271
 20
94.485830
 42
-0.091718
  0
VERTEX
  8
0
 10
60.592682
 20
95.000000
 42
0.000000
  0
VERTEX
  8
0
 10
64.114996
 20
95.000000
 42
0.000000
  0
VERTEX
  8
0
 10
63.807498
 20
99.241373
 42
0.046245
  0
VERTEX
  8
0
 10
63.316468
 20
102.193968
 42
0.205109
  0
VERTEX
  8
0
 10
62.258518
 20
103.551996
 42
0.204245
  0
VERTEX
  8
0
 10
60.542157
 20
103.726663
 42
0.045842
  0
SEQEND
  0
POLYLINE
  8
0
 66
1
 70
1
  0
VERTEX
  8
0
 10
14.000000
 20
41.500000
 42
0.000000
  0
VERTEX
  8
0
 10
14.000000
 20
24.000000
 42
0.000000
  0
VERTEX
  8
0
 10
18.954310
 20
24.000000
 42
0.000000
  0
VERTEX
  8
0
 10
23.908620
 20
24.000000
 42
0.000000
  0
VERTEX
  8
0
 10
24.204310
 20
30.750000
 42
0.000000
  0
VERTEX
  8
0
 10
24.500000
 20
37.500000
 42
0.000000
  0
VERTEX
  8
0
 10
30.250000
 20
37.799904
 42
0.000000
  0
VERTEX
  8
0
 10
36.000000
 20
38.099808
 42
0.000000
  0
VERTEX
  8
0
 10
36.000000
 20
31.049904
 42
0.000000
  0
VERTEX
  8
0
 10
36.000000
 20
24.000000
 42
0.000000
  0
VERTEX
  8
0
 10
41.000000
 20
24.000000
 42
0.000000
  0
VERTEX
  8
0
 10
46.000000
 20
24.000000
 42
0.000000
  0
VERTEX
  8
0
 10
46.000000
 20
41.500000
 42
0.000000
  0
VERTEX
  8
0
 10
46.000000
 20
59.000000
 42
0.000000
  0
VERTEX
  8
0
 10
41.000000
 20
59.000000
 42
0.000000
  0
VERTEX
  8
0
 10
36.000000
 20
59.000000
 42
0.000000
  0
VERTEX
  8
0
 10
36.000000
 20
52.500000
 42
0.000000
  0
VERTEX
  8
0
 10
36.000000
 20
46.000000
 42
0.000000
  0
VERTEX
  8
0
 10
30.000000
 20
46.000000
 42
0.000000
  0
VERTEX
  8
0
 10
24.000000
 20
46.000000
 42
0.000000
  0
VERTEX
  8
0
 10
24.000000
 20
52.500000
 42
0.000000
  0
VERTEX
  8
0
 10
24.000000
 20
59.000000
 42
0.000000
  0
VERTEX
  8
0
 10
19.000000
 20
59.000000
 42
0.000000
  0
VERTEX
  8
0
 10
14.000000
 20
59.000000
 42
0.000000
  0
SEQEND
  0
POLYLINE
  8
0
 66
1
 70
1
  0
VERTEX
  8
0
 10
52.021962
 20
46.750000
 42
0.017738
  0
VERTEX
  8
0
 10
52.383304
 20
37.057784
 42
0.062179
  0
VERTEX
  8
0
 10
53.603611
 20
30.941556
 42
0.101481
  0
VERTEX
  8
0
 10
55.873713
 20
27.007829
 42
0.112811
  0
VERTEX
  8
0
 10
59.435841
 20
24.462361
 42
0.063220
  0
VERTEX
  8
0
 10
63.328243
 20
23.387171
 42
0.037508
  0
VERTEX
  8
0
 10
68.137974
 20
23.058371
 42
0.037693
  0
VERTEX
  8
0
 10
72.874022
 20
23.447962
 42
0.071531
  0
VERTEX
  8
0
 10
76.521598
 20
24.577273
 42
0.100824
  0
VERTEX
  8
0
 10
79.806813
 20
27.043919
 42
0.108130
  0
VERTEX
  8
0
 10
81.765675
 20
30.542844
 42
0.060687
  0
VERTEX
  8
0
 10
82.742974
 20
36.111730
 42
0.013126
  0
VERTEX
  8
0
 10
83.000000
 20
45.901129
 42
0.000000
  0
VERTEX
  8
0
 10
83.000000
 20
59.000000
 42
0.000000
  0
VERTEX
  8
0
 10
78.000000
 20
59.000000
 42
0.000000
  0
VERTEX
  8
0
 10
73.000000
 20
59.000000
 42
0.000000
  0
VERTEX
  8
0
 10
73.000000
 20
46.622445
 42
-0.008868
  0
VERTEX
  8
0
 10
72.842993
 20
37.770347
 42
-0.084793
  0
VERTEX
  8
0
 10
72.078202
 20
34.085621
 42
-0.224072
  0
VERTEX
  8
0
 10
70.379395
 20
32.483545
 42
-0.108004
  0
VERTEX
  8
0
 10
67.333643
 20
32.177742
 42
-0.151150
  0
VERTEX
  8
0
 10
64.737520
 20
33.321979
 42
-0.134819
  0
VERTEX
  8
0
 10
63.099072
 20
35.781725
 42
-0.065833
  0
VERTEX
  8
0
 10
62.246560
 20
40.259989
 42
-0.013818
  0
VERTEX
  8
0
 10
62.014742
 20
48.250000
 42
0.000000
  0
VERTEX
  8
0
 10
62.000000
 20
59.000000
 42
0.000000
  0
VERTEX
  8
0
 10
57.000000
 20
59.000000
 42
0.000000
  0
VERTEX
  8
0
 10
52.000000
 20
59.000000
 42
0.000000
  0
SEQEND
  0
POLYLINE
  8
0
 66
1
 70
1
  0
VERTEX
  8
0
 10
89.000000
 20
41.552260
 42
0.000000
  0
VERTEX
  8
0
 10
89.000000
 20
24.000000
 42
0.000000
  0
VERTEX
  8
0
 10
94.000000
 20
24.000000
 42
0.000000
  0
VERTEX
  8
0
 10
99.000000
 20
24.000000
 42
0.000000
  0
VERTEX
  8
0
 10
99.000000
 20
32.583333
 42
-0.006852
  0
VERTEX
  8
0
 10
99.057293
 20
36.764104
 42
-0.031017
  0
VERTEX
  8
0
 10
99.274989
 20
39.192163
 42
-0.064941
  0
VERTEX
  8
0
 10
99.653369
 20
40.502432
 42
-0.383232
  0
VERTEX
  8
0
 10
100.250000
 20
40.774637
 42
-0.127603
  0
VERTEX
  8
0
 10
100.990435
 20
40.312747
 42
-0.005787
  0
VERTEX
  8
0
 10
103.042187
 20
38.099918
 42
-0.009361
  0
VERTEX
  8
0
 10
105.418870
 20
35.375584
 42
-0.006539
  0
VERTEX
  8
0
 10
108.000000
 20
32.219718
 42
0.000000
  0
VERTEX
  8
0
 10
114.500000
 20
24.056829
 42
0.000000
  0
VERTEX
  8
0
 10
119.750000
 20
24.028414
 42
0.000000
  0
VERTEX
  8
0
 10
125.000000
 20
24.000000
 42
0.000000
  0
VERTEX
  8
0
 10
125.000000
 20
41.500000
 42
0.000000
  0
VERTEX
  8
0
 10
125.000000
 20
59.000000
 42
0.000000
  0
VERTEX
  8
0
 10
120.036212
 20
59.000000
 42
0.000000
  0
VERTEX
  8
0
 10
115.072424
 20
59.000000
 42
0.000000
  0
VERTEX
  8
0
 10
114.786212
 20
49.310209
 42
0.000000
  0
VERTEX
  8
0
 10
114.500000
 20
39.620419
 42
0.000000
  0
VERTEX
  8
0
 10
106.983301
 20
49.060209
 42
0.000000
  0
VERTEX
  8
0
 10
99.466602
 20
58.500000
 42
0.000000
  0
VERTEX
  8
0
 10
94.233301
 20
58.802260
 42
0.000000
  0
VERTEX
  8
0
 10
89.000000
 20
59.104519
 42
0.000000
  0
SEQEND
  0
POLYLINE
  8
0
 66
1
 70
1
  0
VERTEX
  8
0
 10
128.000000
 20
55.000000
 42
0.015830
  0
VERTEX
  8
0
 10
128.079836
 20
52.478972
 42
0.165362
  0
VERTEX
  8
0
 10
128.468750
 20
51.535714
 42
0.192545
  0
VERTEX
  8
0
 10
129.324962
 20
51.099137
 42
0.022778
  0
VERTEX
  8
0
 10
131.500000
 20
51.000000
 42
0.000000
  0
VERTEX
  8
0
 10
135.000000
 20
51.000000
 42
0.000000
  0
VERTEX
  8
0
 10
135.000000
 20
37.500000
 42
0.000000
  0
VERTEX
  8
0
 10
135.000000
 20
24.000000
 42
0.000000
  0
VERTEX
  8
0
 10
140.000000
 20
24.000000
 42
0.000000
  0
VERTEX
  8
0
 10
145.000000
 20
24.000000
 42
0.000000
  0
VERTEX
  8
0
 10
145.000000
 20
36.893011
 42
-0.005754
  0
VERTEX
  8
0
 10
145.105604
 20
46.068678
 42
-0.088670
  0
VERTEX
  8
0
 10
145.730599
 20
49.153539
 42
-0.235045
  0
VERTEX
  8
0
 10
147.285140
 20
50.551215
 42
-0.067754
  0
VERTEX
  8
0
 10
150.581787
 20
51.000000
 42
0.059333
  0
VERTEX
  8
0
 10
151.908473
 20
51.157990
 42
0.200103
  0
VERTEX
  8
0
 10
152.598862
 20
51.663529
 42
0.120235
  0
VERTEX
  8
0
 10
152.925153
 20
52.701988
 42
0.016281
  0
VERTEX
  8
0
 10
153.000000
 20
55.000000
 42
0.000000
  0
VERTEX
  8
0
 10
153.000000
 20
59.000000
 42
0.000000
  0
VERTEX
  8
0
 10
140.500000
 20
59.000000
 42
0.000000
  0
VERTEX
  8
0
 10
128.000000
 20
59.000000
 42
0.000000
  0
SEQEND
  0
POLYLINE
  8
0
 66
1
 70
1
  0
VERTEX
  8
0
 10
155.000000
 20
41.500000
 42
0.000000
  0
VERTEX
  8
0
 10
155.000000
 20
24.000000
 42
0.000000
  0
VERTEX
  8
0
 10
165.500000
 20
24.000000
 42
0.000000
  0
VERTEX
  8
0
 10
176.000000
 20
24.000000
 42
0.000000
  0
VERTEX
  8
0
 10
176.000000
 20
28.000000
 42
0.016152
  0
VERTEX
  8
0
 10
175.916882
 20
30.572308
 42
0.179508
  0
VERTEX
  8
0
 10
175.505112
 20
31.494782
 42
0.183866
  0
VERTEX
  8
0
 10
174.595969
 20
31.913999
 42
0.017098
  0
VERTEX
  8
0
 10
172.081787
 20
32.000000
 42
-0.022786
  0
VERTEX
  8
0
 10
168.690226
 20
32.154639
 42
-0.080753
  0
VERTEX
  8
0
 10
166.587774
 20
32.696603
 42
-0.144273
  0
VERTEX
  8
0
 10
165.432108
 20
33.670029
 42
-0.147102
  0
VERTEX
  8
0
 10
165.000000
 20
35.106989
 42
-0.125381
  0
VERTEX
  8
0
 10
165.247227
 20
36.077394
 42
-0.179375
  0
VERTEX
  8
0
 10
165.910324
 20
36.655349
 42
-0.078692
  0
VERTEX
  8
0
 10
167.252996
 20
36.934329
 42
-0.011951
  0
VERTEX
  8
0
 10
170.000000
 20
37.000000
 42
0.000000
  0
VERTEX
  8
0
 10
175.000000
 20
37.000000
 42
0.000000
  0
VERTEX
  8
0
 10
175.000000
 20
41.500000
 42
0.000000
  0
VERTEX
  8
0
 10
175.000000
 20
46.000000
 42
0.000000
  0
VERTEX
  8
0
 10
170.000000
 20
46.000000
 42
-0.011990
  0
VERTEX
  8
0
 10
167.258893
 20
46.065742
 42
-0.078229
  0
VERTEX
  8
0
 10
165.913704
 20
46.344168
 42
-0.178338
  0
VERTEX
  8
0
 10
165.248444
 20
46.919694
 42
-0.126831
  0
VERTEX
  8
0
 10
165.000000
 20
47.883369
 42
-0.186590
  0
VERTEX
  8
0
 10
165.516829
 20
49.220084
 42
-0.113505
  0
VERTEX
  8
0
 10
166.926349
 20
50.198692
 42
-0.068366
  0
VERTEX
  8
0
 10
169.312985
 20
50.793674
 42
-0.025905
  0
VERTEX
  8
0
 10
172.750000
 20
50.986345
 42
0.027712
  0
VERTEX
  8
0
 10
174.722283
 20
51.104056
 42
0.196244
  0
VERTEX
  8
0
 10
175.546022
 20
51.556835
 42
0.155576
  0
VERTEX
  8
0
 10
175.921461
 20
52.519171
 42
0.015825
  0
VERTEX
  8
0
 10
176.000000
 20
55.000000
 42
0.000000
  0
VERTEX
  8
0
 10
176.000000
 20
59.000000
 42
0.000000
  0
VERTEX
  8
0
 10
165.500000
 20
59.000000
 42
0.000000
  0
VERTEX
  8
0
 10
155.000000
 20
59.000000
 42
0.000000
  0
SEQEND
  0
POLYLINE
  8
0
 66
1
 70
1
  0
VERTEX
  8
0
 10
181.000000
 20
41.500000
 42
0.000000
  0
VERTEX
  8
0
 10
181.000000
 20
24.000000
 42
0.000000
  0
VERTEX
  8
0
 10
190.098871
 20
24.000000
 42
0.038407
  0
VERTEX
  8
0
 10
198.883025
 20
24.675743
 42
0.095582
  0
VERTEX
  8
0
 10
204.924071
 20
26.840851
 42
0.118566
  0
VERTEX
  8
0
 10
208.945569
 20
30.746262
 42
0.079003
  0
VERTEX
  8
0
 10
211.495673
 20
36.672897
 42
0.074758
  0
VERTEX
  8
0
 10
212.115085
 20
42.882768
 42
0.087100
  0
VERTEX
  8
0
 10
210.801635
 20
48.659150
 42
0.089917
  0
VERTEX
  8
0
 10
207.650925
 20
53.503022
 42
0.085963
  0
VERTEX
  8
0
 10
202.955623
 20
57.022639
 42
0.042104
  0
VERTEX
  8
0
 10
200.586512
 20
57.989797
 42
0.037896
  0
VERTEX
  8
0
 10
198.004061
 20
58.588125
 42
0.027856
  0
VERTEX
  8
0
 10
194.719011
 20
58.905186
 42
0.010130
  0
VERTEX
  8
0
 10
190.039838
 20
59.000000
 42
0.000000
  0
VERTEX
  8
0
 10
181.000000
 20
59.000000
 42
0.000000
  0
SEQEND
  0
POLYLINE
  8
0
 66
1
 70
1
  0
VERTEX
  8
0
 10
197.455198
 20
49.378819
 42
-0.135648
  0
VERTEX
  8
0
 10
199.010757
 20
48.230141
 42
-0.047986
  0
VERTEX
  8
0
 10
200.516588
 20
45.876640
 42
-0.047028
  0
VERTEX
  8
0
 10
201.629286
 20
43.085166
 42
-0.071450
  0
VERTEX
  8
0
 10
202.000000
 20
40.504205
 42
-0.123577
  0
VERTEX
  8
0
 10
201.343842
 20
37.889890
 42
-0.080852
  0
VERTEX
  8
0
 10
199.445849
 20
35.409550
 42
-0.079359
  0
VERTEX
  8
0
 10
196.816664
 20
33.618970
 42
-0.110319
  0
VERTEX
  8
0
 10
194.045455
 20
33.000000
 42
0.000000
  0
VERTEX
  8
0
 10
191.000000
 20
33.000000
 42
0.000000
  0
VERTEX
  8
0
 10
191.000000
 20
41.500000
 42
-0.004165
  0
VERTEX
  8
0
 10
191.045907
 20
47.011451
 42
-0.065221
  0
VERTEX
  8
0
 10
191.321124
 20
48.871252
 42
-0.219676
  0
VERTEX
  8
0
 10
192.031344
 20
49.698117
 42
-0.107577
  0
VERTEX
  8
0
 10
193.418213
 20
50.000000
 42
-0.021722
  0
VERTEX
  8
0
 10
194.462580
 20
49.954608
 42
-0.016452
  0
VERTEX
  8
0
 10
195.601590
 20
49.817528
 42
-0.016719
  0
VERTEX
  8
0
 10
196.664022
 20
49.617483
 42
-0.036732
  0
SEQEND
  0
POLYLINE
  8
0
 66
1
 70
1
  0
VERTEX
  8
0
 10
219.950415
 20
100.440253
 42
0.165326
  0
VERTEX
  8
0
 10
219.209752
 20
98.502177
 42
0.106807
  0
VERTEX
  8
0
 10
219.633037
 20
96.114541
 42
0.097617
  0
VERTEX
  8
0
 10
221.067562
 20
93.938710
 42
0.114274
  0
VERTEX
  8
0
 10
223.150804
 20
92.615925
 42
0.061858
  0
VERTEX
  8
0
 10
225.650374
 20
92.071092
 42
0.148925
  0
VERTEX
  8
0
 10
227.485604
 20
92.451949
 42
0.176121
  0
VERTEX
  8
0
 10
228.605556
 20
93.724170
 42
0.093563
  0
VERTEX
  8
0
 10
229.000000
 20
95.813628
 42
0.138187
  0
VERTEX
  8
0
 10
228.079985
 20
99.078946
 42
0.138098
  0
VERTEX
  8
0
 10
225.590427
 20
101.384615
 42
0.156868
  0
VERTEX
  8
0
 10
222.511334
 20
101.885972
 42
0.184109
  0
SEQEND
  0
ENDSEC
  0
EOF
