  0
SECTION
  2
HEADER
  9
$ACADVER
  1
AC1006
  9
$EXTMIN
 10
0.000000
 20
0.000000
 30
0.000000
  9
$EXTMAX
 10
318.000000
 20
320.000000
 30
0.000000
  0
ENDSEC
  0
SECTION
  2
ENTITIES
  0
POLYLINE
  8
0
 66
1
 70
1
  0
VERTEX
  8
0
 10
122.472927
 20
294.956195
 42
0.122230
  0
VERTEX
  8
0
 10
122.311789
 20
294.453710
 42
0.068504
  0
VERTEX
  8
0
 10
122.356744
 20
293.810028
 42
0.061806
  0
VERTEX
  8
0
 10
122.589557
 20
293.130275
 42
0.059895
  0
VERTEX
  8
0
 10
122.983304
 20
292.520117
 42
-0.068245
  0
VERTEX
  8
0
 10
123.460650
 20
291.752691
 42
-0.100879
  0
VERTEX
  8
0
 10
123.632422
 20
290.981247
 42
-0.087219
  0
VERTEX
  8
0
 10
123.497460
 20
290.123060
 42
-0.040375
  0
VERTEX
  8
0
 10
123.045192
 20
289.084442
 42
0.055176
  0
VERTEX
  8
0
 10
122.665216
 20
288.136290
 42
0.035503
  0
VERTEX
  8
0
 10
122.429747
 20
286.974323
 42
0.035477
  0
VERTEX
  8
0
 10
122.360885
 20
285.789168
 42
0.054596
  0
VERTEX
  8
0
 10
122.485750
 20
284.770519
 42
-0.069467
  0
VERTEX
  8
0
 10
122.690359
 20
282.561103
 42
-0.165421
  0
VERTEX
  8
0
 10
122.095191
 20
281.045711
 42
-0.221675
  0
VERTEX
  8
0
 10
120.855082
 20
280.473382
 42
-0.122480
  0
VERTEX
  8
0
 10
119.203922
 20
280.890864
 42
0.046624
  0
VERTEX
  8
0
 10
115.432199
 20
282.477603
 42
0.004478
  0
VERTEX
  8
0
 10
105.897895
 20
285.386016
 42
0.001275
  0
VERTEX
  8
0
 10
95.487102
 20
288.431305
 42
0.273376
  0
VERTEX
  8
0
 10
94.514558
 20
288.181225
 42
0.167315
  0
VERTEX
  8
0
 10
94.104046
 20
287.339666
 42
0.186271
  0
VERTEX
  8
0
 10
94.323194
 20
286.467011
 42
0.083184
  0
VERTEX
  8
0
 10
95.339686
 20
285.440197
 42
0.017724
  0
VERTEX
  8
0
 10
97.436391
 20
284.039313
 42
-0.126544
  0
VERTEX
  8
0
 10
101.149715
 20
280.174982
 42
-0.113253
  0
VERTEX
  8
0
 10
102.733185
 20
274.833178
 42
-0.090419
  0
VERTEX
  8
0
 10
101.963082
 20
268.321307
 42
-0.053865
  0
VERTEX
  8
0
 10
98.873284
 20
261.127618
 42
0.018728
  0
VERTEX
  8
0
 10
96.922392
 20
257.342172
 42
0.165910
  0
VERTEX
  8
0
 10
96.719893
 20
255.501775
 42
0.267645
  0
VERTEX
  8
0
 10
97.720691
 20
254.410699
 42
0.049276
  0
VERTEX
  8
0
 10
100.500000
 20
253.826947
 42
-0.045101
  0
VERTEX
  8
0
 10
102.215970
 20
253.481434
 42
-0.164898
  0
VERTEX
  8
0
 10
103.109401
 20
252.849401
 42
-0.113517
  0
VERTEX
  8
0
 10
103.617767
 20
251.654297
 42
-0.016313
  0
VERTEX
  8
0
 10
104.000000
 20
249.008944
 42
0.019645
  0
VERTEX
  8
0
 10
104.341907
 20
246.749128
 42
0.071417
  0
VERTEX
  8
0
 10
104.814064
 20
245.379770
 42
0.117303
  0
VERTEX
  8
0
 10
105.505815
 20
244.571977
 42
0.111439
  0
VERTEX
  8
0
 10
106.500000
 20
244.143262
 42
-0.079702
  0
VERTEX
  8
0
 10
108.188671
 20
243.537858
 42
-0.156531
  0
VERTEX
  8
0
 10
109.158667
 20
242.511045
 42
-0.117232
  0
VERTEX
  8
0
 10
109.511036
 20
240.881908
 42
-0.035136
  0
VERTEX
  8
0
 10
109.279644
 20
238.335819
 42
0.018172
  0
VERTEX
  8
0
 10
109.023076
 20
236.286283
 42
0.185738
  0
VERTEX
  8
0
 10
109.254584
 20
235.478438
 42
0.210182
  0
VERTEX
  8
0
 10
109.951785
 20
235.088382
 42
0.023941
  0
VERTEX
  8
0
 10
111.796577
 20
235.000000
 42
-0.120515
  0
VERTEX
  8
0
 10
114.741881
 20
234.279631
 42
-0.111137
  0
VERTEX
  8
0
 10
117.125219
 20
232.267641
 42
-0.103588
  0
VERTEX
  8
0
 10
118.531461
 20
229.295116
 42
-0.092256
  0
VERTEX
  8
0
 10
118.707460
 20
225.877401
 42
0.032941
  0
VERTEX
  8
0
 10
118.480881
 20
222.484504
 42
0.178851
  0
VERTEX
  8
0
 10
119.107875
 20
220.783435
 42
0.333431
  0
VERTEX
  8
0
 10
120.365715
 20
220.502130
 42
0.082822
  0
VERTEX
  8
0
 10
122.234118
 20
221.750217
 42
-0.048016
  0
VERTEX
  8
0
 10
123.948698
 20
223.076058
 42
-0.067708
  0
VERTEX
  8
0
 10
125.704793
 20
223.875206
 42
-0.062110
  0
VERTEX
  8
0
 10
127.724155
 20
224.217257
 42
-0.033519
  0
VERTEX
  8
0
 10
130.250000
 20
224.158444
 42
-0.109558
  0
VERTEX
  8
0
 10
131.031481
 20
223.909373
 42
-0.128850
  0
VERTEX
  8
0
 10
131.580722
 20
223.362684
 42
-0.094381
  0
VERTEX
  8
0
 10
131.899968
 20
222.469387
 42
-0.038777
  0
VERTEX
  8
0
 10
132.000000
 20
221.181501
 42
0.053448
  0
VERTEX
  8
0
 10
132.349493
 20
217.921390
 42
0.018072
  0
VERTEX
  8
0
 10
133.531064
 20
213.288759
 42
0.012416
  0
VERTEX
  8
0
 10
134.974278
 20
208.794173
 42
0.172092
  0
VERTEX
  8
0
 10
136.025983
 20
207.483941
 42
0.096441
  0
VERTEX
  8
0
 10
136.488579
 20
207.309139
 42
0.059463
  0
VERTEX
  8
0
 10
137.071543
 20
207.279843
 42
0.056589
  0
VERTEX
  8
0
 10
137.679468
 20
207.391492
 42
0.064812
  0
VERTEX
  8
0
 10
138.217568
 20
207.634465
 42
-0.067613
  0
VERTEX
  8
0
 10
138.878178
 20
207.928329
 42
-0.021961
  0
VERTEX
  8
0
 10
139.918618
 20
208.182519
 42
-0.021439
  0
VERTEX
  8
0
 10
141.113007
 20
208.366492
 42
-0.022560
  0
VERTEX
  8
0
 10
142.298600
 20
208.443482
 42
0.055852
  0
VERTEX
  8
0
 10
143.495858
 20
208.601620
 42
0.045456
  0
VERTEX
  8
0
 10
144.718814
 20
209.025658
 42
0.047124
  0
VERTEX
  8
0
 10
145.786973
 20
209.635527
 42
0.081834
  0
VERTEX
  8
0
 10
146.513846
 20
210.349249
 42
-0.073162
  0
VERTEX
  8
0
 10
147.399432
 20
211.249317
 42
-0.109910
  0
VERTEX
  8
0
 10
148.397621
 20
211.705301
 42
-0.074659
  0
VERTEX
  8
0
 10
149.770624
 20
211.788499
 42
-0.019715
  0
VERTEX
  8
0
 10
151.957891
 20
211.507114
 42
-0.029258
  0
VERTEX
  8
0
 10
154.125608
 20
211.008998
 42
-0.082603
  0
VERTEX
  8
0
 10
155.520792
 20
210.336428
 42
-0.093152
  0
VERTEX
  8
0
 10
156.527218
 20
209.300593
 42
-0.044124
  0
VERTEX
  8
0
 10
157.418339
 20
207.657866
 42
0.022843
  0
VERTEX
  8
0
 10
159.199432
 20
204.012934
 42
0.104279
  0
VERTEX
  8
0
 10
160.724722
 20
202.231209
 42
0.145460
  0
VERTEX
  8
0
 10
162.563637
 20
201.526229
 42
0.060285
  0
VERTEX
  8
0
 10
165.250000
 20
201.642437
 42
0.022534
  0
VERTEX
  8
0
 10
167.520080
 20
202.123240
 42
0.156513
  0
VERTEX
  8
0
 10
168.467687
 20
202.723010
 42
0.153696
  0
VERTEX
  8
0
 10
168.898324
 20
203.767668
 42
0.021503
  0
VERTEX
  8
0
 10
169.000000
 20
206.130842
 42
-0.016899
  0
VERTEX
  8
0
 10
169.077508
 20
208.423504
 42
-0.139129
  0
VERTEX
  8
0
 10
169.426289
 20
209.396871
 42
-0.200643
  0
VERTEX
  8
0
 10
170.174072
 20
209.859688
 42
-0.041538
  0
VERTEX
  8
0
 10
171.750000
 20
209.978358
 42
-0.060299
  0
VERTEX
  8
0
 10
173.162633
 20
209.796084
 42
-0.101363
  0
VERTEX
  8
0
 10
174.235035
 20
209.276982
 42
-0.086413
  0
VERTEX
  8
0
 10
175.127199
 20
208.310727
 42
-0.034563
  0
VERTEX
  8
0
 10
176.000000
 20
206.728358
 42
0.033799
  0
VERTEX
  8
0
 10
176.943860
 20
205.010964
 42
0.107251
  0
VERTEX
  8
0
 10
177.864111
 20
204.087740
 42
0.108619
  0
VERTEX
  8
0
 10
179.077272
 20
203.635340
 42
0.035151
  0
VERTEX
  8
0
 10
181.000000
 20
203.500000
 42
0.031846
  0
VERTEX
  8
0
 10
182.994659
 20
203.627172
 42
0.130693
  0
VERTEX
  8
0
 10
184.106918
 20
204.080802
 42
0.125212
  0
VERTEX
  8
0
 10
184.872710
 20
205.038507
 42
0.028199
  0
VERTEX
  8
0
 10
185.631230
 20
207.000000
 42
-0.051002
  0
VERTEX
  8
0
 10
186.782232
 20
209.615776
 42
-0.238576
  0
VERTEX
  8
0
 10
188.111923
 20
210.498313
 42
-0.389688
  0
VERTEX
  8
0
 10
189.080987
 20
209.798250
 42
-0.074198
  0
VERTEX
  8
0
 10
189.209140
 20
207.422569
 42
0.034472
  0
VERTEX
  8
0
 10
189.174178
 20
206.041907
 42
0.021630
  0
VERTEX
  8
0
 10
189.314341
 20
204.432139
 42
0.021686
  0
VERTEX
  8
0
 10
189.591262
 20
202.851827
 42
0.036637
  0
VERTEX
  8
0
 10
189.975713
 20
201.563879
 42
0.018933
  0
VERTEX
  8
0
 10
190.624069
 20
200.035419
 42
0.160520
  0
VERTEX
  8
0
 10
191.129999
 20
199.500303
 42
0.252709
  0
VERTEX
  8
0
 10
191.726237
 20
199.500273
 42
0.049470
  0
VERTEX
  8
0
 10
192.646629
 20
200.121691
 42
-0.032030
  0
VERTEX
  8
0
 10
193.549144
 20
200.777914
 42
-0.462889
  0
VERTEX
  8
0
 10
193.881747
 20
200.674155
 42
-0.144852
  0
VERTEX
  8
0
 10
193.950665
 20
200.070407
 42
-0.006434
  0
VERTEX
  8
0
 10
193.555399
 20
197.980381
 42
-0.024545
  0
VERTEX
  8
0
 10
192.052638
 20
192.066991
 42
-0.261045
  0
VERTEX
  8
0
 10
190.320777
 20
190.413798
 42
-0.257074
  0
VERTEX
  8
0
 10
187.985461
 20
191.014534
 42
-0.023933
  0
VERTEX
  8
0
 10
183.703191
 20
195.449277
 42
0.012414
  0
VERTEX
  8
0
 10
181.742619
 20
197.575536
 42
0.017328
  0
VERTEX
  8
0
 10
179.879327
 20
199.369475
 42
0.013777
  0
VERTEX
  8
0
 10
178.269102
 20
200.737440
 42
0.170802
  0
VERTEX
  8
0
 10
177.522916
 20
201.000000
 42
0.124971
  0
VERTEX
  8
0
 10
176.823158
 20
200.822326
 42
0.022092
  0
VERTEX
  8
0
 10
175.653355
 20
200.118750
 42
0.022710
  0
VERTEX
  8
0
 10
174.325711
 20
199.148561
 42
0.018721
  0
VERTEX
  8
0
 10
173.000000
 20
198.000000
 42
-0.012746
  0
VERTEX
  8
0
 10
171.705369
 20
196.851006
 42
-0.017090
  0
VERTEX
  8
0
 10
170.471728
 20
195.881250
 42
-0.014285
  0
VERTEX
  8
0
 10
169.411113
 20
195.150245
 42
-0.144721
  0
VERTEX
  8
0
 10
168.902898
 20
195.000000
 42
-0.134301
  0
VERTEX
  8
0
 10
168.357532
 20
195.149177
 42
-0.008644
  0
VERTEX
  8
0
 10
166.940606
 20
196.020435
 42
-0.012132
  0
VERTEX
  8
0
 10
165.274155
 20
197.143108
 42
-0.008714
  0
VERTEX
  8
0
 10
163.466353
 20
198.473821
 42
0.048530
  0
VERTEX
  8
0
 10
158.464668
 20
201.574803
 42
0.051962
  0
VERTEX
  8
0
 10
153.070330
 20
203.569440
 42
0.042702
  0
VERTEX
  8
0
 10
146.533963
 20
204.657776
 42
0.019913
  0
VERTEX
  8
0
 10
137.944225
 20
205.000000
 42
-0.009701
  0
VERTEX
  8
0
 10
133.072392
 20
205.094529
 42
-0.015310
  0
VERTEX
  8
0
 10
128.902452
 20
205.384471
 42
-0.017842
  0
VERTEX
  8
0
 10
125.487426
 20
205.850817
 42
-0.041972
  0
VERTEX
  8
0
 10
123.000000
 20
206.500000
 42
0.019905
  0
VERTEX
  8
0
 10
119.690870
 20
207.521391
 42
0.048244
  0
VERTEX
  8
0
 10
117.169984
 20
207.936397
 42
0.084242
  0
VERTEX
  8
0
 10
115.561891
 20
207.772877
 42
0.337329
  0
VERTEX
  8
0
 10
115.000000
 20
207.034796
 42
0.136340
  0
VERTEX
  8
0
 10
115.153708
 20
206.481577
 42
0.014579
  0
VERTEX
  8
0
 10
115.881250
 20
205.349433
 42
0.017096
  0
VERTEX
  8
0
 10
116.851075
 20
204.031829
 42
0.012958
  0
VERTEX
  8
0
 10
118.000000
 20
202.652781
 42
-0.012544
  0
VERTEX
  8
0
 10
119.148959
 20
201.276011
 42
-0.016671
  0
VERTEX
  8
0
 10
120.118750
 20
199.965342
 42
-0.013998
  0
VERTEX
  8
0
 10
120.848750
 20
198.840568
 42
-0.137785
  0
VERTEX
  8
0
 10
121.000000
 20
198.302126
 42
-0.255177
  0
VERTEX
  8
0
 10
120.418475
 20
197.236867
 42
-0.016121
  0
VERTEX
  8
0
 10
117.248768
 20
195.340393
 42
-0.023855
  0
VERTEX
  8
0
 10
113.741366
 20
193.605981
 42
-0.045068
  0
VERTEX
  8
0
 10
110.750000
 20
192.609816
 42
0.115030
  0
VERTEX
  8
0
 10
108.966878
 20
191.725390
 42
0.160090
  0
VERTEX
  8
0
 10
108.021440
 20
190.230100
 42
0.197926
  0
VERTEX
  8
0
 10
108.244324
 20
188.698089
 42
0.168857
  0
VERTEX
  8
0
 10
109.500000
 20
187.638374
 42
-0.126920
  0
VERTEX
  8
0
 10
110.635536
 20
186.829592
 42
-0.298818
  0
VERTEX
  8
0
 10
110.753216
 20
185.842552
 42
-0.113174
  0
VERTEX
  8
0
 10
109.683274
 20
184.539471
 42
-0.018336
  0
VERTEX
  8
0
 10
107.000000
 20
182.618698
 42
0.024238
  0
VERTEX
  8
0
 10
104.319385
 20
180.651583
 42
0.127624
  0
VERTEX
  8
0
 10
103.245138
 20
179.194759
 42
0.236384
  0
VERTEX
  8
0
 10
103.352648
 20
177.898385
 42
0.098425
  0
VERTEX
  8
0
 10
104.573483
 20
176.569927
 42
-0.141004
  0
VERTEX
  8
0
 10
105.234096
 20
175.717442
 42
-0.171479
  0
VERTEX
  8
0
 10
105.273716
 20
174.713635
 42
-0.065072
  0
VERTEX
  8
0
 10
104.572846
 20
173.186095
 42
-0.008054
  0
VERTEX
  8
0
 10
102.573483
 20
170.109195
 42
0.031174
  0
VERTEX
  8
0
 10
100.334568
 20
166.288092
 42
0.063532
  0
VERTEX
  8
0
 10
99.174008
 20
163.015480
 42
0.122537
  0
VERTEX
  8
0
 10
99.238511
 20
160.863194
 42
0.336107
  0
VERTEX
  8
0
 10
100.377555
 20
160.000000
 42
0.084328
  0
VERTEX
  8
0
 10
100.992326
 20
160.104428
 42
0.043820
  0
VERTEX
  8
0
 10
101.703670
 20
160.425599
 42
0.041931
  0
VERTEX
  8
0
 10
102.395682
 20
160.894469
 42
0.049731
  0
VERTEX
  8
0
 10
102.957547
 20
161.448848
 42
-0.068593
  0
VERTEX
  8
0
 10
103.650165
 20
162.082668
 42
-0.023658
  0
VERTEX
  8
0
 10
104.804854
 20
162.801494
 42
-0.022993
  0
VERTEX
  8
0
 10
106.168746
 20
163.483247
 42
-0.024700
  0
VERTEX
  8
0
 10
107.557724
 20
164.019051
 42
-0.039846
  0
VERTEX
  8
0
 10
109.610695
 20
164.519541
 42
-0.089015
  0
VERTEX
  8
0
 10
111.211443
 20
164.490580
 42
-0.065131
  0
VERTEX
  8
0
 10
112.996513
 20
163.887650
 42
-0.014075
  0
VERTEX
  8
0
 10
115.886908
 20
162.368306
 42
0.034341
  0
VERTEX
  8
0
 10
119.460531
 20
160.670819
 42
0.129822
  0
VERTEX
  8
0
 10
121.898966
 20
160.385207
 42
0.112091
  0
VERTEX
  8
0
 10
124.358328
 20
161.324568
 42
0.022455
  0
VERTEX
  8
0
 10
128.166688
 20
164.118866
 42
0.000000
  0
VERTEX
  8
0
 10
130.833375
 20
166.266099
 42
0.000000
  0
VERTEX
  8
0
 10
134.469287
 20
164.018982
 42
0.019772
  0
VERTEX
  8
0
 10
137.171053
 20
162.493381
 42
0.217349
  0
VERTEX
  8
0
 10
138.383634
 20
162.437010
 42
0.229072
  0
VERTEX
  8
0
 10
139.183212
 20
163.314741
 42
0.021973
  0
VERTEX
  8
0
 10
139.902949
 20
166.199254
 42
-0.034853
  0
VERTEX
  8
0
 10
140.354330
 20
167.828540
 42
-0.093630
  0
VERTEX
  8
0
 10
140.956432
 20
168.864082
 42
-0.114487
  0
VERTEX
  8
0
 10
141.813108
 20
169.487963
 42
-0.068095
  0
VERTEX
  8
0
 10
143.037028
 20
169.820741
 42
0.081393
  0
VERTEX
  8
0
 10
145.044938
 20
170.424135
 42
0.106125
  0
VERTEX
  8
0
 10
146.549865
 20
171.606190
 42
0.118341
  0
VERTEX
  8
0
 10
147.331765
 20
173.192552
 42
0.120106
  0
VERTEX
  8
0
 10
147.302364
 20
174.951761
 42
-0.139862
  0
VERTEX
  8
0
 10
147.358211
 20
177.473523
 42
-0.052894
  0
VERTEX
  8
0
 10
148.762605
 20
180.742673
 42
-0.052158
  0
VERTEX
  8
0
 10
150.914096
 20
183.784160
 42
-0.093688
  0
VERTEX
  8
0
 10
153.313603
 20
185.662171
 42
-0.107082
  0
VERTEX
  8
0
 10
157.370713
 20
186.758406
 42
-0.064131
  0
VERTEX
  8
0
 10
162.370285
 20
186.369966
 42
-0.043087
  0
VERTEX
  8
0
 10
168.874943
 20
184.416508
 42
-0.015314
  0
VERTEX
  8
0
 10
177.793029
 20
180.556390
 42
0.014310
  0
VERTEX
  8
0
 10
187.407393
 20
176.371962
 42
0.053756
  0
VERTEX
  8
0
 10
193.730933
 20
174.591376
 42
0.072840
  0
VERTEX
  8
0
 10
199.250011
 20
174.471916
 42
0.042802
  0
VERTEX
  8
0
 10
205.721136
 20
175.846680
 42
0.047138
  0
VERTEX
  8
0
 10
214.312185
 20
179.368959
 42
0.099590
  0
VERTEX
  8
0
 10
219.878898
 20
183.887367
 42
0.109128
  0
VERTEX
  8
0
 10
222.961478
 20
189.910258
 42
0.064376
  0
VERTEX
  8
0
 10
223.990231
 20
197.961890
 42
0.047918
  0
VERTEX
  8
0
 10
223.410525
 20
203.903692
 42
0.056681
  0
VERTEX
  8
0
 10
221.709572
 20
209.282902
 42
0.056229
  0
VERTEX
  8
0
 10
218.829915
 20
214.177007
 42
0.046015
  0
VERTEX
  8
0
 10
214.750936
 20
218.678959
 42
0.044105
  0
VERTEX
  8
0
 10
207.820373
 20
223.997355
 42
0.056181
  0
VERTEX
  8
0
 10
200.584433
 20
227.529710
 42
0.048136
  0
VERTEX
  8
0
 10
191.891875
 20
229.709476
 42
0.022712
  0
VERTEX
  8
0
 10
180.374072
 20
230.912612
 42
-0.005440
  0
VERTEX
  8
0
 10
173.178367
 20
231.413835
 42
-0.024514
  0
VERTEX
  8
0
 10
168.999738
 20
231.957761
 42
-0.041508
  0
VERTEX
  8
0
 10
166.100577
 20
232.733432
 42
-0.052342
  0
VERTEX
  8
0
 10
163.599827
 20
233.938303
 42
-0.054392
  0
VERTEX
  8
0
 10
160.973940
 20
235.985760
 42
-0.054687
  0
VERTEX
  8
0
 10
158.856722
 20
238.547897
 42
-0.058443
  0
VERTEX
  8
0
 10
157.467951
 20
241.318953
 42
-0.087177
  0
VERTEX
  8
0
 10
157.000000
 20
243.982459
 42
-0.117874
  0
VERTEX
  8
0
 10
158.195748
 20
248.984130
 42
-0.097347
  0
VERTEX
  8
0
 10
161.580027
 20
253.314127
 42
-0.094828
  0
VERTEX
  8
0
 10
166.440861
 20
256.124481
 42
-0.104915
  0
VERTEX
  8
0
 10
171.820275
 20
256.806176
 42
-0.024000
  0
VERTEX
  8
0
 10
173.947678
 20
256.525867
 42
-0.137288
  0
VERTEX
  8
0
 10
174.962235
 20
256.033440
 42
-0.155341
  0
VERTEX
  8
0
 10
175.508187
 20
255.118172
 42
-0.033350
  0
VERTEX
  8
0
 10
175.811734
 20
253.271785
 42
0.000000
  0
VERTEX
  8
0
 10
176.123467
 20
250.043569
 42
0.000000
  0
VERTEX
  8
0
 10
182.025608
 20
250.660465
 42
-0.015030
  0
VERTEX
  8
0
 10
185.059446
 20
250.885638
 42
-0.041048
  0
VERTEX
  8
0
 10
187.207622
 20
250.803920
 42
-0.056006
  0
VERTEX
  8
0
 10
188.892247
 20
250.405981
 42
-0.059113
  0
VERTEX
  8
0
 10
190.413847
 20
249.648407
 42
0.054361
  0
VERTEX
  8
0
 10
194.381976
 20
247.625613
 42
0.015366
  0
VERTEX
  8
0
 10
200.949939
 20
245.360638
 42
0.015052
  0
VERTEX
  8
0
 10
207.611977
 20
243.507897
 42
0.060360
  0
VERTEX
  8
0
 10
211.803872
 20
243.000000
 42
0.058419
  0
VERTEX
  8
0
 10
214.866916
 20
243.359106
 42
0.143530
  0
VERTEX
  8
0
 10
216.816515
 20
244.471552
 42
0.156272
  0
VERTEX
  8
0
 10
217.758668
 20
246.386996
 42
0.073335
  0
VERTEX
  8
0
 10
217.760565
 20
249.178018
 42
-0.043290
  0
VERTEX
  8
0
 10
217.656890
 20
250.927164
 42
-0.095403
  0
VERTEX
  8
0
 10
217.944680
 20
252.229070
 42
-0.085816
  0
VERTEX
  8
0
 10
218.720201
 20
253.415364
 42
-0.030280
  0
VERTEX
  8
0
 10
220.197873
 20
254.819953
 42
0.078664
  0
VERTEX
  8
0
 10
222.463124
 20
257.432675
 42
0.237438
  0
VERTEX
  8
0
 10
222.671249
 20
259.712477
 42
0.154606
  0
VERTEX
  8
0
 10
220.859632
 20
261.943667
 42
0.031489
  0
VERTEX
  8
0
 10
216.385272
 20
264.500000
 42
-0.055684
  0
VERTEX
  8
0
 10
209.699837
 20
268.760361
 42
-0.075635
  0
VERTEX
  8
0
 10
204.875620
 20
274.031113
 42
-0.079259
  0
VERTEX
  8
0
 10
201.988604
 20
280.292643
 42
-0.068566
  0
VERTEX
  8
0
 10
201.000000
 20
287.467881
 42
0.028360
  0
VERTEX
  8
0
 10
200.793354
 20
291.108236
 42
0.164812
  0
VERTEX
  8
0
 10
199.985838
 20
292.823082
 42
0.346892
  0
VERTEX
  8
0
 10
198.734839
 20
292.994538
 42
0.086835
  0
VERTEX
  8
0
 10
197.053347
 20
291.564279
 42
-0.115266
  0
VERTEX
  8
0
 10
195.031716
 20
290.032038
 42
-0.088505
  0
VERTEX
  8
0
 10
192.333568
 20
289.364652
 42
-0.084539
  0
VERTEX
  8
0
 10
189.456519
 20
289.661297
 42
-0.091559
  0
VERTEX
  8
0
 10
186.927242
 20
290.895671
 42
0.023070
  0
VERTEX
  8
0
 10
184.489496
 20
292.529669
 42
0.151680
  0
VERTEX
  8
0
 10
183.079683
 20
292.879624
 42
0.304781
  0
VERTEX
  8
0
 10
182.275907
 20
292.269314
 42
0.082610
  0
VERTEX
  8
0
 10
182.000000
 20
290.610784
 42
-0.061377
  0
VERTEX
  8
0
 10
181.866845
 20
289.530133
 42
-0.033048
  0
VERTEX
  8
0
 10
181.455167
 20
288.250560
 42
-0.032357
  0
VERTEX
  8
0
 10
180.855355
 20
286.983183
 42
-0.043510
  0
VERTEX
  8
0
 10
180.145250
 20
285.931049
 42
0.000000
  0
VERTEX
  8
0
 10
178.290500
 20
283.640530
 42
0.000000
  0
VERTEX
  8
0
 10
172.047595
 20
287.809381
 42
0.022573
  0
VERTEX
  8
0
 10
166.806451
 20
290.977005
 42
0.041084
  0
VERTEX
  8
0
 10
162.233959
 20
292.999087
 42
0.052376
  0
VERTEX
  8
0
 10
158.550403
 20
293.859992
 42
0.173556
  0
VERTEX
  8
0
 10
156.156924
 20
293.327906
 42
0.149035
  0
VERTEX
  8
0
 10
154.818881
 20
291.778935
 42
0.120863
  0
VERTEX
  8
0
 10
154.432776
 20
289.608052
 42
0.099485
  0
VERTEX
  8
0
 10
155.093854
 20
287.151319
 42
0.073496
  0
VERTEX
  8
0
 10
156.705884
 20
284.834543
 42
0.000000
  0
VERTEX
  8
0
 10
159.212187
 20
282.169086
 42
0.000000
  0
VERTEX
  8
0
 10
153.703291
 20
280.432560
 42
0.000000
  0
VERTEX
  8
0
 10
148.194395
 20
278.696033
 42
0.000000
  0
VERTEX
  8
0
 10
143.483651
 20
281.456713
 42
-0.027982
  0
VERTEX
  8
0
 10
141.271377
 20
282.925299
 42
-0.011672
  0
VERTEX
  8
0
 10
138.452778
 20
285.137014
 42
-0.011506
  0
VERTEX
  8
0
 10
135.538120
 20
287.650808
 42
-0.014617
  0
VERTEX
  8
0
 10
132.972362
 20
290.108697
 42
0.022586
  0
VERTEX
  8
0
 10
129.179816
 20
293.627654
 42
0.067678
  0
VERTEX
  8
0
 10
126.205223
 20
295.524567
 42
0.131973
  0
VERTEX
  8
0
 10
124.001058
 20
295.903165
 42
0.235435
  0
SEQEND
  0
POLYLINE
  8
0
 66
1
 70
1
  0
VERTEX
  8
0
 10
167.000000
 20
283.814788
 42
-0.336980
  0
VERTEX
  8
0
 10
166.481244
 20
283.132479
 42
-0.108358
  0
VERTEX
  8
0
 10
165.128555
 20
283.058268
 42
-0.072817
  0
VERTEX
  8
0
 10
163.370190
 20
283.614636
 42
-0.071055
  0
VERTEX
  8
0
 10
161.828741
 20
284.654988
 42
-0.026710
  0
VERTEX
  8
0
 10
160.119496
 20
286.376490
 42
-0.400037
  0
VERTEX
  8
0
 10
160.144726
 20
287.148736
 42
-0.292002
  0
VERTEX
  8
0
 10
161.050145
 20
287.340636
 42
-0.021408
  0
VERTEX
  8
0
 10
163.500000
 20
286.298609
 42
-0.017710
  0
VERTEX
  8
0
 10
164.840757
 20
285.599937
 42
-0.025350
  0
VERTEX
  8
0
 10
165.971875
 20
284.880510
 42
-0.023357
  0
VERTEX
  8
0
 10
166.812977
 20
284.222472
 42
-0.218429
  0
SEQEND
  0
POLYLINE
  8
0
 66
1
 70
1
  0
VERTEX
  8
0
 10
196.245444
 20
282.750000
 42
-0.021606
  0
VERTEX
  8
0
 10
196.483734
 20
279.006387
 42
-0.278326
  0
VERTEX
  8
0
 10
195.812866
 20
277.841592
 42
-0.323598
  0
VERTEX
  8
0
 10
194.576813
 20
277.991378
 42
-0.025942
  0
VERTEX
  8
0
 10
192.148665
 20
280.483461
 42
-0.014271
  0
VERTEX
  8
0
 10
189.731754
 20
283.399991
 42
-0.149814
  0
VERTEX
  8
0
 10
189.183122
 20
284.831280
 42
-0.323720
  0
VERTEX
  8
0
 10
189.744347
 20
285.731395
 42
-0.059265
  0
VERTEX
  8
0
 10
191.750000
 20
286.283746
 42
0.001695
  0
VERTEX
  8
0
 10
192.850201
 20
286.454229
 42
0.002049
  0
VERTEX
  8
0
 10
193.881646
 20
286.621976
 42
0.001737
  0
VERTEX
  8
0
 10
194.748813
 20
286.769754
 42
0.013999
  0
VERTEX
  8
0
 10
195.144965
 20
286.850168
 42
-0.379099
  0
VERTEX
  8
0
 10
195.420551
 20
286.700879
 42
-0.021854
  0
VERTEX
  8
0
 10
195.734278
 20
285.707549
 42
-0.024403
  0
VERTEX
  8
0
 10
196.024412
 20
284.368824
 42
-0.014465
  0
SEQEND
  0
POLYLINE
  8
0
 66
1
 70
1
  0
VERTEX
  8
0
 10
134.903533
 20
276.624696
 42
-0.234040
  0
VERTEX
  8
0
 10
133.496724
 20
276.030211
 42
-0.041805
  0
VERTEX
  8
0
 10
130.589452
 20
276.450438
 42
-0.042222
  0
VERTEX
  8
0
 10
127.769010
 20
277.358584
 42
-0.204921
  0
VERTEX
  8
0
 10
126.623739
 20
278.538138
 42
-0.069148
  0
VERTEX
  8
0
 10
126.444434
 20
279.309726
 42
-0.023863
  0
VERTEX
  8
0
 10
126.395641
 20
280.456103
 42
-0.023183
  0
VERTEX
  8
0
 10
126.461917
 20
281.740957
 42
-0.024880
  0
VERTEX
  8
0
 10
126.646767
 20
282.983834
 42
0.000000
  0
VERTEX
  8
0
 10
127.239158
 20
285.945792
 42
0.000000
  0
VERTEX
  8
0
 10
131.448416
 20
281.722896
 42
-0.018168
  0
VERTEX
  8
0
 10
133.007186
 20
280.041092
 42
-0.028885
  0
VERTEX
  8
0
 10
134.199675
 20
278.483355
 42
-0.028400
  0
VERTEX
  8
0
 10
134.969278
 20
277.196038
 42
-0.307479
  0
SEQEND
  0
POLYLINE
  8
0
 66
1
 70
1
  0
VERTEX
  8
0
 10
184.000000
 20
278.666667
 42
-0.013408
  0
VERTEX
  8
0
 10
183.954259
 20
276.961266
 42
-0.018019
  0
VERTEX
  8
0
 10
183.815882
 20
275.422132
 42
-0.015257
  0
VERTEX
  8
0
 10
183.618938
 20
274.171634
 42
-0.150797
  0
VERTEX
  8
0
 10
183.373216
 20
273.706549
 42
-0.292865
  0
VERTEX
  8
0
 10
182.438173
 20
273.501770
 42
-0.021904
  0
VERTEX
  8
0
 10
179.922094
 20
274.559618
 42
-0.022314
  0
VERTEX
  8
0
 10
177.505766
 20
275.837371
 42
-0.265956
  0
VERTEX
  8
0
 10
177.000000
 20
276.720961
 42
-0.185760
  0
VERTEX
  8
0
 10
177.394360
 20
277.745810
 42
-0.010840
  0
VERTEX
  8
0
 10
179.733932
 20
280.225439
 42
-0.010726
  0
VERTEX
  8
0
 10
182.180091
 20
282.603691
 42
-0.189696
  0
VERTEX
  8
0
 10
183.187091
 20
283.000000
 42
-0.329122
  0
VERTEX
  8
0
 10
183.504639
 20
282.765584
 42
-0.028392
  0
VERTEX
  8
0
 10
183.761208
 20
281.727083
 42
-0.028717
  0
VERTEX
  8
0
 10
183.941337
 20
280.327751
 42
-0.017653
  0
SEQEND
  0
POLYLINE
  8
0
 66
1
 70
1
  0
VERTEX
  8
0
 10
167.992561
 20
276.017960
 42
-0.056921
  0
VERTEX
  8
0
 10
168.776130
 20
273.282504
 42
-0.188970
  0
VERTEX
  8
0
 10
168.396160
 20
271.484610
 42
-0.152785
  0
VERTEX
  8
0
 10
166.808998
 20
270.185949
 42
-0.033977
  0
VERTEX
  8
0
 10
163.434112
 20
269.087726
 42
0.022493
  0
VERTEX
  8
0
 10
159.295572
 20
267.845276
 42
0.035330
  0
VERTEX
  8
0
 10
155.887581
 20
266.375129
 42
0.036033
  0
VERTEX
  8
0
 10
152.768403
 20
264.463045
 42
0.024647
  0
VERTEX
  8
0
 10
149.513498
 20
261.877708
 42
-0.004009
  0
VERTEX
  8
0
 10
147.141689
 20
259.828676
 42
-0.125420
  0
VERTEX
  8
0
 10
146.451597
 20
259.491092
 42
-0.438748
  0
VERTEX
  8
0
 10
146.088100
 20
259.751415
 42
-0.031005
  0
VERTEX
  8
0
 10
146.003738
 20
261.146408
 42
-0.094265
  0
VERTEX
  8
0
 10
146.454356
 20
263.495003
 42
-0.033756
  0
VERTEX
  8
0
 10
147.928244
 20
266.585345
 42
-0.028999
  0
VERTEX
  8
0
 10
149.698764
 20
269.344604
 42
-0.240037
  0
VERTEX
  8
0
 10
150.985302
 20
270.000000
 42
0.146170
  0
VERTEX
  8
0
 10
151.372254
 20
270.115591
 42
0.099191
  0
VERTEX
  8
0
 10
151.701932
 20
270.440625
 42
0.083123
  0
VERTEX
  8
0
 10
151.924149
 20
270.926578
 42
0.065852
  0
VERTEX
  8
0
 10
152.000000
 20
271.500000
 42
-0.154913
  0
VERTEX
  8
0
 10
152.207715
 20
272.154333
 42
-0.127551
  0
VERTEX
  8
0
 10
152.769439
 20
272.629678
 42
-0.080968
  0
VERTEX
  8
0
 10
153.729031
 20
272.912883
 42
-0.031360
  0
VERTEX
  8
0
 10
155.116631
 20
273.000000
 42
0.020853
  0
VERTEX
  8
0
 10
156.816967
 20
273.070944
 42
0.148850
  0
VERTEX
  8
0
 10
157.573280
 20
273.372087
 42
0.234544
  0
VERTEX
  8
0
 10
157.849273
 20
273.965127
 42
0.057713
  0
VERTEX
  8
0
 10
157.694310
 20
275.060959
 42
-0.179286
  0
VERTEX
  8
0
 10
157.846231
 20
276.590132
 42
-0.144706
  0
VERTEX
  8
0
 10
158.968268
 20
277.815903
 42
-0.090357
  0
VERTEX
  8
0
 10
161.103325
 20
278.624207
 42
-0.039415
  0
VERTEX
  8
0
 10
164.128680
 20
278.936614
 42
-0.060437
  0
VERTEX
  8
0
 10
165.462414
 20
278.807348
 42
-0.107810
  0
VERTEX
  8
0
 10
166.458914
 20
278.347752
 42
-0.094452
  0
VERTEX
  8
0
 10
167.257500
 20
277.465250
 42
-0.038638
  0
SEQEND
  0
POLYLINE
  8
0
 66
1
 70
1
  0
VERTEX
  8
0
 10
196.003133
 20
272.250000
 42
-0.003819
  0
VERTEX
  8
0
 10
198.731180
 20
270.153687
 42
-0.108032
  0
VERTEX
  8
0
 10
199.297410
 20
269.471438
 42
-0.517520
  0
VERTEX
  8
0
 10
199.104183
 20
269.098121
 42
-0.034524
  0
VERTEX
  8
0
 10
197.684835
 20
269.000000
 42
-0.130506
  0
VERTEX
  8
0
 10
195.122663
 20
269.680344
 42
-0.038581
  0
VERTEX
  8
0
 10
191.734852
 20
271.979281
 42
-0.036882
  0
VERTEX
  8
0
 10
188.797420
 20
274.699731
 42
-0.189728
  0
VERTEX
  8
0
 10
188.000000
 20
276.725564
 42
-0.180685
  0
VERTEX
  8
0
 10
188.262964
 20
277.429494
 42
-0.355333
  0
VERTEX
  8
0
 10
188.815154
 20
277.525952
 42
-0.033547
  0
VERTEX
  8
0
 10
190.185888
 20
276.633819
 42
-0.000879
  0
SEQEND
  0
POLYLINE
  8
0
 66
1
 70
1
  0
VERTEX
  8
0
 10
114.000000
 20
274.243480
 42
-0.018877
  0
VERTEX
  8
0
 10
119.025360
 20
272.381199
 42
-0.017964
  0
VERTEX
  8
0
 10
123.981301
 20
270.116922
 42
-0.009789
  0
VERTEX
  8
0
 10
128.257285
 20
267.868657
 42
-0.428915
  0
VERTEX
  8
0
 10
128.489741
 20
266.983401
 42
-0.195123
  0
VERTEX
  8
0
 10
127.223233
 20
266.056439
 42
-0.002090
  0
VERTEX
  8
0
 10
116.522598
 20
263.412452
 42
-0.001737
  0
VERTEX
  8
0
 10
105.693577
 20
260.824518
 42
-0.259742
  0
VERTEX
  8
0
 10
104.503656
 20
261.163010
 42
-0.201585
  0
VERTEX
  8
0
 10
104.348443
 20
261.543244
 42
-0.033080
  0
VERTEX
  8
0
 10
104.410398
 20
262.352475
 42
-0.031913
  0
VERTEX
  8
0
 10
104.619225
 20
263.350069
 42
-0.023296
  0
VERTEX
  8
0
 10
104.972022
 20
264.426411
 42
0.042330
  0
VERTEX
  8
0
 10
105.367862
 20
265.809698
 42
0.015540
  0
VERTEX
  8
0
 10
105.698031
 20
267.817017
 42
0.015275
  0
VERTEX
  8
0
 10
105.924564
 20
270.043467
 42
0.017714
  0
VERTEX
  8
0
 10
106.000000
 20
272.172088
 42
-0.008684
  0
VERTEX
  8
0
 10
106.050087
 20
275.055845
 42
-0.088270
  0
VERTEX
  8
0
 10
106.299745
 20
276.222480
 42
-0.283070
  0
VERTEX
  8
0
 10
106.836870
 20
276.615908
 42
-0.121546
  0
VERTEX
  8
0
 10
107.750000
 20
276.467212
 42
0.012355
  0
VERTEX
  8
0
 10
108.709099
 20
276.085670
 42
0.003020
  0
VERTEX
  8
0
 10
110.307813
 20
275.505950
 42
0.003093
  0
VERTEX
  8
0
 10
112.148828
 20
274.863722
 42
0.003081
  0
SEQEND
  0
POLYLINE
  8
0
 66
1
 70
1
  0
VERTEX
  8
0
 10
146.000000
 20
273.551100
 42
-0.337588
  0
VERTEX
  8
0
 10
145.216570
 20
272.523004
 42
-0.012458
  0
VERTEX
  8
0
 10
140.172407
 20
271.269446
 42
-0.018900
  0
VERTEX
  8
0
 10
135.122942
 20
270.346044
 42
-0.104447
  0
VERTEX
  8
0
 10
132.381073
 20
270.524687
 42
-0.038698
  0
VERTEX
  8
0
 10
131.028405
 20
271.019304
 42
-0.614738
  0
VERTEX
  8
0
 10
131.013086
 20
271.397247
 42
-0.078089
  0
VERTEX
  8
0
 10
132.059775
 20
271.782968
 42
-0.003220
  0
VERTEX
  8
0
 10
136.000000
 20
272.543907
 42
-0.003959
  0
VERTEX
  8
0
 10
140.872784
 20
273.412569
 42
-0.017031
  0
VERTEX
  8
0
 10
143.791821
 20
273.807381
 42
-0.021494
  0
VERTEX
  8
0
 10
145.632678
 20
273.913163
 42
-0.418443
  0
SEQEND
  0
POLYLINE
  8
0
 66
1
 70
1
  0
VERTEX
  8
0
 10
174.800000
 20
269.800000
 42
-0.102853
  0
VERTEX
  8
0
 10
175.705503
 20
268.419151
 42
-0.112677
  0
VERTEX
  8
0
 10
175.946195
 20
266.837508
 42
-0.128134
  0
VERTEX
  8
0
 10
175.476102
 20
265.457277
 42
-0.156571
  0
VERTEX
  8
0
 10
174.418213
 20
264.606989
 42
-0.026519
  0
VERTEX
  8
0
 10
172.898941
 20
264.114653
 42
-0.291595
  0
VERTEX
  8
0
 10
172.315967
 20
264.299534
 42
-0.166893
  0
VERTEX
  8
0
 10
172.043251
 20
265.012146
 42
-0.008692
  0
VERTEX
  8
0
 10
172.000000
 20
267.500000
 42
-0.027080
  0
VERTEX
  8
0
 10
172.125570
 20
269.816796
 42
-0.196168
  0
VERTEX
  8
0
 10
172.645599
 20
270.778488
 42
-0.320638
  0
VERTEX
  8
0
 10
173.491622
 20
270.835348
 42
-0.058051
  0
SEQEND
  0
POLYLINE
  8
0
 66
1
 70
1
  0
VERTEX
  8
0
 10
189.520033
 20
268.750000
 42
-0.003675
  0
VERTEX
  8
0
 10
190.706259
 20
267.742868
 42
-0.002456
  0
VERTEX
  8
0
 10
192.049898
 20
266.573438
 42
-0.002473
  0
VERTEX
  8
0
 10
193.341259
 20
265.426940
 42
-0.004859
  0
VERTEX
  8
0
 10
194.354984
 20
264.500000
 42
0.000000
  0
VERTEX
  8
0
 10
196.500000
 20
262.500000
 42
0.000000
  0
VERTEX
  8
0
 10
192.716882
 20
262.000000
 42
0.024985
  0
VERTEX
  8
0
 10
191.276971
 20
261.735950
 42
0.039733
  0
VERTEX
  8
0
 10
190.084937
 20
261.353125
 42
0.047455
  0
VERTEX
  8
0
 10
189.260528
 20
260.918662
 42
0.289149
  0
VERTEX
  8
0
 10
189.069534
 20
260.500000
 42
0.178526
  0
VERTEX
  8
0
 10
189.859606
 20
259.012586
 42
0.008408
  0
VERTEX
  8
0
 10
194.225402
 20
255.241956
 42
0.012195
  0
VERTEX
  8
0
 10
198.641023
 20
251.735199
 42
0.085068
  0
VERTEX
  8
0
 10
201.079671
 20
250.474713
 42
-0.028365
  0
VERTEX
  8
0
 10
201.837773
 20
250.185855
 42
-0.056216
  0
VERTEX
  8
0
 10
202.391185
 20
249.859312
 42
-0.097985
  0
VERTEX
  8
0
 10
202.667360
 20
249.550746
 42
-0.342556
  0
VERTEX
  8
0
 10
202.636116
 20
249.302783
 42
-0.289652
  0
VERTEX
  8
0
 10
201.516096
 20
249.050531
 42
-0.009610
  0
VERTEX
  8
0
 10
197.051597
 20
250.738977
 42
-0.018234
  0
VERTEX
  8
0
 10
192.543285
 20
252.737421
 42
-0.034748
  0
VERTEX
  8
0
 10
189.110453
 20
254.717467
 42
0.016933
  0
VERTEX
  8
0
 10
187.712984
 20
255.591253
 42
0.019245
  0
VERTEX
  8
0
 10
186.316953
 20
256.329506
 42
0.018793
  0
VERTEX
  8
0
 10
185.093654
 20
256.861730
 42
0.093468
  0
VERTEX
  8
0
 10
184.360453
 20
257.000000
 42
-0.084772
  0
VERTEX
  8
0
 10
183.840925
 20
257.088721
 42
-0.093402
  0
VERTEX
  8
0
 10
183.399633
 20
257.344057
 42
-0.100438
  0
VERTEX
  8
0
 10
183.104510
 20
257.724488
 42
-0.115404
  0
VERTEX
  8
0
 10
183.000000
 20
258.171259
 42
0.095643
  0
VERTEX
  8
0
 10
182.889237
 20
258.745003
 42
0.030552
  0
VERTEX
  8
0
 10
182.515425
 20
259.533911
 42
0.029221
  0
VERTEX
  8
0
 10
181.981712
 20
260.381411
 42
0.028791
  0
VERTEX
  8
0
 10
181.350382
 20
261.165326
 42
-0.071368
  0
VERTEX
  8
0
 10
180.710074
 20
262.115323
 42
-0.033677
  0
VERTEX
  8
0
 10
180.155852
 20
263.489944
 42
-0.032514
  0
VERTEX
  8
0
 10
179.760203
 20
265.033558
 42
-0.039392
  0
VERTEX
  8
0
 10
179.600382
 20
266.519230
 42
-0.014993
  0
VERTEX
  8
0
 10
179.603741
 20
268.667928
 42
-0.172312
  0
VERTEX
  8
0
 10
179.906797
 20
269.442783
 42
-0.241773
  0
VERTEX
  8
0
 10
180.576639
 20
269.712084
 42
-0.031071
  0
VERTEX
  8
0
 10
182.154800
 20
269.466617
 42
0.040403
  0
VERTEX
  8
0
 10
183.218989
 20
269.321352
 42
0.049397
  0
VERTEX
  8
0
 10
184.221928
 20
269.365321
 42
0.057219
  0
VERTEX
  8
0
 10
185.025100
 20
269.576266
 42
0.162936
  0
VERTEX
  8
0
 10
185.463817
 20
269.941454
 42
-0.065874
  0
VERTEX
  8
0
 10
186.093494
 20
270.711997
 42
-0.265969
  0
VERTEX
  8
0
 10
186.661905
 20
270.847609
 42
-0.097020
  0
VERTEX
  8
0
 10
187.454999
 20
270.435588
 42
-0.006002
  0
SEQEND
  0
POLYLINE
  8
0
 66
1
 70
1
  0
VERTEX
  8
0
 10
206.000000
 20
264.881966
 42
0.027664
  0
VERTEX
  8
0
 10
206.061656
 20
263.768428
 42
0.057417
  0
VERTEX
  8
0
 10
206.255834
 20
262.921330
 42
0.107547
  0
VERTEX
  8
0
 10
206.540481
 20
262.461520
 42
0.352553
  0
VERTEX
  8
0
 10
206.870923
 20
262.420226
 42
-0.201358
  0
VERTEX
  8
0
 10
207.357882
 20
262.496900
 42
-0.046895
  0
VERTEX
  8
0
 10
208.156376
 20
262.218970
 42
-0.041148
  0
VERTEX
  8
0
 10
209.086353
 20
261.697650
 42
-0.030329
  0
VERTEX
  8
0
 10
210.023933
 20
260.979243
 42
-0.028637
  0
VERTEX
  8
0
 10
211.462630
 20
259.579407
 42
-0.592437
  0
VERTEX
  8
0
 10
211.308177
 20
259.125298
 42
-0.111437
  0
VERTEX
  8
0
 10
210.133559
 20
259.182537
 42
-0.004999
  0
VERTEX
  8
0
 10
206.213889
 20
260.312403
 42
-0.017634
  0
VERTEX
  8
0
 10
204.616902
 20
260.852121
 42
-0.033561
  0
VERTEX
  8
0
 10
203.383967
 20
261.414989
 42
-0.045141
  0
VERTEX
  8
0
 10
202.617688
 20
261.923171
 42
-0.446689
  0
VERTEX
  8
0
 10
202.598907
 20
262.265574
 42
0.096261
  0
VERTEX
  8
0
 10
202.873547
 20
262.672696
 42
0.025770
  0
VERTEX
  8
0
 10
203.142616
 20
263.409792
 42
0.025124
  0
VERTEX
  8
0
 10
203.367158
 20
264.295659
 42
0.023592
  0
VERTEX
  8
0
 10
203.507395
 20
265.218351
 42
-0.004375
  0
VERTEX
  8
0
 10
203.791044
 20
267.731154
 42
-0.076577
  0
VERTEX
  8
0
 10
204.012598
 20
268.519374
 42
-0.330331
  0
VERTEX
  8
0
 10
204.378321
 20
268.721951
 42
-0.105722
  0
VERTEX
  8
0
 10
205.000000
 20
268.500000
 42
-0.148232
  0
VERTEX
  8
0
 10
205.385708
 20
268.062795
 42
-0.039751
  0
VERTEX
  8
0
 10
205.706250
 20
267.182263
 42
-0.036649
  0
VERTEX
  8
0
 10
205.926413
 20
266.075702
 42
-0.030793
  0
SEQEND
  0
POLYLINE
  8
0
 66
1
 70
1
  0
VERTEX
  8
0
 10
165.662281
 20
262.750000
 42
-0.174857
  0
VERTEX
  8
0
 10
165.474999
 20
262.540618
 42
-0.447206
  0
VERTEX
  8
0
 10
165.306058
 20
262.601562
 42
-0.078554
  0
VERTEX
  8
0
 10
165.189089
 20
263.108560
 42
-0.017491
  0
VERTEX
  8
0
 10
165.157895
 20
264.000000
 42
-0.017491
  0
VERTEX
  8
0
 10
165.189089
 20
264.891440
 42
-0.078554
  0
VERTEX
  8
0
 10
165.306058
 20
265.398438
 42
-0.447206
  0
VERTEX
  8
0
 10
165.474999
 20
265.459382
 42
-0.174857
  0
VERTEX
  8
0
 10
165.662281
 20
265.250000
 42
-0.057986
  0
VERTEX
  8
0
 10
165.818615
 20
264.679992
 42
-0.037979
  0
VERTEX
  8
0
 10
165.870340
 20
264.000000
 42
-0.037979
  0
VERTEX
  8
0
 10
165.818615
 20
263.320008
 42
-0.057986
  0
SEQEND
  0
POLYLINE
  8
0
 66
1
 70
1
  0
VERTEX
  8
0
 10
163.000000
 20
261.940983
 42
-0.027979
  0
VERTEX
  8
0
 10
162.933656
 20
260.756294
 42
-0.069343
  0
VERTEX
  8
0
 10
162.718784
 20
259.916013
 42
-0.145541
  0
VERTEX
  8
0
 10
162.391769
 20
259.509855
 42
-0.297719
  0
VERTEX
  8
0
 10
162.000000
 20
259.500000
 42
-0.130646
  0
VERTEX
  8
0
 10
161.615492
 20
259.906663
 42
-0.045439
  0
VERTEX
  8
0
 10
161.293750
 20
260.653525
 42
-0.041396
  0
VERTEX
  8
0
 10
161.073842
 20
261.579340
 42
-0.037634
  0
VERTEX
  8
0
 10
161.000000
 20
262.559017
 42
-0.039081
  0
VERTEX
  8
0
 10
161.073170
 20
263.493720
 42
-0.058208
  0
VERTEX
  8
0
 10
161.293750
 20
264.282961
 42
-0.076538
  0
VERTEX
  8
0
 10
161.617207
 20
264.820624
 42
-0.222681
  0
VERTEX
  8
0
 10
162.000000
 20
265.000000
 42
-0.257909
  0
VERTEX
  8
0
 10
162.384428
 20
264.787575
 42
-0.061379
  0
VERTEX
  8
0
 10
162.706250
 20
264.101414
 42
-0.048032
  0
VERTEX
  8
0
 10
162.927265
 20
263.112882
 42
-0.031003
  0
SEQEND
  0
POLYLINE
  8
0
 66
1
 70
1
  0
VERTEX
  8
0
 10
135.000000
 20
262.066449
 42
-0.191748
  0
VERTEX
  8
0
 10
134.316953
 20
260.350833
 42
-0.003006
  0
VERTEX
  8
0
 10
126.880922
 20
252.586570
 42
-0.005893
  0
VERTEX
  8
0
 10
119.685672
 20
245.336533
 42
-0.071624
  0
VERTEX
  8
0
 10
116.538521
 20
243.020616
 42
-0.017101
  0
VERTEX
  8
0
 10
115.015424
 20
242.271307
 42
-0.107950
  0
VERTEX
  8
0
 10
114.174203
 20
242.093824
 42
-0.182228
  0
VERTEX
  8
0
 10
113.556027
 20
242.331911
 42
-0.069768
  0
VERTEX
  8
0
 10
112.950276
 20
243.046214
 42
-0.114621
  0
VERTEX
  8
0
 10
112.302573
 20
244.902045
 42
-0.176826
  0
VERTEX
  8
0
 10
112.706321
 20
246.534304
 42
-0.072742
  0
VERTEX
  8
0
 10
114.489680
 20
248.496257
 42
-0.008891
  0
VERTEX
  8
0
 10
119.053835
 20
252.112504
 42
0.000034
  0
VERTEX
  8
0
 10
122.018073
 20
254.376816
 42
0.000031
  0
VERTEX
  8
0
 10
125.091590
 20
256.725235
 42
0.000031
  0
VERTEX
  8
0
 10
127.850098
 20
258.833498
 42
0.000096
  0
VERTEX
  8
0
 10
129.702510
 20
260.250000
 42
-0.014110
  0
VERTEX
  8
0
 10
132.188024
 20
262.042520
 42
-0.066663
  0
VERTEX
  8
0
 10
133.756522
 20
262.826392
 42
-0.216453
  0
VERTEX
  8
0
 10
134.608016
 20
262.744394
 42
-0.268289
  0
SEQEND
  0
POLYLINE
  8
0
 66
1
 70
1
  0
VERTEX
  8
0
 10
159.240258
 20
260.523502
 42
-0.032132
  0
VERTEX
  8
0
 10
159.457745
 20
258.787645
 42
-0.125538
  0
VERTEX
  8
0
 10
159.255862
 20
257.734341
 42
-0.281250
  0
VERTEX
  8
0
 10
158.695682
 20
257.364664
 42
-0.148211
  0
VERTEX
  8
0
 10
157.860520
 20
257.586203
 42
-0.210864
  0
VERTEX
  8
0
 10
157.203383
 20
258.543481
 42
-0.047580
  0
VERTEX
  8
0
 10
157.020024
 20
260.556024
 42
-0.049690
  0
VERTEX
  8
0
 10
157.217552
 20
262.457134
 42
-0.355980
  0
VERTEX
  8
0
 10
157.883423
 20
263.000000
 42
-0.216151
  0
VERTEX
  8
0
 10
158.255763
 20
262.831148
 42
-0.054573
  0
VERTEX
  8
0
 10
158.646405
 20
262.272529
 42
-0.045687
  0
VERTEX
  8
0
 10
158.994337
 20
261.471802
 42
-0.032439
  0
SEQEND
  0
POLYLINE
  8
0
 66
1
 70
1
  0
VERTEX
  8
0
 10
123.546634
 20
260.075456
 42
-0.092174
  0
VERTEX
  8
0
 10
122.027021
 20
258.402497
 42
-0.005842
  0
VERTEX
  8
0
 10
116.674203
 20
254.434695
 42
-0.004031
  0
VERTEX
  8
0
 10
111.082848
 20
250.458702
 42
-0.159186
  0
VERTEX
  8
0
 10
109.650916
 20
250.024604
 42
-0.181195
  0
VERTEX
  8
0
 10
109.100639
 20
250.244311
 42
-0.034727
  0
VERTEX
  8
0
 10
108.344568
 20
251.035038
 42
-0.032970
  0
VERTEX
  8
0
 10
107.547523
 20
252.133609
 42
-0.025136
  0
VERTEX
  8
0
 10
106.819955
 20
253.429829
 42
0.000000
  0
VERTEX
  8
0
 10
105.139910
 20
256.810451
 42
0.000000
  0
VERTEX
  8
0
 10
112.819955
 20
258.808031
 42
-0.005731
  0
VERTEX
  8
0
 10
118.515236
 20
260.219879
 42
-0.028489
  0
VERTEX
  8
0
 10
121.761021
 20
260.792336
 42
-0.088179
  0
VERTEX
  8
0
 10
123.287462
 20
260.703256
 42
-0.511171
  0
SEQEND
  0
POLYLINE
  8
0
 66
1
 70
1
  0
VERTEX
  8
0
 10
141.048512
 20
256.646994
 42
-0.024094
  0
VERTEX
  8
0
 10
140.501548
 20
255.223948
 42
-0.022732
  0
VERTEX
  8
0
 10
139.810630
 20
253.831477
 42
-0.023367
  0
VERTEX
  8
0
 10
139.085478
 20
252.656041
 42
-0.069757
  0
VERTEX
  8
0
 10
138.450485
 20
251.958906
 42
-0.068412
  0
VERTEX
  8
0
 10
137.769630
 20
251.535722
 42
-0.546022
  0
VERTEX
  8
0
 10
137.516036
 20
251.701892
 42
-0.078084
  0
VERTEX
  8
0
 10
137.653673
 20
252.530061
 42
-0.004661
  0
VERTEX
  8
0
 10
138.476778
 20
254.934183
 42
-0.007417
  0
VERTEX
  8
0
 10
139.665438
 20
258.150346
 42
-0.036471
  0
VERTEX
  8
0
 10
140.492220
 20
259.898541
 42
-0.094543
  0
VERTEX
  8
0
 10
141.140551
 20
260.663292
 42
-0.383404
  0
VERTEX
  8
0
 10
141.699800
 20
260.633533
 42
-0.220014
  0
VERTEX
  8
0
 10
141.837008
 20
260.260285
 42
-0.020274
  0
VERTEX
  8
0
 10
141.714540
 20
259.256431
 42
-0.023172
  0
VERTEX
  8
0
 10
141.453059
 20
258.019194
 42
-0.016041
  0
SEQEND
  0
POLYLINE
  8
0
 66
1
 70
1
  0
VERTEX
  8
0
 10
155.269915
 20
259.250000
 42
0.008968
  0
VERTEX
  8
0
 10
155.514475
 20
258.453518
 42
0.005119
  0
VERTEX
  8
0
 10
155.836914
 20
257.500000
 42
0.005111
  0
VERTEX
  8
0
 10
156.181108
 20
256.546866
 42
0.008443
  0
VERTEX
  8
0
 10
156.493535
 20
255.750000
 42
-0.195770
  0
VERTEX
  8
0
 10
156.498408
 20
254.495951
 42
-0.331551
  0
VERTEX
  8
0
 10
155.644549
 20
253.975097
 42
-0.153078
  0
VERTEX
  8
0
 10
154.158384
 20
254.597053
 42
-0.095098
  0
VERTEX
  8
0
 10
152.958180
 20
256.078141
 42
-0.077329
  0
VERTEX
  8
0
 10
152.384694
 20
257.714726
 42
-0.090833
  0
VERTEX
  8
0
 10
152.382188
 20
259.356100
 42
-0.122775
  0
VERTEX
  8
0
 10
152.920389
 20
260.548551
 42
-0.229533
  0
VERTEX
  8
0
 10
153.851984
 20
261.000000
 42
-0.159376
  0
VERTEX
  8
0
 10
154.238966
 20
260.873434
 42
-0.064502
  0
VERTEX
  8
0
 10
154.645837
 20
260.485937
 42
-0.054984
  0
VERTEX
  8
0
 10
155.009748
 20
259.919557
 42
-0.045347
  0
SEQEND
  0
POLYLINE
  8
0
 66
1
 70
1
  0
VERTEX
  8
0
 10
152.203490
 20
253.993677
 42
-0.022817
  0
VERTEX
  8
0
 10
152.789605
 20
252.844698
 42
-0.045183
  0
VERTEX
  8
0
 10
153.126492
 20
251.879393
 42
-0.074476
  0
VERTEX
  8
0
 10
153.190071
 20
251.224615
 42
-0.399098
  0
VERTEX
  8
0
 10
152.953490
 20
251.000000
 42
-0.172949
  0
VERTEX
  8
0
 10
151.626700
 20
251.473084
 42
-0.041086
  0
VERTEX
  8
0
 10
149.910928
 20
253.127334
 42
-0.039556
  0
VERTEX
  8
0
 10
148.527746
 20
254.975600
 42
-0.286731
  0
VERTEX
  8
0
 10
148.522542
 20
256.036475
 42
-0.120701
  0
VERTEX
  8
0
 10
149.280292
 20
256.781576
 42
-0.266929
  0
VERTEX
  8
0
 10
150.063592
 20
256.793364
 42
-0.116719
  0
VERTEX
  8
0
 10
150.971435
 20
255.966031
 42
-0.020513
  0
SEQEND
  0
POLYLINE
  8
0
 66
1
 70
1
  0
VERTEX
  8
0
 10
131.979474
 20
246.884606
 42
-0.024610
  0
VERTEX
  8
0
 10
129.029834
 20
240.291167
 42
-0.030552
  0
VERTEX
  8
0
 10
125.627819
 20
234.497504
 42
-0.062589
  0
VERTEX
  8
0
 10
123.071582
 20
231.565587
 42
-0.647877
  0
VERTEX
  8
0
 10
122.000000
 20
232.045455
 42
0.132304
  0
VERTEX
  8
0
 10
121.850214
 20
232.601614
 42
0.022617
  0
VERTEX
  8
0
 10
121.252480
 20
233.531327
 42
0.023290
  0
VERTEX
  8
0
 10
120.429550
 20
234.584723
 42
0.018913
  0
VERTEX
  8
0
 10
119.455251
 20
235.635658
 42
0.000000
  0
VERTEX
  8
0
 10
116.910501
 20
238.180408
 42
0.000000
  0
VERTEX
  8
0
 10
125.205251
 20
245.978561
 42
-0.006156
  0
VERTEX
  8
0
 10
128.407283
 20
248.915467
 42
-0.010670
  0
VERTEX
  8
0
 10
131.148154
 20
251.264593
 42
-0.004888
  0
VERTEX
  8
0
 10
133.449814
 20
253.116249
 42
-0.505761
  0
VERTEX
  8
0
 10
133.788465
 20
253.022964
 42
-0.155846
  0
VERTEX
  8
0
 10
133.817609
 20
252.505897
 42
-0.008423
  0
VERTEX
  8
0
 10
133.376065
 20
250.908898
 42
-0.012482
  0
VERTEX
  8
0
 10
132.762066
 20
249.002311
 42
-0.008733
  0
SEQEND
  0
POLYLINE
  8
0
 66
1
 70
1
  0
VERTEX
  8
0
 10
150.891663
 20
249.941727
 42
-0.028387
  0
VERTEX
  8
0
 10
151.760346
 20
249.130562
 42
-0.046253
  0
VERTEX
  8
0
 10
152.386554
 20
248.340844
 42
-0.060411
  0
VERTEX
  8
0
 10
152.711532
 20
247.680464
 42
-0.288106
  0
VERTEX
  8
0
 10
152.622150
 20
247.288817
 42
-0.255392
  0
VERTEX
  8
0
 10
151.356513
 20
246.917597
 42
-0.054828
  0
VERTEX
  8
0
 10
149.110951
 20
247.672569
 42
-0.054325
  0
VERTEX
  8
0
 10
147.013493
 20
248.936766
 42
-0.184444
  0
VERTEX
  8
0
 10
146.186391
 20
250.270665
 42
-0.183015
  0
VERTEX
  8
0
 10
146.387986
 20
251.432737
 42
-0.283985
  0
VERTEX
  8
0
 10
147.261777
 20
251.891653
 42
-0.118507
  0
VERTEX
  8
0
 10
148.857039
 20
251.388184
 42
-0.038216
  0
SEQEND
  0
POLYLINE
  8
0
 66
1
 70
1
  0
VERTEX
  8
0
 10
142.000000
 20
242.489102
 42
0.052068
  0
VERTEX
  8
0
 10
142.519573
 20
237.513230
 42
0.051082
  0
VERTEX
  8
0
 10
144.056358
 20
232.718307
 42
0.053596
  0
VERTEX
  8
0
 10
146.432555
 20
228.561674
 42
0.073326
  0
VERTEX
  8
0
 10
149.438213
 20
225.479329
 42
0.045207
  0
VERTEX
  8
0
 10
154.284129
 20
222.432730
 42
0.060543
  0
VERTEX
  8
0
 10
159.156433
 20
220.654409
 42
0.038340
  0
VERTEX
  8
0
 10
165.816291
 20
219.631638
 42
0.008208
  0
VERTEX
  8
0
 10
177.500000
 20
218.937712
 42
-0.012065
  0
VERTEX
  8
0
 10
189.700531
 20
218.118620
 42
-0.036577
  0
VERTEX
  8
0
 10
197.903923
 20
216.758667
 42
-0.052837
  0
VERTEX
  8
0
 10
203.958863
 20
214.596473
 42
-0.062820
  0
VERTEX
  8
0
 10
209.051515
 20
211.303199
 42
-0.087144
  0
VERTEX
  8
0
 10
212.961418
 20
206.637013
 42
-0.086986
  0
VERTEX
  8
0
 10
215.050502
 20
200.914921
 42
-0.088512
  0
VERTEX
  8
0
 10
215.050229
 20
194.909855
 42
-0.094521
  0
VERTEX
  8
0
 10
212.953958
 20
189.425503
 42
-0.088129
  0
VERTEX
  8
0
 10
209.780376
 20
185.874831
 42
-0.061962
  0
VERTEX
  8
0
 10
205.179320
 20
183.105244
 42
-0.060067
  0
VERTEX
  8
0
 10
199.871326
 20
181.474370
 42
-0.070353
  0
VERTEX
  8
0
 10
194.611387
 20
181.276348
 42
-0.051182
  0
VERTEX
  8
0
 10
190.580460
 20
182.114963
 42
-0.014092
  0
VERTEX
  8
0
 10
184.456119
 20
184.250922
 42
-0.007025
  0
VERTEX
  8
0
 10
178.359294
 20
186.670580
 42
-0.553989
  0
VERTEX
  8
0
 10
178.216340
 20
187.517898
 42
-0.211392
  0
VERTEX
  8
0
 10
178.465438
 20
187.597549
 42
-0.002443
  0
VERTEX
  8
0
 10
180.229568
 20
187.399045
 42
-0.006926
  0
VERTEX
  8
0
 10
182.285446
 20
187.128616
 42
-0.004402
  0
VERTEX
  8
0
 10
184.671550
 20
186.759583
 42
0.032306
  0
VERTEX
  8
0
 10
190.648199
 20
186.174058
 42
0.052752
  0
VERTEX
  8
0
 10
195.722446
 20
186.541771
 42
0.061989
  0
VERTEX
  8
0
 10
199.980822
 20
187.866351
 42
0.073921
  0
VERTEX
  8
0
 10
203.511214
 20
190.143990
 42
0.099991
  0
VERTEX
  8
0
 10
206.764421
 20
194.415006
 42
0.123869
  0
VERTEX
  8
0
 10
207.779503
 20
199.293600
 42
0.119463
  0
VERTEX
  8
0
 10
206.371748
 20
204.205134
 42
0.088821
  0
VERTEX
  8
0
 10
202.749571
 20
208.557269
 42
0.050049
  0
VERTEX
  8
0
 10
198.113949
 20
211.725213
 42
0.074773
  0
VERTEX
  8
0
 10
193.512215
 20
213.406069
 42
0.042272
  0
VERTEX
  8
0
 10
186.941469
 20
214.174687
 42
0.006760
  0
VERTEX
  8
0
 10
174.000000
 20
214.413256
 42
-0.003673
  0
VERTEX
  8
0
 10
163.956830
 20
214.536377
 42
-0.015675
  0
VERTEX
  8
0
 10
157.968433
 20
214.841766
 42
-0.025958
  0
VERTEX
  8
0
 10
153.742657
 20
215.412315
 42
-0.037162
  0
VERTEX
  8
0
 10
150.090261
 20
216.385491
 42
-0.059260
  0
VERTEX
  8
0
 10
145.189913
 20
218.771207
 42
-0.048402
  0
VERTEX
  8
0
 10
140.609703
 20
222.386337
 42
-0.049916
  0
VERTEX
  8
0
 10
136.970240
 20
226.653806
 42
-0.078987
  0
VERTEX
  8
0
 10
134.888987
 20
230.976190
 42
-0.031203
  0
VERTEX
  8
0
 10
134.279687
 20
233.593636
 42
-0.086664
  0
VERTEX
  8
0
 10
134.292052
 20
235.475684
 42
-0.060139
  0
VERTEX
  8
0
 10
134.951118
 20
237.609294
 42
-0.009600
  0
VERTEX
  8
0
 10
136.811081
 20
241.571076
 42
-0.011803
  0
VERTEX
  8
0
 10
138.099073
 20
244.034628
 42
-0.017782
  0
VERTEX
  8
0
 10
139.346560
 20
246.111504
 42
-0.012811
  0
VERTEX
  8
0
 10
140.457504
 20
247.728135
 42
-0.240242
  0
VERTEX
  8
0
 10
140.990663
 20
248.000000
 42
-0.331209
  0
VERTEX
  8
0
 10
141.386197
 20
247.705708
 42
-0.027583
  0
VERTEX
  8
0
 10
141.704212
 20
246.385020
 42
-0.028158
  0
VERTEX
  8
0
 10
141.927401
 20
244.606585
 42
-0.017138
  0
SEQEND
  0
POLYLINE
  8
0
 66
1
 70
1
  0
VERTEX
  8
0
 10
150.689528
 20
243.177742
 42
-0.042235
  0
VERTEX
  8
0
 10
149.507822
 20
243.142582
 42
-0.036965
  0
VERTEX
  8
0
 10
148.281771
 20
243.301092
 42
-0.038760
  0
VERTEX
  8
0
 10
147.191533
 20
243.614534
 42
-0.084021
  0
VERTEX
  8
0
 10
146.439528
 20
244.050187
 42
-0.047472
  0
VERTEX
  8
0
 10
145.063987
 20
245.431791
 42
-0.507996
  0
VERTEX
  8
0
 10
145.231682
 20
246.083850
 42
-0.171020
  0
VERTEX
  8
0
 10
146.490477
 20
246.134561
 42
-0.018956
  0
VERTEX
  8
0
 10
149.250000
 20
245.169555
 42
-0.002903
  0
VERTEX
  8
0
 10
152.033696
 20
244.057317
 42
-0.140681
  0
VERTEX
  8
0
 10
152.500843
 20
243.690662
 42
-0.556726
  0
VERTEX
  8
0
 10
152.387905
 20
243.416045
 42
-0.012619
  0
SEQEND
  0
POLYLINE
  8
0
 66
1
 70
1
  0
VERTEX
  8
0
 10
151.081787
 20
241.000000
 42
-0.035349
  0
VERTEX
  8
0
 10
152.358016
 20
240.909660
 42
-0.083558
  0
VERTEX
  8
0
 10
153.263631
 20
240.621497
 42
-0.125617
  0
VERTEX
  8
0
 10
153.801862
 20
240.144918
 42
-0.150151
  0
VERTEX
  8
0
 10
154.000000
 20
239.500000
 42
-0.176579
  0
VERTEX
  8
0
 10
153.750359
 20
238.815157
 42
-0.128937
  0
VERTEX
  8
0
 10
153.083333
 20
238.343750
 42
-0.069535
  0
VERTEX
  8
0
 10
151.888175
 20
238.076585
 42
-0.020272
  0
VERTEX
  8
0
 10
150.000000
 20
238.000000
 42
-0.009810
  0
VERTEX
  8
0
 10
148.466353
 20
238.030093
 42
-0.016236
  0
VERTEX
  8
0
 10
147.175000
 20
238.122850
 42
-0.010115
  0
VERTEX
  8
0
 10
146.143944
 20
238.251784
 42
-0.372458
  0
VERTEX
  8
0
 10
146.000000
 20
238.418213
 42
0.067582
  0
VERTEX
  8
0
 10
145.965564
 20
238.671821
 42
0.007650
  0
VERTEX
  8
0
 10
145.802127
 20
239.229223
 42
0.009152
  0
VERTEX
  8
0
 10
145.584335
 20
239.889038
 42
0.007321
  0
VERTEX
  8
0
 10
145.326391
 20
240.591821
 42
-0.029921
  0
VERTEX
  8
0
 10
145.048535
 20
241.469544
 42
-0.263923
  0
VERTEX
  8
0
 10
145.152783
 20
241.847217
 42
-0.263923
  0
VERTEX
  8
0
 10
145.530456
 20
241.951465
 42
-0.029921
  0
VERTEX
  8
0
 10
146.408179
 20
241.673609
 42
0.039550
  0
VERTEX
  8
0
 10
147.284781
 20
241.414548
 42
0.016288
  0
VERTEX
  8
0
 10
148.505152
 20
241.197873
 42
0.015996
  0
VERTEX
  8
0
 10
149.835853
 20
241.049345
 42
0.019795
  0
SEQEND
  0
POLYLINE
  8
0
 66
1
 70
1
  0
VERTEX
  8
0
 10
154.266784
 20
234.866784
 42
-0.138439
  0
VERTEX
  8
0
 10
152.858055
 20
234.078300
 42
-0.045542
  0
VERTEX
  8
0
 10
150.485479
 20
233.733979
 42
-0.044099
  0
VERTEX
  8
0
 10
148.219131
 20
233.813434
 42
-0.284398
  0
VERTEX
  8
0
 10
147.365498
 20
234.500000
 42
-0.359436
  0
VERTEX
  8
0
 10
147.510258
 20
234.895552
 42
-0.057686
  0
VERTEX
  8
0
 10
148.320704
 20
235.252247
 42
-0.041932
  0
VERTEX
  8
0
 10
149.565655
 20
235.524830
 42
-0.023395
  0
VERTEX
  8
0
 10
151.112870
 20
235.656586
 42
-0.015705
  0
VERTEX
  8
0
 10
152.803625
 20
235.668022
 42
-0.055239
  0
VERTEX
  8
0
 10
153.880028
 20
235.521809
 42
-0.179053
  0
VERTEX
  8
0
 10
154.298000
 20
235.236029
 42
-0.365629
  0
SEQEND
  0
POLYLINE
  8
0
 66
1
 70
1
  0
VERTEX
  8
0
 10
130.000000
 20
231.059017
 42
-0.092186
  0
VERTEX
  8
0
 10
129.749399
 20
229.711351
 42
-0.101213
  0
VERTEX
  8
0
 10
129.033712
 20
228.593406
 42
-0.146400
  0
VERTEX
  8
0
 10
128.136629
 20
228.092931
 42
-0.256287
  0
VERTEX
  8
0
 10
127.342163
 20
228.324504
 42
-0.242246
  0
VERTEX
  8
0
 10
127.050363
 20
229.235247
 42
-0.047090
  0
VERTEX
  8
0
 10
127.507174
 20
230.956724
 42
-0.047127
  0
VERTEX
  8
0
 10
128.272628
 20
232.550772
 42
-0.263061
  0
VERTEX
  8
0
 10
129.067388
 20
233.000000
 42
-0.197346
  0
VERTEX
  8
0
 10
129.423669
 20
232.853680
 42
-0.086090
  0
VERTEX
  8
0
 10
129.726045
 20
232.429836
 42
-0.066023
  0
VERTEX
  8
0
 10
129.931381
 20
231.801940
 42
-0.046084
  0
SEQEND
  0
POLYLINE
  8
0
 66
1
 70
1
  0
VERTEX
  8
0
 10
156.139216
 20
230.966731
 42
-0.036253
  0
VERTEX
  8
0
 10
154.413849
 20
229.729452
 42
-0.080535
  0
VERTEX
  8
0
 10
152.921427
 20
229.117865
 42
-0.115319
  0
VERTEX
  8
0
 10
151.667465
 20
229.119652
 42
-0.139481
  0
VERTEX
  8
0
 10
150.643054
 20
229.690279
 42
-0.468721
  0
VERTEX
  8
0
 10
150.708128
 20
230.401616
 42
-0.034311
  0
VERTEX
  8
0
 10
152.635165
 20
231.541987
 42
-0.035906
  0
VERTEX
  8
0
 10
155.010778
 20
232.529545
 42
-0.072687
  0
VERTEX
  8
0
 10
157.000000
 20
232.885512
 42
-0.153791
  0
VERTEX
  8
0
 10
157.461558
 20
232.756163
 42
-0.369019
  0
VERTEX
  8
0
 10
157.554310
 20
232.439970
 42
-0.097376
  0
VERTEX
  8
0
 10
157.147148
 20
231.864591
 42
-0.016559
  0
SEQEND
  0
POLYLINE
  8
0
 66
1
 70
1
  0
VERTEX
  8
0
 10
162.298150
 20
230.368517
 42
-0.266149
  0
VERTEX
  8
0
 10
162.551984
 20
229.433772
 42
-0.069043
  0
VERTEX
  8
0
 10
161.931685
 20
227.937280
 42
-0.063058
  0
VERTEX
  8
0
 10
160.812738
 20
226.485850
 42
-0.105812
  0
VERTEX
  8
0
 10
159.527780
 20
225.649034
 42
-0.056405
  0
VERTEX
  8
0
 10
158.829329
 20
225.467922
 42
-0.036096
  0
VERTEX
  8
0
 10
157.992225
 20
225.410183
 42
-0.036024
  0
VERTEX
  8
0
 10
157.152518
 20
225.473543
 42
-0.054824
  0
VERTEX
  8
0
 10
156.445753
 20
225.659190
 42
-0.086526
  0
VERTEX
  8
0
 10
155.742190
 20
226.079999
 42
-0.277432
  0
VERTEX
  8
0
 10
155.578314
 20
226.578021
 42
-0.119323
  0
VERTEX
  8
0
 10
155.931987
 20
227.290285
 42
-0.013947
  0
VERTEX
  8
0
 10
157.120067
 20
228.627805
 42
-0.036260
  0
VERTEX
  8
0
 10
158.696679
 20
230.079349
 42
-0.087052
  0
VERTEX
  8
0
 10
160.087053
 20
230.835246
 42
-0.131245
  0
VERTEX
  8
0
 10
161.284592
 20
230.911154
 42
-0.147992
  0
SEQEND
  0
POLYLINE
  8
0
 66
1
 70
1
  0
VERTEX
  8
0
 10
166.370340
 20
225.222476
 42
-0.091088
  0
VERTEX
  8
0
 10
165.204180
 20
223.954700
 42
-0.098719
  0
VERTEX
  8
0
 10
163.694429
 20
223.227920
 42
-0.165969
  0
VERTEX
  8
0
 10
162.512865
 20
223.319190
 42
-0.299710
  0
VERTEX
  8
0
 10
162.000000
 20
224.097935
 42
-0.093044
  0
VERTEX
  8
0
 10
162.113522
 20
224.702695
 42
-0.031267
  0
VERTEX
  8
0
 10
162.492434
 20
225.521056
 42
-0.029852
  0
VERTEX
  8
0
 10
163.034814
 20
226.394248
 42
-0.030023
  0
VERTEX
  8
0
 10
163.676371
 20
227.194888
 42
-0.109408
  0
VERTEX
  8
0
 10
165.162842
 20
228.250007
 42
-0.263699
  0
VERTEX
  8
0
 10
166.456967
 20
228.098784
 42
-0.270171
  0
VERTEX
  8
0
 10
166.970110
 20
226.921588
 42
-0.111793
  0
SEQEND
  0
POLYLINE
  8
0
 66
1
 70
1
  0
VERTEX
  8
0
 10
172.000000
 20
224.893011
 42
-0.081932
  0
VERTEX
  8
0
 10
171.864200
 20
224.069834
 42
-0.128665
  0
VERTEX
  8
0
 10
171.471741
 20
223.474611
 42
-0.119191
  0
VERTEX
  8
0
 10
170.812532
 20
223.119014
 42
-0.064446
  0
VERTEX
  8
0
 10
169.893011
 20
223.000000
 42
-0.043546
  0
VERTEX
  8
0
 10
168.939105
 20
223.083235
 42
-0.160830
  0
VERTEX
  8
0
 10
168.413414
 20
223.365663
 42
-0.207384
  0
VERTEX
  8
0
 10
168.235583
 20
223.852992
 42
-0.076984
  0
VERTEX
  8
0
 10
168.393011
 20
224.581787
 42
0.016444
  0
VERTEX
  8
0
 10
168.625371
 20
225.252445
 42
0.014886
  0
VERTEX
  8
0
 10
168.821697
 20
225.959431
 42
0.015097
  0
VERTEX
  8
0
 10
168.959451
 20
226.602867
 42
0.045210
  0
VERTEX
  8
0
 10
169.000000
 20
227.050403
 42
-0.203517
  0
VERTEX
  8
0
 10
169.122849
 20
227.339716
 42
-0.141716
  0
VERTEX
  8
0
 10
169.440625
 20
227.507641
 42
-0.092309
  0
VERTEX
  8
0
 10
169.925389
 20
227.517572
 42
-0.050742
  0
VERTEX
  8
0
 10
170.500000
 20
227.361626
 42
-0.098143
  0
VERTEX
  8
0
 10
171.073537
 20
227.000393
 42
-0.066864
  0
VERTEX
  8
0
 10
171.559375
 20
226.399034
 42
-0.064008
  0
VERTEX
  8
0
 10
171.887915
 20
225.659707
 42
-0.072710
  0
SEQEND
  0
POLYLINE
  8
0
 66
1
 70
1
  0
VERTEX
  8
0
 10
177.000000
 20
225.000000
 42
-0.042713
  0
VERTEX
  8
0
 10
176.934472
 20
224.234328
 42
-0.062380
  0
VERTEX
  8
0
 10
176.737678
 20
223.587500
 42
-0.081888
  0
VERTEX
  8
0
 10
176.448422
 20
223.149216
 42
-0.208972
  0
VERTEX
  8
0
 10
176.106989
 20
223.000000
 42
-0.218907
  0
VERTEX
  8
0
 10
175.334562
 20
223.355200
 42
-0.081579
  0
VERTEX
  8
0
 10
174.699345
 20
224.400699
 42
-0.081237
  0
VERTEX
  8
0
 10
174.430132
 20
225.598661
 42
-0.214275
  0
VERTEX
  8
0
 10
174.735568
 20
226.402234
 42
-0.104297
  0
VERTEX
  8
0
 10
175.579208
 20
226.952019
 42
-0.235241
  0
VERTEX
  8
0
 10
176.319195
 20
226.883473
 42
-0.186855
  0
VERTEX
  8
0
 10
176.831780
 20
226.204840
 42
-0.069473
  0
SEQEND
  0
POLYLINE
  8
0
 66
1
 70
1
  0
VERTEX
  8
0
 10
182.349337
 20
225.532025
 42
-0.131650
  0
VERTEX
  8
0
 10
182.466123
 20
224.419746
 42
-0.176941
  0
VERTEX
  8
0
 10
181.977881
 20
223.541611
 42
-0.181482
  0
VERTEX
  8
0
 10
181.050338
 20
223.198774
 42
-0.138007
  0
VERTEX
  8
0
 10
180.000000
 20
223.500000
 42
-0.150192
  0
VERTEX
  8
0
 10
179.224916
 20
224.385388
 42
-0.133976
  0
VERTEX
  8
0
 10
179.036238
 20
225.596518
 42
-0.157732
  0
VERTEX
  8
0
 10
179.490288
 20
226.600542
 42
-0.211367
  0
VERTEX
  8
0
 10
180.393011
 20
227.000000
 42
-0.094485
  0
VERTEX
  8
0
 10
180.967642
 20
226.890434
 42
-0.066829
  0
VERTEX
  8
0
 10
181.542299
 20
226.568782
 42
-0.064693
  0
VERTEX
  8
0
 10
182.029868
 20
226.093207
 42
-0.075703
  0
SEQEND
  0
POLYLINE
  8
0
 66
1
 70
1
  0
VERTEX
  8
0
 10
187.000000
 20
224.440983
 42
-0.067639
  0
VERTEX
  8
0
 10
186.925146
 20
223.890182
 42
-0.084330
  0
VERTEX
  8
0
 10
186.706250
 20
223.423289
 42
-0.099650
  0
VERTEX
  8
0
 10
186.381340
 20
223.111069
 42
-0.142666
  0
VERTEX
  8
0
 10
186.000000
 20
223.000000
 42
-0.195654
  0
VERTEX
  8
0
 10
185.618015
 20
223.155423
 42
-0.086673
  0
VERTEX
  8
0
 10
185.293750
 20
223.604836
 42
-0.066561
  0
VERTEX
  8
0
 10
185.073608
 20
224.270941
 42
-0.046600
  0
VERTEX
  8
0
 10
185.000000
 20
225.059017
 42
-0.047867
  0
VERTEX
  8
0
 10
185.071541
 20
225.804599
 42
-0.104212
  0
VERTEX
  8
0
 10
185.293750
 20
226.331650
 42
-0.181468
  0
VERTEX
  8
0
 10
185.621877
 20
226.558599
 42
-0.202618
  0
VERTEX
  8
0
 10
186.000000
 20
226.500000
 42
-0.088250
  0
VERTEX
  8
0
 10
186.382836
 20
226.157656
 42
-0.053305
  0
VERTEX
  8
0
 10
186.706250
 20
225.640225
 42
-0.051278
  0
VERTEX
  8
0
 10
186.925833
 20
225.038022
 42
-0.061875
  0
SEQEND
  0
POLYLINE
  8
0
 66
1
 70
1
  0
VERTEX
  8
0
 10
192.811841
 20
223.738516
 42
-0.075723
  0
VERTEX
  8
0
 10
192.839653
 20
223.027500
 42
-0.127417
  0
VERTEX
  8
0
 10
192.627448
 20
222.473048
 42
-0.139693
  0
VERTEX
  8
0
 10
192.190749
 20
222.124071
 42
-0.099480
  0
VERTEX
  8
0
 10
191.573324
 20
222.000000
 42
-0.025113
  0
VERTEX
  8
0
 10
190.970411
 20
222.030302
 42
-0.039865
  0
VERTEX
  8
0
 10
190.462164
 20
222.122850
 42
-0.047639
  0
VERTEX
  8
0
 10
190.101391
 20
222.256595
 42
-0.287711
  0
VERTEX
  8
0
 10
190.000000
 20
222.418213
 42
0.066631
  0
VERTEX
  8
0
 10
189.966349
 20
222.669610
 42
0.008018
  0
VERTEX
  8
0
 10
189.810264
 20
223.208018
 42
0.009426
  0
VERTEX
  8
0
 10
189.601419
 20
223.844503
 42
0.007626
  0
VERTEX
  8
0
 10
189.354091
 20
224.519636
 42
-0.047372
  0
VERTEX
  8
0
 10
189.130367
 20
225.322592
 42
-0.236916
  0
VERTEX
  8
0
 10
189.259222
 20
225.757257
 42
-0.215456
  0
VERTEX
  8
0
 10
189.698791
 20
225.939450
 42
-0.039710
  0
VERTEX
  8
0
 10
190.592608
 20
225.839940
 42
-0.077967
  0
VERTEX
  8
0
 10
191.338034
 20
225.571321
 42
-0.064250
  0
VERTEX
  8
0
 10
192.021833
 20
225.072948
 42
-0.065627
  0
VERTEX
  8
0
 10
192.543217
 20
224.430292
 42
-0.090312
  0
SEQEND
  0
POLYLINE
  8
0
 66
1
 70
1
  0
VERTEX
  8
0
 10
197.823324
 20
223.332866
 42
-0.100818
  0
VERTEX
  8
0
 10
197.230213
 20
221.900237
 42
-0.210781
  0
VERTEX
  8
0
 10
196.229205
 20
221.270086
 42
-0.297834
  0
VERTEX
  8
0
 10
195.357221
 20
221.672718
 42
-0.140740
  0
VERTEX
  8
0
 10
195.000000
 20
222.916667
 42
-0.066422
  0
VERTEX
  8
0
 10
195.111401
 20
223.751548
 42
-0.095670
  0
VERTEX
  8
0
 10
195.438799
 20
224.418960
 42
-0.111791
  0
VERTEX
  8
0
 10
195.945354
 20
224.846770
 42
-0.120240
  0
VERTEX
  8
0
 10
196.573324
 20
225.000000
 42
-0.099154
  0
VERTEX
  8
0
 10
197.179808
 20
224.878535
 42
-0.133817
  0
VERTEX
  8
0
 10
197.619304
 20
224.536470
 42
-0.126354
  0
VERTEX
  8
0
 10
197.840365
 20
224.001710
 42
-0.083236
  0
SEQEND
  0
POLYLINE
  8
0
 66
1
 70
1
  0
VERTEX
  8
0
 10
202.000000
 20
222.166667
 42
-0.108877
  0
VERTEX
  8
0
 10
201.811284
 20
221.310297
 42
-0.127543
  0
VERTEX
  8
0
 10
201.284736
 20
220.669079
 42
-0.144342
  0
VERTEX
  8
0
 10
200.566741
 20
220.412785
 42
-0.153624
  0
VERTEX
  8
0
 10
199.844208
 20
220.596285
 42
-0.216101
  0
VERTEX
  8
0
 10
199.429398
 20
221.213724
 42
-0.159804
  0
VERTEX
  8
0
 10
199.554810
 20
222.037836
 42
-0.132181
  0
VERTEX
  8
0
 10
200.184533
 20
222.740389
 42
-0.145303
  0
VERTEX
  8
0
 10
201.059017
 20
223.000000
 42
-0.087308
  0
VERTEX
  8
0
 10
201.418314
 20
222.936779
 42
-0.094392
  0
VERTEX
  8
0
 10
201.723586
 20
222.755208
 42
-0.100145
  0
VERTEX
  8
0
 10
201.927786
 20
222.484563
 42
-0.112153
  0
SEQEND
  0
POLYLINE
  8
0
 66
1
 70
1
  0
VERTEX
  8
0
 10
206.000000
 20
220.000000
 42
-0.099038
  0
VERTEX
  8
0
 10
205.923658
 20
219.618362
 42
-0.097945
  0
VERTEX
  8
0
 10
205.706250
 20
219.293750
 42
-0.097945
  0
VERTEX
  8
0
 10
205.381638
 20
219.076342
 42
-0.099038
  0
VERTEX
  8
0
 10
205.000000
 20
219.000000
 42
-0.099038
  0
VERTEX
  8
0
 10
204.618362
 20
219.076342
 42
-0.097945
  0
VERTEX
  8
0
 10
204.293750
 20
219.293750
 42
-0.097945
  0
VERTEX
  8
0
 10
204.076342
 20
219.618362
 42
-0.099038
  0
VERTEX
  8
0
 10
204.000000
 20
220.000000
 42
-0.099038
  0
VERTEX
  8
0
 10
204.076342
 20
220.381638
 42
-0.097945
  0
VERTEX
  8
0
 10
204.293750
 20
220.706250
 42
-0.097945
  0
VERTEX
  8
0
 10
204.618362
 20
220.923658
 42
-0.099038
  0
VERTEX
  8
0
 10
205.000000
 20
221.000000
 42
-0.099038
  0
VERTEX
  8
0
 10
205.381638
 20
220.923658
 42
-0.097945
  0
VERTEX
  8
0
 10
205.706250
 20
220.706250
 42
-0.097945
  0
VERTEX
  8
0
 10
205.923658
 20
220.381638
 42
-0.099038
  0
SEQEND
  0
POLYLINE
  8
0
 66
1
 70
1
  0
VERTEX
  8
0
 10
209.500000
 20
218.000000
 42
-0.082592
  0
VERTEX
  8
0
 10
209.656512
 20
217.617900
 42
-0.161196
  0
VERTEX
  8
0
 10
209.625400
 20
217.293750
 42
-0.182303
  0
VERTEX
  8
0
 10
209.413961
 20
217.078288
 42
-0.108972
  0
VERTEX
  8
0
 10
209.059017
 20
217.000000
 42
-0.093332
  0
VERTEX
  8
0
 10
208.654762
 20
217.076123
 42
-0.096420
  0
VERTEX
  8
0
 10
208.311086
 20
217.293750
 42
-0.099167
  0
VERTEX
  8
0
 10
208.081062
 20
217.618444
 42
-0.105053
  0
VERTEX
  8
0
 10
208.000000
 20
218.000000
 42
-0.042167
  0
VERTEX
  8
0
 10
208.032345
 20
218.382849
 42
-0.061769
  0
VERTEX
  8
0
 10
208.129539
 20
218.706250
 42
-0.081139
  0
VERTEX
  8
0
 10
208.272352
 20
218.925540
 42
-0.210953
  0
VERTEX
  8
0
 10
208.440983
 20
219.000000
 42
-0.151918
  0
VERTEX
  8
0
 10
208.651710
 20
218.934461
 42
-0.038439
  0
VERTEX
  8
0
 10
208.933975
 20
218.706250
 42
-0.035638
  0
VERTEX
  8
0
 10
209.231006
 20
218.382774
 42
-0.029505
  0
SEQEND
  0
POLYLINE
  8
0
 66
1
 70
1
  0
VERTEX
  8
0
 10
141.505548
 20
215.993869
 42
-0.061166
  0
VERTEX
  8
0
 10
142.590406
 20
214.452808
 42
-0.254650
  0
VERTEX
  8
0
 10
142.582181
 20
213.355621
 42
-0.340226
  0
VERTEX
  8
0
 10
141.732028
 20
212.987413
 42
-0.078869
  0
VERTEX
  8
0
 10
140.202036
 20
213.642553
 42
-0.093742
  0
VERTEX
  8
0
 10
139.019033
 20
214.742264
 42
-0.079608
  0
VERTEX
  8
0
 10
138.236259
 20
216.260433
 42
-0.126873
  0
VERTEX
  8
0
 10
138.156464
 20
217.490590
 42
-0.360269
  0
VERTEX
  8
0
 10
138.771688
 20
218.000000
 42
-0.131052
  0
VERTEX
  8
0
 10
139.240514
 20
217.874972
 42
-0.027962
  0
VERTEX
  8
0
 10
139.953574
 20
217.410699
 42
-0.027436
  0
VERTEX
  8
0
 10
140.743101
 20
216.761834
 42
-0.023119
  0
SEQEND
  0
POLYLINE
  8
0
 66
1
 70
1
  0
VERTEX
  8
0
 10
213.000000
 20
215.000000
 42
-0.042167
  0
VERTEX
  8
0
 10
212.967655
 20
214.617151
 42
-0.061769
  0
VERTEX
  8
0
 10
212.870461
 20
214.293750
 42
-0.081139
  0
VERTEX
  8
0
 10
212.727648
 20
214.074460
 42
-0.210953
  0
VERTEX
  8
0
 10
212.559017
 20
214.000000
 42
-0.151918
  0
VERTEX
  8
0
 10
212.348290
 20
214.065539
 42
-0.038439
  0
VERTEX
  8
0
 10
212.066025
 20
214.293750
 42
-0.035638
  0
VERTEX
  8
0
 10
211.768994
 20
214.617226
 42
-0.029505
  0
VERTEX
  8
0
 10
211.500000
 20
215.000000
 42
-0.082592
  0
VERTEX
  8
0
 10
211.343488
 20
215.382100
 42
-0.161196
  0
VERTEX
  8
0
 10
211.374600
 20
215.706250
 42
-0.182303
  0
VERTEX
  8
0
 10
211.586039
 20
215.921712
 42
-0.108972
  0
VERTEX
  8
0
 10
211.940983
 20
216.000000
 42
-0.093332
  0
VERTEX
  8
0
 10
212.345238
 20
215.923877
 42
-0.096420
  0
VERTEX
  8
0
 10
212.688914
 20
215.706250
 42
-0.099167
  0
VERTEX
  8
0
 10
212.918938
 20
215.381556
 42
-0.105053
  0
SEQEND
  0
POLYLINE
  8
0
 66
1
 70
1
  0
VERTEX
  8
0
 10
216.000000
 20
212.000000
 42
-0.105053
  0
VERTEX
  8
0
 10
215.918938
 20
211.618444
 42
-0.099167
  0
VERTEX
  8
0
 10
215.688914
 20
211.293750
 42
-0.096420
  0
VERTEX
  8
0
 10
215.345238
 20
211.076123
 42
-0.093332
  0
VERTEX
  8
0
 10
214.940983
 20
211.000000
 42
-0.108972
  0
VERTEX
  8
0
 10
214.586039
 20
211.078288
 42
-0.182303
  0
VERTEX
  8
0
 10
214.374600
 20
211.293750
 42
-0.161196
  0
VERTEX
  8
0
 10
214.343488
 20
211.617900
 42
-0.082592
  0
VERTEX
  8
0
 10
214.500000
 20
212.000000
 42
-0.029505
  0
VERTEX
  8
0
 10
214.768994
 20
212.382774
 42
-0.035638
  0
VERTEX
  8
0
 10
215.066025
 20
212.706250
 42
-0.038439
  0
VERTEX
  8
0
 10
215.348290
 20
212.934461
 42
-0.151918
  0
VERTEX
  8
0
 10
215.559017
 20
213.000000
 42
-0.210953
  0
VERTEX
  8
0
 10
215.727648
 20
212.925540
 42
-0.081139
  0
VERTEX
  8
0
 10
215.870461
 20
212.706250
 42
-0.061769
  0
VERTEX
  8
0
 10
215.967655
 20
212.382849
 42
-0.042167
  0
SEQEND
  0
POLYLINE
  8
0
 66
1
 70
1
  0
VERTEX
  8
0
 10
182.447214
 20
208.914590
 42
-0.099038
  0
VERTEX
  8
0
 10
182.151486
 20
208.597789
 42
-0.097945
  0
VERTEX
  8
0
 10
181.755524
 20
208.417584
 42
-0.097945
  0
VERTEX
  8
0
 10
181.320774
 20
208.401684
 42
-0.099038
  0
VERTEX
  8
0
 10
180.914590
 20
208.552786
 42
-0.099038
  0
VERTEX
  8
0
 10
180.597789
 20
208.848514
 42
-0.097945
  0
VERTEX
  8
0
 10
180.417584
 20
209.244476
 42
-0.097945
  0
VERTEX
  8
0
 10
180.401684
 20
209.679226
 42
-0.099038
  0
VERTEX
  8
0
 10
180.552786
 20
210.085410
 42
-0.099038
  0
VERTEX
  8
0
 10
180.848514
 20
210.402211
 42
-0.097945
  0
VERTEX
  8
0
 10
181.244476
 20
210.582416
 42
-0.097945
  0
VERTEX
  8
0
 10
181.679226
 20
210.598316
 42
-0.099038
  0
VERTEX
  8
0
 10
182.085410
 20
210.447214
 42
-0.099038
  0
VERTEX
  8
0
 10
182.402211
 20
210.151486
 42
-0.097945
  0
VERTEX
  8
0
 10
182.582416
 20
209.755524
 42
-0.097945
  0
VERTEX
  8
0
 10
182.598316
 20
209.320774
 42
-0.099038
  0
SEQEND
  0
POLYLINE
  8
0
 66
1
 70
1
  0
VERTEX
  8
0
 10
165.770833
 20
208.187500
 42
-0.134046
  0
VERTEX
  8
0
 10
165.795817
 20
207.735738
 42
-0.144529
  0
VERTEX
  8
0
 10
165.585286
 20
207.348828
 42
-0.119977
  0
VERTEX
  8
0
 10
165.158616
 20
207.089234
 42
-0.077096
  0
VERTEX
  8
0
 10
164.583333
 20
207.000000
 42
-0.099038
  0
VERTEX
  8
0
 10
163.979073
 20
207.120875
 42
-0.097945
  0
VERTEX
  8
0
 10
163.465104
 20
207.465104
 42
-0.097945
  0
VERTEX
  8
0
 10
163.120875
 20
207.979073
 42
-0.099038
  0
VERTEX
  8
0
 10
163.000000
 20
208.583333
 42
-0.190724
  0
VERTEX
  8
0
 10
163.346973
 20
209.459866
 42
-0.244413
  0
VERTEX
  8
0
 10
164.153639
 20
209.742973
 42
-0.165501
  0
VERTEX
  8
0
 10
165.122932
 20
209.250696
 42
-0.113253
  0
SEQEND
  0
POLYLINE
  8
0
 66
1
 70
1
  0
VERTEX
  8
0
 10
203.045837
 20
202.914354
 42
-0.038415
  0
VERTEX
  8
0
 10
203.807209
 20
201.184421
 42
-0.320569
  0
VERTEX
  8
0
 10
203.581876
 20
200.408477
 42
-0.269911
  0
VERTEX
  8
0
 10
202.705418
 20
200.284540
 42
-0.031322
  0
VERTEX
  8
0
 10
200.847379
 20
201.180712
 42
0.000399
  0
VERTEX
  8
0
 10
199.922722
 20
201.699423
 42
0.000541
  0
VERTEX
  8
0
 10
199.086690
 20
202.166353
 42
0.000359
  0
VERTEX
  8
0
 10
198.383986
 20
202.557161
 42
0.006044
  0
VERTEX
  8
0
 10
198.149864
 20
202.683469
 42
-0.276507
  0
VERTEX
  8
0
 10
198.061295
 20
202.828383
 42
-0.062939
  0
VERTEX
  8
0
 10
198.096207
 20
203.126337
 42
-0.047992
  0
VERTEX
  8
0
 10
198.231697
 20
203.511487
 42
-0.029859
  0
VERTEX
  8
0
 10
198.458881
 20
203.933469
 42
-0.151057
  0
VERTEX
  8
0
 10
199.438799
 20
204.788381
 42
-0.160393
  0
VERTEX
  8
0
 10
200.704996
 20
204.914722
 42
-0.129669
  0
VERTEX
  8
0
 10
202.006444
 20
204.242911
 42
-0.086458
  0
SEQEND
  0
POLYLINE
  8
0
 66
1
 70
1
  0
VERTEX
  8
0
 10
133.879110
 20
197.002202
 42
-0.602369
  0
VERTEX
  8
0
 10
133.880553
 20
196.196870
 42
-0.026992
  0
VERTEX
  8
0
 10
130.683241
 20
194.713851
 42
-0.027006
  0
VERTEX
  8
0
 10
126.809999
 20
193.403041
 42
-0.068188
  0
VERTEX
  8
0
 10
123.868371
 20
193.000000
 42
-0.046657
  0
VERTEX
  8
0
 10
122.881725
 20
193.092268
 42
-0.349976
  0
VERTEX
  8
0
 10
122.595880
 20
193.424157
 42
-0.132971
  0
VERTEX
  8
0
 10
122.745983
 20
194.074895
 42
-0.007483
  0
VERTEX
  8
0
 10
123.758919
 20
195.902660
 42
-0.033297
  0
VERTEX
  8
0
 10
124.811202
 20
197.482489
 42
-0.123159
  0
VERTEX
  8
0
 10
125.741966
 20
198.222242
 42
-0.116564
  0
VERTEX
  8
0
 10
126.940681
 20
198.458233
 42
-0.028346
  0
VERTEX
  8
0
 10
128.962409
 20
198.266868
 42
-0.012687
  0
VERTEX
  8
0
 10
130.417919
 20
198.007388
 42
-0.012493
  0
VERTEX
  8
0
 10
131.865946
 20
197.673261
 42
-0.012455
  0
VERTEX
  8
0
 10
133.118873
 20
197.317489
 42
-0.045809
  0
SEQEND
  0
POLYLINE
  8
0
 66
1
 70
1
  0
VERTEX
  8
0
 10
161.500000
 20
192.936827
 42
-0.013790
  0
VERTEX
  8
0
 10
162.553452
 20
192.475940
 42
-0.542317
  0
VERTEX
  8
0
 10
162.582511
 20
192.265089
 42
-0.170511
  0
VERTEX
  8
0
 10
162.213716
 20
192.119442
 42
-0.004899
  0
VERTEX
  8
0
 10
160.500000
 20
192.070495
 42
-0.016381
  0
VERTEX
  8
0
 10
158.894892
 20
192.092973
 42
-0.004295
  0
VERTEX
  8
0
 10
156.325000
 20
192.235370
 42
-0.004358
  0
VERTEX
  8
0
 10
153.400000
 20
192.448272
 42
-0.004452
  0
VERTEX
  8
0
 10
150.500000
 20
192.710797
 42
-0.003581
  0
VERTEX
  8
0
 10
146.693543
 20
193.117134
 42
-0.056036
  0
VERTEX
  8
0
 10
145.419602
 20
193.409330
 42
-0.668276
  0
VERTEX
  8
0
 10
145.402102
 20
193.726337
 42
-0.054139
  0
VERTEX
  8
0
 10
146.500000
 20
194.114136
 42
-0.057798
  0
VERTEX
  8
0
 10
149.564101
 20
194.470867
 42
-0.019693
  0
VERTEX
  8
0
 10
154.047063
 20
194.296183
 42
-0.019725
  0
VERTEX
  8
0
 10
158.506852
 20
193.768506
 42
-0.056966
  0
SEQEND
  0
POLYLINE
  8
0
 66
1
 70
1
  0
VERTEX
  8
0
 10
178.500000
 20
194.000000
 42
-0.210115
  0
VERTEX
  8
0
 10
178.553029
 20
193.621971
 42
-0.178861
  0
VERTEX
  8
0
 10
178.314314
 20
193.293750
 42
-0.100989
  0
VERTEX
  8
0
 10
177.768372
 20
193.071437
 42
-0.046386
  0
VERTEX
  8
0
 10
177.000000
 20
193.000000
 42
-0.046386
  0
VERTEX
  8
0
 10
176.231628
 20
193.071437
 42
-0.100989
  0
VERTEX
  8
0
 10
175.685686
 20
193.293750
 42
-0.178861
  0
VERTEX
  8
0
 10
175.446971
 20
193.621971
 42
-0.210115
  0
VERTEX
  8
0
 10
175.500000
 20
194.000000
 42
-0.057296
  0
VERTEX
  8
0
 10
175.801830
 20
194.382513
 42
-0.050113
  0
VERTEX
  8
0
 10
176.195564
 20
194.706250
 42
-0.052849
  0
VERTEX
  8
0
 10
176.617099
 20
194.926995
 42
-0.094481
  0
VERTEX
  8
0
 10
177.000000
 20
195.000000
 42
-0.094481
  0
VERTEX
  8
0
 10
177.382901
 20
194.926995
 42
-0.052849
  0
VERTEX
  8
0
 10
177.804436
 20
194.706250
 42
-0.050113
  0
VERTEX
  8
0
 10
178.198170
 20
194.382513
 42
-0.057296
  0
SEQEND
  0
POLYLINE
  8
0
 66
1
 70
1
  0
VERTEX
  8
0
 10
199.811841
 20
193.261484
 42
-0.087595
  0
VERTEX
  8
0
 10
199.547851
 20
192.570626
 42
-0.065452
  0
VERTEX
  8
0
 10
199.040319
 20
191.930612
 42
-0.064652
  0
VERTEX
  8
0
 10
198.376907
 20
191.436163
 42
-0.080452
  0
VERTEX
  8
0
 10
197.655539
 20
191.172179
 42
-0.032685
  0
VERTEX
  8
0
 10
196.687670
 20
191.050653
 42
-0.321962
  0
VERTEX
  8
0
 10
196.359778
 20
191.257782
 42
-0.205950
  0
VERTEX
  8
0
 10
196.370180
 20
191.735076
 42
-0.015848
  0
VERTEX
  8
0
 10
196.952206
 20
192.910696
 42
-0.060820
  0
VERTEX
  8
0
 10
197.987158
 20
194.382418
 42
-0.180513
  0
VERTEX
  8
0
 10
199.064430
 20
194.942216
 42
-0.361298
  0
VERTEX
  8
0
 10
199.739586
 20
194.508175
 42
-0.124713
  0
SEQEND
  0
POLYLINE
  8
0
 66
1
 70
1
  0
VERTEX
  8
0
 10
119.441130
 20
186.531803
 42
-0.044069
  0
VERTEX
  8
0
 10
117.696677
 20
185.439385
 42
-0.116583
  0
VERTEX
  8
0
 10
116.275212
 20
185.092614
 42
-0.219305
  0
VERTEX
  8
0
 10
115.373023
 20
185.500511
 42
-0.180525
  0
VERTEX
  8
0
 10
115.000000
 20
186.500000
 42
-0.156723
  0
VERTEX
  8
0
 10
115.211299
 20
187.157559
 42
-0.128084
  0
VERTEX
  8
0
 10
115.781855
 20
187.632487
 42
-0.079976
  0
VERTEX
  8
0
 10
116.761590
 20
187.913994
 42
-0.030054
  0
VERTEX
  8
0
 10
118.191130
 20
188.000000
 42
-0.005481
  0
VERTEX
  8
0
 10
120.237048
 20
187.977570
 42
-0.214077
  0
VERTEX
  8
0
 10
120.637869
 20
187.787051
 42
-0.416492
  0
VERTEX
  8
0
 10
120.610603
 20
187.463173
 42
-0.012492
  0
SEQEND
  0
POLYLINE
  8
0
 66
1
 70
1
  0
VERTEX
  8
0
 10
140.509372
 20
187.015164
 42
-0.124696
  0
VERTEX
  8
0
 10
138.303277
 20
184.879785
 42
-0.013057
  0
VERTEX
  8
0
 10
131.922240
 20
181.436038
 42
-0.017185
  0
VERTEX
  8
0
 10
125.151827
 20
178.294769
 42
-0.043654
  0
VERTEX
  8
0
 10
120.000000
 20
176.628627
 42
0.003642
  0
VERTEX
  8
0
 10
117.383102
 20
176.008103
 42
0.004189
  0
VERTEX
  8
0
 10
114.895313
 20
175.376881
 42
0.003773
  0
VERTEX
  8
0
 10
112.795989
 20
174.808494
 42
0.024125
  0
VERTEX
  8
0
 10
111.750000
 20
174.461637
 42
-0.056595
  0
VERTEX
  8
0
 10
110.901596
 20
174.240147
 42
-0.208149
  0
VERTEX
  8
0
 10
110.378720
 20
174.383812
 42
-0.182454
  0
VERTEX
  8
0
 10
110.084347
 20
174.884756
 42
-0.042611
  0
VERTEX
  8
0
 10
110.000000
 20
175.872687
 42
-0.116003
  0
VERTEX
  8
0
 10
110.247234
 20
176.923988
 42
-0.076462
  0
VERTEX
  8
0
 10
110.966512
 20
177.943161
 42
-0.056393
  0
VERTEX
  8
0
 10
112.187933
 20
178.953156
 42
-0.026636
  0
VERTEX
  8
0
 10
113.960162
 20
179.979676
 42
-0.005450
  0
VERTEX
  8
0
 10
117.114107
 20
181.545614
 42
-0.086985
  0
VERTEX
  8
0
 10
118.257639
 20
181.870004
 42
-0.336056
  0
VERTEX
  8
0
 10
118.801714
 20
181.539773
 42
-0.094499
  0
VERTEX
  8
0
 10
119.000000
 20
180.500000
 42
0.125921
  0
VERTEX
  8
0
 10
119.258840
 20
179.488504
 42
0.340187
  0
VERTEX
  8
0
 10
119.895814
 20
179.208668
 42
0.064692
  0
VERTEX
  8
0
 10
121.304160
 20
179.756659
 42
0.003381
  0
VERTEX
  8
0
 10
125.552467
 20
182.116520
 42
-0.022490
  0
VERTEX
  8
0
 10
130.937502
 20
184.844033
 42
-0.026845
  0
VERTEX
  8
0
 10
136.241548
 20
186.902399
 42
-0.038840
  0
VERTEX
  8
0
 10
139.976758
 20
187.811977
 42
-0.642944
  0
SEQEND
  0
POLYLINE
  8
0
 66
1
 70
1
  0
VERTEX
  8
0
 10
145.035184
 20
181.065741
 42
0.036586
  0
VERTEX
  8
0
 10
144.638496
 20
180.173273
 42
0.023297
  0
VERTEX
  8
0
 10
144.304085
 20
179.086562
 42
0.023382
  0
VERTEX
  8
0
 10
144.074585
 20
177.983835
 42
0.039630
  0
VERTEX
  8
0
 10
144.000000
 20
177.044303
 42
-0.179534
  0
VERTEX
  8
0
 10
143.426852
 20
175.499543
 42
-0.066030
  0
VERTEX
  8
0
 10
141.663352
 20
173.926550
 42
-0.070231
  0
VERTEX
  8
0
 10
139.674909
 20
172.950622
 42
-0.282534
  0
VERTEX
  8
0
 10
138.414754
 20
173.251913
 42
-0.336135
  0
VERTEX
  8
0
 10
138.206275
 20
174.765708
 42
-0.024267
  0
VERTEX
  8
0
 10
140.596633
 20
178.576634
 42
-0.026023
  0
VERTEX
  8
0
 10
143.387090
 20
182.166415
 42
-0.217850
  0
VERTEX
  8
0
 10
145.209498
 20
183.000000
 42
-0.302104
  0
VERTEX
  8
0
 10
145.450173
 20
182.839977
 42
-0.122388
  0
VERTEX
  8
0
 10
145.513402
 20
182.431812
 42
-0.067289
  0
VERTEX
  8
0
 10
145.371105
 20
181.807948
 42
-0.033204
  0
SEQEND
  0
POLYLINE
  8
0
 66
1
 70
1
  0
VERTEX
  8
0
 10
136.640030
 20
178.750000
 42
0.020970
  0
VERTEX
  8
0
 10
136.367194
 20
178.018070
 42
0.003689
  0
VERTEX
  8
0
 10
135.922815
 20
176.618750
 42
0.003993
  0
VERTEX
  8
0
 10
135.426615
 20
174.968782
 42
0.003580
  0
VERTEX
  8
0
 10
134.937981
 20
173.250000
 42
-0.018784
  0
VERTEX
  8
0
 10
134.171261
 20
170.834745
 42
-0.107923
  0
VERTEX
  8
0
 10
133.462456
 20
169.704096
 42
-0.151314
  0
VERTEX
  8
0
 10
132.465685
 20
169.165407
 42
-0.048819
  0
VERTEX
  8
0
 10
130.775641
 20
169.000000
 42
0.062504
  0
VERTEX
  8
0
 10
129.383631
 20
168.825304
 42
0.036916
  0
VERTEX
  8
0
 10
127.793199
 20
168.292081
 42
0.035429
  0
VERTEX
  8
0
 10
126.206190
 20
167.489686
 42
0.040161
  0
VERTEX
  8
0
 10
124.817631
 20
166.500000
 42
-0.027443
  0
VERTEX
  8
0
 10
122.514124
 20
164.768289
 42
-0.111724
  0
VERTEX
  8
0
 10
120.888695
 20
164.143006
 42
-0.138504
  0
VERTEX
  8
0
 10
119.346305
 20
164.345508
 42
-0.051348
  0
VERTEX
  8
0
 10
117.415789
 20
165.421323
 42
0.036578
  0
VERTEX
  8
0
 10
116.395887
 20
166.029760
 42
0.016196
  0
VERTEX
  8
0
 10
114.971323
 20
166.687194
 42
0.015930
  0
VERTEX
  8
0
 10
113.410521
 20
167.289212
 42
0.020683
  0
VERTEX
  8
0
 10
111.943750
 20
167.734770
 42
0.000000
  0
VERTEX
  8
0
 10
108.500934
 20
168.626893
 42
0.000000
  0
VERTEX
  8
0
 10
111.284138
 20
170.450519
 42
-0.043443
  0
VERTEX
  8
0
 10
112.825197
 20
171.278865
 42
-0.012110
  0
VERTEX
  8
0
 10
115.369573
 20
172.301500
 42
-0.012124
  0
VERTEX
  8
0
 10
118.316784
 20
173.323174
 42
-0.012458
  0
VERTEX
  8
0
 10
121.283671
 20
174.190894
 42
0.010715
  0
VERTEX
  8
0
 10
124.303168
 20
175.062588
 42
0.009489
  0
VERTEX
  8
0
 10
127.408328
 20
176.096618
 42
0.009573
  0
VERTEX
  8
0
 10
130.169231
 20
177.134493
 42
0.028514
  0
VERTEX
  8
0
 10
132.000000
 20
177.986858
 42
-0.009972
  0
VERTEX
  8
0
 10
134.747295
 20
179.392083
 42
-0.072589
  0
VERTEX
  8
0
 10
136.154802
 20
179.839741
 42
-0.363051
  0
VERTEX
  8
0
 10
136.662915
 20
179.539637
 42
-0.187019
  0
SEQEND
  0
POLYLINE
  8
0
 66
1
 70
1
  0
VERTEX
  8
0
 10
112.000000
 20
135.000000
 42
0.000000
  0
VERTEX
  8
0
 10
112.000000
 20
121.000000
 42
0.000000
  0
VERTEX
  8
0
 10
114.500000
 20
121.000000
 42
0.072255
  0
VERTEX
  8
0
 10
115.935285
 20
121.208502
 42
0.224660
  0
VERTEX
  8
0
 10
116.644799
 20
121.844098
 42
0.092363
  0
VERTEX
  8
0
 10
116.944387
 20
123.221887
 42
0.007476
  0
VERTEX
  8
0
 10
117.000000
 20
126.940983
 42
-0.021980
  0
VERTEX
  8
0
 10
117.175705
 20
130.935985
 42
-0.111445
  0
VERTEX
  8
0
 10
117.851147
 20
133.045449
 42
-0.294661
  0
VERTEX
  8
0
 10
118.992783
 20
133.619397
 42
-0.147419
  0
VERTEX
  8
0
 10
120.543805
 20
132.963645
 42
-0.120961
  0
VERTEX
  8
0
 10
121.172866
 20
132.114005
 42
-0.044771
  0
VERTEX
  8
0
 10
121.626118
 20
130.684703
 42
-0.035448
  0
VERTEX
  8
0
 10
121.909235
 20
128.769114
 42
-0.018969
  0
VERTEX
  8
0
 10
122.000000
 20
126.377555
 42
0.008987
  0
VERTEX
  8
0
 10
122.059536
 20
123.065538
 42
0.100139
  0
VERTEX
  8
0
 10
122.366224
 20
121.787756
 42
0.220761
  0
VERTEX
  8
0
 10
123.072792
 20
121.191324
 42
0.066729
  0
VERTEX
  8
0
 10
124.500000
 20
121.000000
 42
0.061791
  0
VERTEX
  8
0
 10
125.916391
 20
121.175711
 42
0.215253
  0
VERTEX
  8
0
 10
126.621155
 20
121.735078
 42
0.108443
  0
VERTEX
  8
0
 10
126.935784
 20
122.918585
 42
0.010949
  0
VERTEX
  8
0
 10
127.000000
 20
125.850777
 42
0.047606
  0
VERTEX
  8
0
 10
126.434596
 20
131.775674
 42
0.109005
  0
VERTEX
  8
0
 10
124.666575
 20
135.872267
 42
0.169547
  0
VERTEX
  8
0
 10
121.915457
 20
137.796347
 42
0.161589
  0
VERTEX
  8
0
 10
118.502236
 20
137.639232
 42
-0.227960
  0
VERTEX
  8
0
 10
117.767281
 20
137.699525
 42
-0.194648
  0
VERTEX
  8
0
 10
117.288777
 20
138.320938
 42
-0.059561
  0
VERTEX
  8
0
 10
117.053716
 20
139.848057
 42
-0.008436
  0
VERTEX
  8
0
 10
117.000000
 20
143.031385
 42
0.007414
  0
VERTEX
  8
0
 10
116.944557
 20
146.770462
 42
0.092009
  0
VERTEX
  8
0
 10
116.645286
 20
148.153138
 42
0.224807
  0
VERTEX
  8
0
 10
115.935610
 20
148.790645
 42
0.072531
  0
VERTEX
  8
0
 10
114.500000
 20
149.000000
 42
0.000000
  0
VERTEX
  8
0
 10
112.000000
 20
149.000000
 42
0.000000
  0
SEQEND
  0
POLYLINE
  8
0
 66
1
 70
1
  0
VERTEX
  8
0
 10
70.000000
 20
134.000000
 42
0.000000
  0
VERTEX
  8
0
 10
70.000000
 20
121.000000
 42
0.000000
  0
VERTEX
  8
0
 10
76.000000
 20
121.000000
 42
0.008455
  0
VERTEX
  8
0
 10
79.471613
 20
121.058710
 42
0.072107
  0
VERTEX
  8
0
 10
81.000000
 20
121.333333
 42
0.188641
  0
VERTEX
  8
0
 10
81.727332
 20
121.939334
 42
0.126480
  0
VERTEX
  8
0
 10
82.000000
 20
123.000000
 42
0.094959
  0
VERTEX
  8
0
 10
81.804216
 20
124.021586
 42
0.184152
  0
VERTEX
  8
0
 10
81.250000
 20
124.625000
 42
0.098846
  0
VERTEX
  8
0
 10
80.150836
 20
124.925179
 42
0.017388
  0
VERTEX
  8
0
 10
78.000000
 20
125.000000
 42
0.000000
  0
VERTEX
  8
0
 10
74.000000
 20
125.000000
 42
0.000000
  0
VERTEX
  8
0
 10
74.000000
 20
136.000000
 42
0.003368
  0
VERTEX
  8
0
 10
73.954193
 20
142.800382
 42
0.041619
  0
VERTEX
  8
0
 10
73.704545
 20
145.375000
 42
0.151374
  0
VERTEX
  8
0
 10
73.095955
 20
146.543078
 42
0.200111
  0
VERTEX
  8
0
 10
72.000000
 20
147.000000
 42
0.224251
  0
VERTEX
  8
0
 10
70.893213
 20
146.477318
 42
0.134742
  0
VERTEX
  8
0
 10
70.288462
 20
145.125000
 42
0.035495
  0
VERTEX
  8
0
 10
70.043630
 20
142.134523
 42
0.002682
  0
SEQEND
  0
POLYLINE
  8
0
 66
1
 70
1
  0
VERTEX
  8
0
 10
83.650079
 20
145.733399
 42
0.143931
  0
VERTEX
  8
0
 10
82.610214
 20
144.375488
 42
0.169666
  0
VERTEX
  8
0
 10
82.559477
 20
142.765061
 42
0.171814
  0
VERTEX
  8
0
 10
83.520358
 20
141.487728
 42
0.147441
  0
VERTEX
  8
0
 10
85.138374
 20
141.000000
 42
0.141269
  0
VERTEX
  8
0
 10
86.667013
 20
141.440695
 42
0.164969
  0
VERTEX
  8
0
 10
87.615681
 20
142.607991
 42
0.158217
  0
VERTEX
  8
0
 10
87.679967
 20
144.151943
 42
0.129003
  0
VERTEX
  8
0
 10
86.841249
 20
145.587322
 42
0.045037
  0
VERTEX
  8
0
 10
86.020829
 20
146.271906
 42
0.140827
  0
VERTEX
  8
0
 10
85.346515
 20
146.499534
 42
0.132276
  0
VERTEX
  8
0
 10
84.628145
 20
146.340942
 42
0.037784
  0
SEQEND
  0
POLYLINE
  8
0
 66
1
 70
1
  0
VERTEX
  8
0
 10
180.000000
 20
134.000000
 42
0.000000
  0
VERTEX
  8
0
 10
180.000000
 20
121.000000
 42
0.000000
  0
VERTEX
  8
0
 10
183.938727
 20
121.000000
 42
0.021478
  0
VERTEX
  8
0
 10
186.426427
 20
121.106913
 42
0.172083
  0
VERTEX
  8
0
 10
187.454498
 20
121.574343
 42
0.149626
  0
VERTEX
  8
0
 10
188.032320
 20
122.616644
 42
0.015075
  0
VERTEX
  8
0
 10
188.543817
 20
125.443626
 42
-0.019747
  0
VERTEX
  8
0
 10
189.016819
 20
127.925290
 42
-0.096206
  0
VERTEX
  8
0
 10
189.597157
 20
129.226047
 42
-0.133707
  0
VERTEX
  8
0
 10
190.522579
 20
129.995270
 42
-0.052910
  0
VERTEX
  8
0
 10
192.105090
 20
130.523082
 42
0.039894
  0
VERTEX
  8
0
 10
193.610286
 20
130.982023
 42
0.128672
  0
VERTEX
  8
0
 10
194.447767
 20
131.594743
 42
0.130243
  0
VERTEX
  8
0
 10
194.872110
 20
132.534359
 42
0.041315
  0
VERTEX
  8
0
 10
195.000000
 20
134.079455
 42
0.036625
  0
VERTEX
  8
0
 10
194.910559
 20
135.298841
 42
0.073708
  0
VERTEX
  8
0
 10
194.632081
 20
136.219977
 42
0.108077
  0
VERTEX
  8
0
 10
194.191335
 20
136.792524
 42
0.176661
  0
VERTEX
  8
0
 10
193.622445
 20
137.000000
 42
-0.083371
  0
VERTEX
  8
0
 10
193.008891
 20
137.103021
 42
-0.043926
  0
VERTEX
  8
0
 10
192.301519
 20
137.419347
 42
-0.042107
  0
VERTEX
  8
0
 10
191.615216
 20
137.881324
 42
-0.050402
  0
VERTEX
  8
0
 10
191.060117
 20
138.427563
 42
-0.059659
  0
VERTEX
  8
0
 10
190.574212
 20
139.179755
 42
-0.310304
  0
VERTEX
  8
0
 10
190.642975
 20
139.642891
 42
-0.160445
  0
VERTEX
  8
0
 10
191.208639
 20
139.954459
 42
-0.017784
  0
VERTEX
  8
0
 10
192.687672
 20
140.177563
 42
0.045484
  0
VERTEX
  8
0
 10
194.179448
 20
140.487824
 42
0.139911
  0
VERTEX
  8
0
 10
195.037052
 20
141.042348
 42
0.124022
  0
VERTEX
  8
0
 10
195.531492
 20
142.010880
 42
0.032289
  0
VERTEX
  8
0
 10
195.813358
 20
143.750000
 42
0.000000
  0
VERTEX
  8
0
 10
196.126717
 20
147.000000
 42
0.000000
  0
VERTEX
  8
0
 10
188.063358
 20
147.000000
 42
0.000000
  0
VERTEX
  8
0
 10
180.000000
 20
147.000000
 42
0.000000
  0
SEQEND
  0
POLYLINE
  8
0
 66
1
 70
1
  0
VERTEX
  8
0
 10
198.000000
 20
134.000000
 42
0.000000
  0
VERTEX
  8
0
 10
198.000000
 20
121.000000
 42
0.000000
  0
VERTEX
  8
0
 10
201.875000
 20
121.000000
 42
0.021426
  0
VERTEX
  8
0
 10
204.144914
 20
121.097316
 42
0.131067
  0
VERTEX
  8
0
 10
205.238387
 20
121.491935
 42
0.157726
  0
VERTEX
  8
0
 10
205.885923
 20
122.342079
 42
0.035180
  0
VERTEX
  8
0
 10
206.375000
 20
124.125000
 42
0.040702
  0
VERTEX
  8
0
 10
206.853525
 20
128.230377
 42
0.008458
  0
VERTEX
  8
0
 10
206.982582
 20
135.495445
 42
0.006045
  0
VERTEX
  8
0
 10
206.899878
 20
142.850183
 42
0.085979
  0
VERTEX
  8
0
 10
206.393011
 20
145.418213
 42
0.135731
  0
VERTEX
  8
0
 10
205.879356
 20
146.113576
 42
0.081869
  0
VERTEX
  8
0
 10
204.974673
 20
146.609442
 42
0.058118
  0
VERTEX
  8
0
 10
203.657913
 20
146.906542
 42
0.026458
  0
VERTEX
  8
0
 10
201.893011
 20
147.000000
 42
0.000000
  0
VERTEX
  8
0
 10
198.000000
 20
147.000000
 42
0.000000
  0
SEQEND
  0
POLYLINE
  8
0
 66
1
 70
1
  0
VERTEX
  8
0
 10
210.000000
 20
134.000000
 42
0.000000
  0
VERTEX
  8
0
 10
210.000000
 20
121.000000
 42
0.000000
  0
VERTEX
  8
0
 10
213.891592
 20
121.000000
 42
0.022095
  0
VERTEX
  8
0
 10
216.084591
 20
121.096955
 42
0.113477
  0
VERTEX
  8
0
 10
217.234624
 20
121.470869
 42
0.149343
  0
VERTEX
  8
0
 10
217.941838
 20
122.254854
 42
0.047927
  0
VERTEX
  8
0
 10
218.472973
 20
123.748339
 42
0.000000
  0
VERTEX
  8
0
 10
219.162762
 20
126.496678
 42
0.000000
  0
VERTEX
  8
0
 10
221.164788
 20
123.748339
 42
0.043670
  0
VERTEX
  8
0
 10
222.402505
 20
122.328142
 42
0.090772
  0
VERTEX
  8
0
 10
223.622689
 20
121.518893
 42
0.076735
  0
VERTEX
  8
0
 10
225.183884
 20
121.117938
 42
0.024560
  0
VERTEX
  8
0
 10
227.583407
 20
121.000000
 42
0.014086
  0
VERTEX
  8
0
 10
229.276601
 20
121.047711
 42
0.023122
  0
VERTEX
  8
0
 10
230.702626
 20
121.194504
 42
0.019459
  0
VERTEX
  8
0
 10
231.792680
 20
121.401574
 42
0.349287
  0
VERTEX
  8
0
 10
232.000000
 20
121.662142
 42
0.112243
  0
VERTEX
  8
0
 10
231.902407
 20
122.091403
 42
0.005653
  0
VERTEX
  8
0
 10
231.262291
 20
123.388585
 42
0.008833
  0
VERTEX
  8
0
 10
230.450741
 20
124.919735
 42
0.006262
  0
VERTEX
  8
0
 10
229.488652
 20
126.609577
 42
0.000000
  0
VERTEX
  8
0
 10
226.977303
 20
130.894869
 42
0.000000
  0
VERTEX
  8
0
 10
229.100960
 20
134.969192
 42
0.018422
  0
VERTEX
  8
0
 10
230.195564
 20
137.272449
 42
0.067933
  0
VERTEX
  8
0
 10
230.626182
 20
138.821464
 42
0.087804
  0
VERTEX
  8
0
 10
230.570940
 20
140.213311
 42
0.044497
  0
VERTEX
  8
0
 10
230.044719
 20
141.892038
 42
0.099452
  0
VERTEX
  8
0
 10
228.419054
 20
144.315024
 42
0.102757
  0
VERTEX
  8
0
 10
226.000733
 20
145.888381
 42
0.069715
  0
VERTEX
  8
0
 10
222.385119
 20
146.745618
 42
0.023402
  0
VERTEX
  8
0
 10
216.952947
 20
147.000000
 42
0.000000
  0
VERTEX
  8
0
 10
210.000000
 20
147.000000
 42
0.000000
  0
SEQEND
  0
POLYLINE
  8
0
 66
1
 70
1
  0
VERTEX
  8
0
 10
222.000000
 20
137.940983
 42
-0.105429
  0
VERTEX
  8
0
 10
221.923444
 20
137.581949
 42
-0.099231
  0
VERTEX
  8
0
 10
221.706250
 20
137.276414
 42
-0.096318
  0
VERTEX
  8
0
 10
221.381732
 20
137.071618
 42
-0.092995
  0
VERTEX
  8
0
 10
221.000000
 20
137.000000
 42
-0.153634
  0
VERTEX
  8
0
 10
220.618621
 20
137.120018
 42
-0.097988
  0
VERTEX
  8
0
 10
220.293750
 20
137.457961
 42
-0.080552
  0
VERTEX
  8
0
 10
220.074545
 20
137.962904
 42
-0.062283
  0
VERTEX
  8
0
 10
220.000000
 20
138.559017
 42
-0.066118
  0
VERTEX
  8
0
 10
220.073267
 20
139.110654
 42
-0.138808
  0
VERTEX
  8
0
 10
220.293750
 20
139.478525
 42
-0.191142
  0
VERTEX
  8
0
 10
220.620352
 20
139.607943
 42
-0.139169
  0
VERTEX
  8
0
 10
221.000000
 20
139.500000
 42
-0.060810
  0
VERTEX
  8
0
 10
221.382515
 20
139.193797
 42
-0.051032
  0
VERTEX
  8
0
 10
221.706250
 20
138.787100
 42
-0.053229
  0
VERTEX
  8
0
 10
221.926698
 20
138.346558
 42
-0.089642
  0
SEQEND
  0
POLYLINE
  8
0
 66
1
 70
1
  0
VERTEX
  8
0
 10
234.000000
 20
134.000000
 42
0.000000
  0
VERTEX
  8
0
 10
234.000000
 20
121.000000
 42
0.000000
  0
VERTEX
  8
0
 10
242.000000
 20
121.000000
 42
0.000000
  0
VERTEX
  8
0
 10
250.000000
 20
121.000000
 42
0.000000
  0
VERTEX
  8
0
 10
250.000000
 20
123.780762
 42
0.056427
  0
VERTEX
  8
0
 10
249.836130
 20
125.228201
 42
0.111356
  0
VERTEX
  8
0
 10
249.338302
 20
126.266016
 42
0.095065
  0
VERTEX
  8
0
 10
248.382145
 20
127.091475
 42
0.033599
  0
VERTEX
  8
0
 10
246.750000
 20
127.890865
 42
0.000000
  0
VERTEX
  8
0
 10
243.500000
 20
129.220206
 42
0.000000
  0
VERTEX
  8
0
 10
246.000000
 20
129.899402
 42
0.061704
  0
VERTEX
  8
0
 10
247.220988
 20
130.399195
 42
0.108639
  0
VERTEX
  8
0
 10
248.031042
 20
131.121517
 42
0.094286
  0
VERTEX
  8
0
 10
248.533363
 20
132.193676
 42
0.038228
  0
VERTEX
  8
0
 10
248.813358
 20
133.789299
 42
0.025431
  0
VERTEX
  8
0
 10
248.882621
 20
135.279722
 42
0.083523
  0
VERTEX
  8
0
 10
248.715459
 20
136.247308
 42
0.149914
  0
VERTEX
  8
0
 10
248.313232
 20
136.792828
 42
0.160826
  0
VERTEX
  8
0
 10
247.685803
 20
137.000000
 42
-0.080498
  0
VERTEX
  8
0
 10
247.047810
 20
137.103384
 42
-0.044201
  0
VERTEX
  8
0
 10
246.320131
 20
137.419347
 42
-0.042611
  0
VERTEX
  8
0
 10
245.619866
 20
137.881306
 42
-0.052484
  0
VERTEX
  8
0
 10
245.060117
 20
138.427563
 42
-0.059659
  0
VERTEX
  8
0
 10
244.574212
 20
139.179755
 42
-0.310304
  0
VERTEX
  8
0
 10
244.642975
 20
139.642891
 42
-0.160445
  0
VERTEX
  8
0
 10
245.208639
 20
139.954459
 42
-0.017784
  0
VERTEX
  8
0
 10
246.687672
 20
140.177563
 42
0.045484
  0
VERTEX
  8
0
 10
248.179448
 20
140.487824
 42
0.139911
  0
VERTEX
  8
0
 10
249.037052
 20
141.042348
 42
0.124022
  0
VERTEX
  8
0
 10
249.531492
 20
142.010880
 42
0.032289
  0
VERTEX
  8
0
 10
249.813358
 20
143.750000
 42
0.000000
  0
VERTEX
  8
0
 10
250.126717
 20
147.000000
 42
0.000000
  0
VERTEX
  8
0
 10
242.063358
 20
147.000000
 42
0.000000
  0
VERTEX
  8
0
 10
234.000000
 20
147.000000
 42
0.000000
  0
SEQEND
  0
POLYLINE
  8
0
 66
1
 70
1
  0
VERTEX
  8
0
 10
130.000000
 20
140.986431
 42
-0.048045
  0
VERTEX
  8
0
 10
129.912071
 20
140.073467
 42
-0.026731
  0
VERTEX
  8
0
 10
129.640168
 20
138.988166
 42
-0.026432
  0
VERTEX
  8
0
 10
129.244238
 20
137.909477
 42
-0.038423
  0
VERTEX
  8
0
 10
128.775041
 20
137.011391
 42
0.033247
  0
VERTEX
  8
0
 10
128.215675
 20
135.967160
 42
0.106729
  0
VERTEX
  8
0
 10
128.050081
 20
135.200232
 42
0.132680
  0
VERTEX
  8
0
 10
128.230766
 20
134.531315
 42
0.064530
  0
VERTEX
  8
0
 10
128.775041
 20
133.824959
 42
-0.129706
  0
VERTEX
  8
0
 10
129.256388
 20
132.998561
 42
-0.024209
  0
VERTEX
  8
0
 10
129.644400
 20
131.271887
 42
-0.024191
  0
VERTEX
  8
0
 10
129.911370
 20
129.134558
 42
-0.018975
  0
VERTEX
  8
0
 10
130.000000
 20
126.800000
 42
0.007811
  0
VERTEX
  8
0
 10
130.056509
 20
123.182826
 42
0.094209
  0
VERTEX
  8
0
 10
130.357759
 20
121.830000
 42
0.223853
  0
VERTEX
  8
0
 10
131.066464
 20
121.204164
 42
0.070853
  0
VERTEX
  8
0
 10
132.500000
 20
121.000000
 42
0.072846
  0
VERTEX
  8
0
 10
133.935971
 20
121.210324
 42
0.224968
  0
VERTEX
  8
0
 10
134.645833
 20
121.850000
 42
0.091609
  0
VERTEX
  8
0
 10
134.944747
 20
123.238228
 42
0.007344
  0
VERTEX
  8
0
 10
135.000000
 20
127.000000
 42
-0.015416
  0
VERTEX
  8
0
 10
135.071434
 20
129.316313
 42
-0.025878
  0
VERTEX
  8
0
 10
135.291667
 20
131.250000
 42
-0.024068
  0
VERTEX
  8
0
 10
135.604992
 20
132.696775
 42
-0.339565
  0
VERTEX
  8
0
 10
136.000000
 20
133.000000
 42
0.226478
  0
VERTEX
  8
0
 10
136.382936
 20
133.182831
 42
0.074992
  0
VERTEX
  8
0
 10
136.706250
 20
133.734375
 42
0.057076
  0
VERTEX
  8
0
 10
136.926884
 20
134.542644
 42
0.038131
  0
VERTEX
  8
0
 10
137.000000
 20
135.500000
 42
0.038131
  0
VERTEX
  8
0
 10
136.926884
 20
136.457356
 42
0.057076
  0
VERTEX
  8
0
 10
136.706250
 20
137.265625
 42
0.074992
  0
VERTEX
  8
0
 10
136.382936
 20
137.817169
 42
0.226478
  0
VERTEX
  8
0
 10
136.000000
 20
138.000000
 42
-0.226478
  0
VERTEX
  8
0
 10
135.617064
 20
138.182831
 42
-0.074992
  0
VERTEX
  8
0
 10
135.293750
 20
138.734375
 42
-0.057076
  0
VERTEX
  8
0
 10
135.073116
 20
139.542644
 42
-0.038131
  0
VERTEX
  8
0
 10
135.000000
 20
140.500000
 42
0.045527
  0
VERTEX
  8
0
 10
134.884257
 20
141.768514
 42
0.152009
  0
VERTEX
  8
0
 10
134.500000
 20
142.500000
 42
0.152009
  0
VERTEX
  8
0
 10
133.768514
 20
142.884257
 42
0.045527
  0
VERTEX
  8
0
 10
132.500000
 20
143.000000
 42
0.044905
  0
VERTEX
  8
0
 10
131.314351
 20
142.893302
 42
0.125285
  0
VERTEX
  8
0
 10
130.560394
 20
142.548643
 42
0.149801
  0
VERTEX
  8
0
 10
130.141707
 20
141.930519
 42
0.074631
  0
SEQEND
  0
POLYLINE
  8
0
 66
1
 70
1
  0
VERTEX
  8
0
 10
83.000000
 20
129.569551
 42
0.003958
  0
VERTEX
  8
0
 10
83.044746
 20
123.916899
 42
0.068197
  0
VERTEX
  8
0
 10
83.324112
 20
122.093313
 42
0.229084
  0
VERTEX
  8
0
 10
84.058887
 20
121.286322
 42
0.095743
  0
VERTEX
  8
0
 10
85.540442
 20
121.000000
 42
0.089139
  0
VERTEX
  8
0
 10
87.025520
 20
121.266877
 42
0.241785
  0
VERTEX
  8
0
 10
87.726326
 20
122.033285
 42
0.071571
  0
VERTEX
  8
0
 10
87.940672
 20
123.762120
 42
0.003911
  0
VERTEX
  8
0
 10
87.790442
 20
129.250000
 42
0.005470
  0
VERTEX
  8
0
 10
87.558032
 20
134.284607
 42
0.057846
  0
VERTEX
  8
0
 10
87.205319
 20
136.307408
 42
0.163597
  0
VERTEX
  8
0
 10
86.501794
 20
137.308621
 42
0.123847
  0
VERTEX
  8
0
 10
85.250000
 20
137.819551
 42
0.127601
  0
VERTEX
  8
0
 10
83.981923
 20
137.675964
 42
0.238885
  0
VERTEX
  8
0
 10
83.306317
 20
136.928931
 42
0.062690
  0
VERTEX
  8
0
 10
83.043577
 20
135.078376
 42
0.003955
  0
SEQEND
  0
POLYLINE
  8
0
 66
1
 70
1
  0
VERTEX
  8
0
 10
94.138085
 20
135.914019
 42
0.106375
  0
VERTEX
  8
0
 10
91.786217
 20
132.540538
 42
0.119590
  0
VERTEX
  8
0
 10
91.161825
 20
128.642148
 42
0.116473
  0
VERTEX
  8
0
 10
92.393385
 20
124.812404
 42
0.097248
  0
VERTEX
  8
0
 10
95.271339
 20
121.640965
 42
0.029047
  0
VERTEX
  8
0
 10
96.850871
 20
120.601787
 42
0.087695
  0
VERTEX
  8
0
 10
98.057269
 20
120.162932
 42
0.095507
  0
VERTEX
  8
0
 10
99.281201
 20
120.183113
 42
0.038519
  0
VERTEX
  8
0
 10
100.892263
 20
120.653232
 42
-0.010671
  0
VERTEX
  8
0
 10
102.633656
 20
121.268408
 42
-0.187093
  0
VERTEX
  8
0
 10
103.221371
 20
121.238014
 42
-0.332064
  0
VERTEX
  8
0
 10
103.444102
 20
120.837951
 42
-0.028462
  0
VERTEX
  8
0
 10
103.208640
 20
119.614415
 42
-0.075130
  0
VERTEX
  8
0
 10
102.240817
 20
117.306055
 42
-0.191921
  0
VERTEX
  8
0
 10
100.816647
 20
116.235525
 42
-0.201830
  0
VERTEX
  8
0
 10
99.101702
 20
116.464899
 42
-0.083047
  0
VERTEX
  8
0
 10
97.267972
 20
118.000000
 42
0.078023
  0
VERTEX
  8
0
 10
95.572246
 20
119.448609
 42
0.135180
  0
VERTEX
  8
0
 10
93.804827
 20
119.961640
 42
0.211630
  0
VERTEX
  8
0
 10
92.529682
 20
119.417508
 42
0.189823
  0
VERTEX
  8
0
 10
92.000000
 20
118.072580
 42
0.166740
  0
VERTEX
  8
0
 10
92.683692
 20
116.079402
 42
0.067938
  0
VERTEX
  8
0
 10
94.760013
 20
114.048870
 42
0.064324
  0
VERTEX
  8
0
 10
97.494776
 20
112.518763
 42
0.095700
  0
VERTEX
  8
0
 10
100.180313
 20
112.000000
 42
0.061928
  0
VERTEX
  8
0
 10
101.535749
 20
112.168524
 42
0.045451
  0
VERTEX
  8
0
 10
102.966116
 20
112.671657
 42
0.043661
  0
VERTEX
  8
0
 10
104.344305
 20
113.454069
 42
0.045480
  0
VERTEX
  8
0
 10
105.545455
 20
114.454545
 42
0.062522
  0
VERTEX
  8
0
 10
106.921850
 20
116.226119
 42
0.086972
  0
VERTEX
  8
0
 10
107.632037
 20
118.100780
 42
0.042012
  0
VERTEX
  8
0
 10
107.934558
 20
120.981129
 42
0.005168
  0
VERTEX
  8
0
 10
108.000000
 20
127.312954
 42
0.000000
  0
VERTEX
  8
0
 10
108.000000
 20
137.716817
 42
0.000000
  0
VERTEX
  8
0
 10
102.125979
 20
137.800104
 42
0.016032
  0
VERTEX
  8
0
 10
99.117411
 20
137.746296
 42
0.045513
  0
VERTEX
  8
0
 10
97.042298
 20
137.451946
 42
0.063385
  0
VERTEX
  8
0
 10
95.478668
 20
136.866119
 42
0.066335
  0
SEQEND
  0
POLYLINE
  8
0
 66
1
 70
1
  0
VERTEX
  8
0
 10
102.548019
 20
131.567058
 42
-0.107596
  0
VERTEX
  8
0
 10
103.420238
 20
129.289081
 42
-0.145213
  0
VERTEX
  8
0
 10
103.120315
 20
127.115271
 42
-0.157205
  0
VERTEX
  8
0
 10
101.719656
 20
125.573176
 42
-0.131136
  0
VERTEX
  8
0
 10
99.571805
 20
125.000000
 42
-0.196772
  0
VERTEX
  8
0
 10
97.363477
 20
125.904080
 42
-0.142845
  0
VERTEX
  8
0
 10
96.052749
 20
128.248084
 42
-0.137838
  0
VERTEX
  8
0
 10
96.184249
 20
130.993914
 42
-0.182378
  0
VERTEX
  8
0
 10
97.750000
 20
132.919901
 42
-0.033268
  0
VERTEX
  8
0
 10
99.419017
 20
133.748689
 42
-0.168883
  0
VERTEX
  8
0
 10
100.440081
 20
133.809805
 42
-0.153892
  0
VERTEX
  8
0
 10
101.332768
 20
133.224674
 42
-0.026295
  0
SEQEND
  0
POLYLINE
  8
0
 66
1
 70
1
  0
VERTEX
  8
0
 10
152.913343
 20
136.681829
 42
0.150215
  0
VERTEX
  8
0
 10
149.685969
 20
132.277602
 42
0.148563
  0
VERTEX
  8
0
 10
149.470986
 20
126.799901
 42
0.160729
  0
VERTEX
  8
0
 10
152.301485
 20
122.427100
 42
0.176773
  0
VERTEX
  8
0
 10
157.063718
 20
120.808353
 42
-0.000469
  0
VERTEX
  8
0
 10
158.579970
 20
120.840705
 42
-0.000323
  0
VERTEX
  8
0
 10
160.298405
 20
120.874651
 42
-0.000325
  0
VERTEX
  8
0
 10
161.951953
 20
120.905172
 42
-0.000664
  0
VERTEX
  8
0
 10
163.250000
 20
120.926563
 42
0.000000
  0
VERTEX
  8
0
 10
166.000000
 20
120.968231
 42
0.000000
  0
VERTEX
  8
0
 10
166.000000
 20
129.342524
 42
0.000000
  0
VERTEX
  8
0
 10
166.000000
 20
137.716817
 42
0.000000
  0
VERTEX
  8
0
 10
160.250000
 20
137.790238
 42
0.019050
  0
VERTEX
  8
0
 10
157.932325
 20
137.731526
 42
0.021634
  0
VERTEX
  8
0
 10
155.722982
 20
137.494929
 42
0.021451
  0
VERTEX
  8
0
 10
153.881975
 20
137.135441
 42
0.101462
  0
SEQEND
  0
POLYLINE
  8
0
 66
1
 70
1
  0
VERTEX
  8
0
 10
160.428571
 20
132.428571
 42
-0.048498
  0
VERTEX
  8
0
 10
161.504256
 20
131.121192
 42
-0.124199
  0
VERTEX
  8
0
 10
161.915117
 20
129.975846
 42
-0.112104
  0
VERTEX
  8
0
 10
161.753320
 20
128.698381
 42
-0.035549
  0
VERTEX
  8
0
 10
160.964816
 20
126.934259
 42
-0.148387
  0
VERTEX
  8
0
 10
159.642750
 20
125.613839
 42
-0.109122
  0
VERTEX
  8
0
 10
157.636725
 20
125.052677
 42
-0.119547
  0
VERTEX
  8
0
 10
155.720288
 20
125.406524
 42
-0.198508
  0
VERTEX
  8
0
 10
154.606989
 20
126.581787
 42
-0.054458
  0
VERTEX
  8
0
 10
154.074209
 20
128.604098
 42
-0.081985
  0
VERTEX
  8
0
 10
154.101164
 20
130.423259
 42
-0.098396
  0
VERTEX
  8
0
 10
154.679815
 20
131.895112
 42
-0.118713
  0
VERTEX
  8
0
 10
155.750000
 20
132.919901
 42
-0.027347
  0
VERTEX
  8
0
 10
157.315196
 20
133.720355
 42
-0.131420
  0
VERTEX
  8
0
 10
158.295477
 20
133.875244
 42
-0.139092
  0
VERTEX
  8
0
 10
159.192368
 20
133.515929
 42
-0.031997
  0
SEQEND
  0
POLYLINE
  8
0
 66
1
 70
1
  0
VERTEX
  8
0
 10
80.000000
 20
90.000000
 42
0.000000
  0
VERTEX
  8
0
 10
80.000000
 20
76.000000
 42
0.000000
  0
VERTEX
  8
0
 10
82.500000
 20
76.000000
 42
0.072255
  0
VERTEX
  8
0
 10
83.935285
 20
76.208502
 42
0.224660
  0
VERTEX
  8
0
 10
84.644799
 20
76.844098
 42
0.092363
  0
VERTEX
  8
0
 10
84.944387
 20
78.221887
 42
0.007476
  0
VERTEX
  8
0
 10
85.000000
 20
81.940983
 42
-0.021980
  0
VERTEX
  8
0
 10
85.175705
 20
85.935985
 42
-0.111445
  0
VERTEX
  8
0
 10
85.851147
 20
88.045449
 42
-0.294661
  0
VERTEX
  8
0
 10
86.992783
 20
88.619397
 42
-0.147419
  0
VERTEX
  8
0
 10
88.543805
 20
87.963645
 42
-0.120961
  0
VERTEX
  8
0
 10
89.172866
 20
87.114005
 42
-0.044771
  0
VERTEX
  8
0
 10
89.626118
 20
85.684703
 42
-0.035448
  0
VERTEX
  8
0
 10
89.909235
 20
83.769114
 42
-0.018969
  0
VERTEX
  8
0
 10
90.000000
 20
81.377555
 42
0.008987
  0
VERTEX
  8
0
 10
90.059536
 20
78.065538
 42
0.100139
  0
VERTEX
  8
0
 10
90.366224
 20
76.787756
 42
0.220761
  0
VERTEX
  8
0
 10
91.072792
 20
76.191324
 42
0.066729
  0
VERTEX
  8
0
 10
92.500000
 20
76.000000
 42
0.061791
  0
VERTEX
  8
0
 10
93.916391
 20
76.175711
 42
0.215253
  0
VERTEX
  8
0
 10
94.621155
 20
76.735078
 42
0.108443
  0
VERTEX
  8
0
 10
94.935784
 20
77.918585
 42
0.010949
  0
VERTEX
  8
0
 10
95.000000
 20
80.850777
 42
0.047606
  0
VERTEX
  8
0
 10
94.434596
 20
86.775674
 42
0.109005
  0
VERTEX
  8
0
 10
92.666575
 20
90.872267
 42
0.169547
  0
VERTEX
  8
0
 10
89.915457
 20
92.796347
 42
0.161589
  0
VERTEX
  8
0
 10
86.502236
 20
92.639232
 42
-0.227960
  0
VERTEX
  8
0
 10
85.767281
 20
92.699525
 42
-0.194648
  0
VERTEX
  8
0
 10
85.288777
 20
93.320938
 42
-0.059561
  0
VERTEX
  8
0
 10
85.053716
 20
94.848057
 42
-0.008436
  0
VERTEX
  8
0
 10
85.000000
 20
98.031385
 42
0.007414
  0
VERTEX
  8
0
 10
84.944557
 20
101.770462
 42
0.092009
  0
VERTEX
  8
0
 10
84.645286
 20
103.153138
 42
0.224807
  0
VERTEX
  8
0
 10
83.935610
 20
103.790645
 42
0.072531
  0
VERTEX
  8
0
 10
82.500000
 20
104.000000
 42
0.000000
  0
VERTEX
  8
0
 10
80.000000
 20
104.000000
 42
0.000000
  0
SEQEND
  0
POLYLINE
  8
0
 66
1
 70
1
  0
VERTEX
  8
0
 10
175.433681
 20
95.404733
 42
0.000812
  0
VERTEX
  8
0
 10
171.499494
 20
86.864145
 42
0.002748
  0
VERTEX
  8
0
 10
168.970453
 20
81.269472
 42
0.001183
  0
VERTEX
  8
0
 10
167.138519
 20
77.130541
 42
0.103953
  0
VERTEX
  8
0
 10
167.000000
 20
76.471487
 42
0.323399
  0
VERTEX
  8
0
 10
167.132801
 20
76.287640
 42
0.031007
  0
VERTEX
  8
0
 10
167.698737
 20
76.138499
 42
0.030270
  0
VERTEX
  8
0
 10
168.466900
 20
76.034041
 42
0.018661
  0
VERTEX
  8
0
 10
169.378680
 20
76.000000
 42
0.076226
  0
VERTEX
  8
0
 10
170.542250
 20
76.178425
 42
0.097184
  0
VERTEX
  8
0
 10
171.493835
 20
76.695903
 42
0.081890
  0
VERTEX
  8
0
 10
172.291574
 20
77.613670
 42
0.039879
  0
VERTEX
  8
0
 10
173.000000
 20
79.000000
 42
-0.043462
  0
VERTEX
  8
0
 10
173.889962
 20
80.711262
 42
-0.142490
  0
VERTEX
  8
0
 10
174.837442
 20
81.544423
 42
-0.095973
  0
VERTEX
  8
0
 10
176.304152
 20
81.914022
 42
-0.013874
  0
VERTEX
  8
0
 10
179.402083
 20
82.000000
 42
-0.013425
  0
VERTEX
  8
0
 10
182.517397
 20
81.916339
 42
-0.098120
  0
VERTEX
  8
0
 10
183.957151
 20
81.549766
 42
-0.148550
  0
VERTEX
  8
0
 10
184.866460
 20
80.719708
 42
-0.043794
  0
VERTEX
  8
0
 10
185.693898
 20
79.000000
 42
0.039153
  0
VERTEX
  8
0
 10
186.374999
 20
77.550203
 42
0.093920
  0
VERTEX
  8
0
 10
187.141102
 20
76.649361
 42
0.107729
  0
VERTEX
  8
0
 10
188.112420
 20
76.163113
 42
0.062457
  0
VERTEX
  8
0
 10
189.413136
 20
76.000000
 42
0.015192
  0
VERTEX
  8
0
 10
190.404832
 20
76.030138
 42
0.024872
  0
VERTEX
  8
0
 10
191.240109
 20
76.122811
 42
0.022153
  0
VERTEX
  8
0
 10
191.872368
 20
76.253960
 42
0.343075
  0
VERTEX
  8
0
 10
192.000000
 20
76.418079
 42
0.107872
  0
VERTEX
  8
0
 10
191.709239
 20
77.750107
 42
0.000617
  0
VERTEX
  8
0
 10
186.327937
 20
89.450993
 42
0.000742
  0
VERTEX
  8
0
 10
180.963853
 20
101.031418
 42
0.087758
  0
VERTEX
  8
0
 10
180.022127
 20
102.377873
 42
0.435246
  0
VERTEX
  8
0
 10
179.433360
 20
102.356883
 42
0.033046
  0
VERTEX
  8
0
 10
178.359189
 20
100.938170
 42
0.026407
  0
VERTEX
  8
0
 10
177.019399
 20
98.647252
 42
0.010773
  0
SEQEND
  0
POLYLINE
  8
0
 66
1
 70
1
  0
VERTEX
  8
0
 10
181.964565
 20
87.250000
 42
-0.194008
  0
VERTEX
  8
0
 10
181.787730
 20
86.772852
 42
-0.091062
  0
VERTEX
  8
0
 10
181.255216
 20
86.367188
 42
-0.069371
  0
VERTEX
  8
0
 10
180.454215
 20
86.092052
 42
-0.048123
  0
VERTEX
  8
0
 10
179.500000
 20
86.000000
 42
-0.058930
  0
VERTEX
  8
0
 10
177.829634
 20
86.197556
 42
-0.269130
  0
VERTEX
  8
0
 10
177.149164
 20
86.845931
 42
-0.158885
  0
VERTEX
  8
0
 10
177.187244
 20
88.058585
 42
-0.020252
  0
VERTEX
  8
0
 10
178.185486
 20
90.507752
 42
0.000000
  0
VERTEX
  8
0
 10
179.370971
 20
93.109609
 42
0.000000
  0
VERTEX
  8
0
 10
180.650050
 20
90.804805
 42
-0.019397
  0
VERTEX
  8
0
 10
181.142252
 20
89.830668
 42
-0.018721
  0
VERTEX
  8
0
 10
181.563809
 20
88.809849
 42
-0.019020
  0
VERTEX
  8
0
 10
181.866621
 20
87.884182
 42
-0.062526
  0
SEQEND
  0
POLYLINE
  8
0
 66
1
 70
1
  0
VERTEX
  8
0
 10
195.000000
 20
89.729151
 42
0.002494
  0
VERTEX
  8
0
 10
195.043006
 20
81.108089
 42
0.033683
  0
VERTEX
  8
0
 10
195.286419
 20
77.966144
 42
0.129026
  0
VERTEX
  8
0
 10
195.889268
 20
76.545389
 42
0.232264
  0
VERTEX
  8
0
 10
197.000000
 20
76.000000
 42
0.161351
  0
VERTEX
  8
0
 10
198.079745
 20
76.357749
 42
0.174873
  0
VERTEX
  8
0
 10
198.689240
 20
77.278644
 42
0.054531
  0
VERTEX
  8
0
 10
198.949202
 20
79.275424
 42
0.005127
  0
VERTEX
  8
0
 10
199.000000
 20
84.229151
 42
0.000000
  0
VERTEX
  8
0
 10
199.000000
 20
92.458301
 42
0.000000
  0
VERTEX
  8
0
 10
207.769783
 20
83.729151
 42
0.003892
  0
VERTEX
  8
0
 10
211.183994
 20
80.383256
 42
0.006093
  0
VERTEX
  8
0
 10
214.177943
 20
77.564188
 42
0.002082
  0
VERTEX
  8
0
 10
216.788874
 20
75.185092
 42
0.185796
  0
VERTEX
  8
0
 10
217.269783
 20
75.000000
 42
0.395190
  0
VERTEX
  8
0
 10
217.564952
 20
75.276474
 42
0.002837
  0
VERTEX
  8
0
 10
217.785499
 20
78.965625
 42
0.008440
  0
VERTEX
  8
0
 10
217.947509
 20
83.323555
 42
0.005070
  0
VERTEX
  8
0
 10
218.000000
 20
88.500000
 42
0.000000
  0
VERTEX
  8
0
 10
218.000000
 20
102.000000
 42
0.000000
  0
VERTEX
  8
0
 10
215.500000
 20
102.000000
 42
0.096097
  0
VERTEX
  8
0
 10
214.050747
 20
101.718865
 42
0.226941
  0
VERTEX
  8
0
 10
213.325950
 20
100.927085
 42
0.069570
  0
VERTEX
  8
0
 10
213.045986
 20
99.147283
 42
0.004277
  0
VERTEX
  8
0
 10
213.000000
 20
93.770849
 42
0.000000
  0
VERTEX
  8
0
 10
213.000000
 20
85.541699
 42
0.000000
  0
VERTEX
  8
0
 10
204.000000
 20
94.500000
 42
0.000000
  0
VERTEX
  8
0
 10
195.000000
 20
103.458301
 42
0.000000
  0
SEQEND
  0
POLYLINE
  8
0
 66
1
 70
1
  0
VERTEX
  8
0
 10
223.635858
 20
98.716567
 42
0.012244
  0
VERTEX
  8
0
 10
222.405204
 20
95.241130
 42
0.074524
  0
VERTEX
  8
0
 10
222.088943
 20
93.365722
 42
0.212349
  0
VERTEX
  8
0
 10
222.496960
 20
92.401186
 42
0.190279
  0
VERTEX
  8
0
 10
223.512997
 20
92.000000
 42
0.188244
  0
VERTEX
  8
0
 10
224.236342
 20
92.282335
 42
0.035211
  0
VERTEX
  8
0
 10
225.231212
 20
93.337199
 42
0.033333
  0
VERTEX
  8
0
 10
226.280015
 20
94.809088
 42
0.025057
  0
VERTEX
  8
0
 10
227.237607
 20
96.552166
 42
0.010249
  0
VERTEX
  8
0
 10
228.420669
 20
99.119857
 42
0.069533
  0
VERTEX
  8
0
 10
228.795818
 20
100.462732
 42
0.159977
  0
VERTEX
  8
0
 10
228.633797
 20
101.334819
 42
0.127166
  0
VERTEX
  8
0
 10
227.974610
 20
102.036854
 42
0.053093
  0
VERTEX
  8
0
 10
226.489878
 20
102.768407
 42
0.256651
  0
VERTEX
  8
0
 10
225.592582
 20
102.632115
 42
0.127960
  0
VERTEX
  8
0
 10
224.835380
 20
101.662613
 42
0.010929
  0
SEQEND
  0
POLYLINE
  8
0
 66
1
 70
1
  0
VERTEX
  8
0
 10
150.762571
 20
100.434612
 42
0.129972
  0
VERTEX
  8
0
 10
147.155167
 20
97.035807
 42
0.085315
  0
VERTEX
  8
0
 10
144.991885
 20
91.719485
 42
0.085051
  0
VERTEX
  8
0
 10
144.724067
 20
85.969300
 42
0.127722
  0
VERTEX
  8
0
 10
146.564534
 20
81.323914
 42
0.067791
  0
VERTEX
  8
0
 10
149.355535
 20
78.426322
 42
0.069233
  0
VERTEX
  8
0
 10
152.801044
 20
76.405156
 42
0.071179
  0
VERTEX
  8
0
 10
156.577463
 20
75.440270
 42
0.078890
  0
VERTEX
  8
0
 10
160.336719
 20
75.626212
 42
0.020698
  0
VERTEX
  8
0
 10
162.748133
 20
76.237497
 42
0.117179
  0
VERTEX
  8
0
 10
163.888728
 20
76.895034
 42
0.143940
  0
VERTEX
  8
0
 10
164.492085
 20
77.928027
 42
0.036838
  0
VERTEX
  8
0
 10
164.821313
 20
79.856654
 42
0.007070
  0
VERTEX
  8
0
 10
165.002840
 20
82.084718
 42
0.232102
  0
VERTEX
  8
0
 10
164.803826
 20
82.570291
 42
0.333461
  0
VERTEX
  8
0
 10
164.354847
 20
82.607175
 42
0.012312
  0
VERTEX
  8
0
 10
162.848807
 20
81.606654
 42
-0.172096
  0
VERTEX
  8
0
 10
157.514344
 20
80.129386
 42
-0.166671
  0
VERTEX
  8
0
 10
152.357798
 20
82.315629
 42
-0.164353
  0
VERTEX
  8
0
 10
149.580972
 20
87.237161
 42
-0.167838
  0
VERTEX
  8
0
 10
150.389418
 20
92.786157
 42
-0.083749
  0
VERTEX
  8
0
 10
152.382477
 20
95.438830
 42
-0.106281
  0
VERTEX
  8
0
 10
154.992265
 20
97.030165
 42
-0.104566
  0
VERTEX
  8
0
 10
158.059497
 20
97.423119
 42
-0.078869
  0
VERTEX
  8
0
 10
161.370318
 20
96.618631
 42
0.000000
  0
VERTEX
  8
0
 10
165.000000
 20
95.102053
 42
0.000000
  0
VERTEX
  8
0
 10
165.000000
 20
97.944038
 42
0.047090
  0
VERTEX
  8
0
 10
164.888657
 20
99.123638
 42
0.060519
  0
VERTEX
  8
0
 10
164.557461
 20
100.160734
 42
0.070846
  0
VERTEX
  8
0
 10
164.050564
 20
100.949028
 42
0.123490
  0
VERTEX
  8
0
 10
163.418213
 20
101.393011
 42
0.079819
  0
VERTEX
  8
0
 10
160.797161
 20
101.943746
 42
0.030858
  0
VERTEX
  8
0
 10
157.073496
 20
101.892024
 42
0.030963
  0
VERTEX
  8
0
 10
153.362468
 20
101.378550
 42
0.074573
  0
SEQEND
  0
POLYLINE
  8
0
 66
1
 70
1
  0
VERTEX
  8
0
 10
231.000000
 20
99.500000
 42
0.047675
  0
VERTEX
  8
0
 10
231.126572
 20
98.175563
 42
0.173074
  0
VERTEX
  8
0
 10
231.550000
 20
97.458333
 42
0.144586
  0
VERTEX
  8
0
 10
232.386401
 20
97.097235
 42
0.030103
  0
VERTEX
  8
0
 10
234.000000
 20
97.000000
 42
0.000000
  0
VERTEX
  8
0
 10
237.000000
 20
97.000000
 42
0.000000
  0
VERTEX
  8
0
 10
237.000000
 20
86.500000
 42
0.000000
  0
VERTEX
  8
0
 10
237.000000
 20
76.000000
 42
0.000000
  0
VERTEX
  8
0
 10
239.500000
 20
76.000000
 42
0.000000
  0
VERTEX
  8
0
 10
242.000000
 20
76.000000
 42
0.000000
  0
VERTEX
  8
0
 10
242.000000
 20
86.500000
 42
0.000000
  0
VERTEX
  8
0
 10
242.000000
 20
97.000000
 42
0.000000
  0
VERTEX
  8
0
 10
244.500000
 20
97.000000
 42
0.045527
  0
VERTEX
  8
0
 10
245.768514
 20
97.115743
 42
0.152009
  0
VERTEX
  8
0
 10
246.500000
 20
97.500000
 42
0.152009
  0
VERTEX
  8
0
 10
246.884257
 20
98.231486
 42
0.045527
  0
VERTEX
  8
0
 10
247.000000
 20
99.500000
 42
0.093656
  0
VERTEX
  8
0
 10
246.726255
 20
100.948613
 42
0.227396
  0
VERTEX
  8
0
 10
245.950000
 20
101.671875
 42
0.071364
  0
VERTEX
  8
0
 10
244.210294
 20
101.953338
 42
0.004478
  0
VERTEX
  8
0
 10
239.000000
 20
102.000000
 42
0.004478
  0
VERTEX
  8
0
 10
233.789706
 20
101.953338
 42
0.071364
  0
VERTEX
  8
0
 10
232.050000
 20
101.671875
 42
0.227396
  0
VERTEX
  8
0
 10
231.273745
 20
100.948613
 42
0.093656
  0
SEQEND
  0
POLYLINE
  8
0
 66
1
 70
1
  0
VERTEX
  8
0
 10
71.000000
 20
95.986431
 42
-0.048045
  0
VERTEX
  8
0
 10
70.912071
 20
95.073467
 42
-0.026731
  0
VERTEX
  8
0
 10
70.640168
 20
93.988166
 42
-0.026432
  0
VERTEX
  8
0
 10
70.244238
 20
92.909477
 42
-0.038423
  0
VERTEX
  8
0
 10
69.775041
 20
92.011391
 42
0.033247
  0
VERTEX
  8
0
 10
69.215675
 20
90.967160
 42
0.106729
  0
VERTEX
  8
0
 10
69.050081
 20
90.200232
 42
0.132680
  0
VERTEX
  8
0
 10
69.230766
 20
89.531315
 42
0.064530
  0
VERTEX
  8
0
 10
69.775041
 20
88.824959
 42
-0.129706
  0
VERTEX
  8
0
 10
70.256388
 20
87.998561
 42
-0.024209
  0
VERTEX
  8
0
 10
70.644400
 20
86.271887
 42
-0.024191
  0
VERTEX
  8
0
 10
70.911370
 20
84.134558
 42
-0.018975
  0
VERTEX
  8
0
 10
71.000000
 20
81.800000
 42
0.007811
  0
VERTEX
  8
0
 10
71.056509
 20
78.182826
 42
0.094209
  0
VERTEX
  8
0
 10
71.357759
 20
76.830000
 42
0.223853
  0
VERTEX
  8
0
 10
72.066464
 20
76.204164
 42
0.070853
  0
VERTEX
  8
0
 10
73.500000
 20
76.000000
 42
0.072846
  0
VERTEX
  8
0
 10
74.935971
 20
76.210324
 42
0.224968
  0
VERTEX
  8
0
 10
75.645833
 20
76.850000
 42
0.091609
  0
VERTEX
  8
0
 10
75.944747
 20
78.238228
 42
0.007344
  0
VERTEX
  8
0
 10
76.000000
 20
82.000000
 42
-0.015416
  0
VERTEX
  8
0
 10
76.071434
 20
84.316313
 42
-0.025878
  0
VERTEX
  8
0
 10
76.291667
 20
86.250000
 42
-0.024068
  0
VERTEX
  8
0
 10
76.604992
 20
87.696775
 42
-0.339565
  0
VERTEX
  8
0
 10
77.000000
 20
88.000000
 42
0.226478
  0
VERTEX
  8
0
 10
77.382936
 20
88.182831
 42
0.074992
  0
VERTEX
  8
0
 10
77.706250
 20
88.734375
 42
0.057076
  0
VERTEX
  8
0
 10
77.926884
 20
89.542644
 42
0.038131
  0
VERTEX
  8
0
 10
78.000000
 20
90.500000
 42
0.038131
  0
VERTEX
  8
0
 10
77.926884
 20
91.457356
 42
0.057076
  0
VERTEX
  8
0
 10
77.706250
 20
92.265625
 42
0.074992
  0
VERTEX
  8
0
 10
77.382936
 20
92.817169
 42
0.226478
  0
VERTEX
  8
0
 10
77.000000
 20
93.000000
 42
-0.226478
  0
VERTEX
  8
0
 10
76.617064
 20
93.182831
 42
-0.074992
  0
VERTEX
  8
0
 10
76.293750
 20
93.734375
 42
-0.057076
  0
VERTEX
  8
0
 10
76.073116
 20
94.542644
 42
-0.038131
  0
VERTEX
  8
0
 10
76.000000
 20
95.500000
 42
0.045527
  0
VERTEX
  8
0
 10
75.884257
 20
96.768514
 42
0.152009
  0
VERTEX
  8
0
 10
75.500000
 20
97.500000
 42
0.152009
  0
VERTEX
  8
0
 10
74.768514
 20
97.884257
 42
0.045527
  0
VERTEX
  8
0
 10
73.500000
 20
98.000000
 42
0.044905
  0
VERTEX
  8
0
 10
72.314351
 20
97.893302
 42
0.125285
  0
VERTEX
  8
0
 10
71.560394
 20
97.548643
 42
0.149801
  0
VERTEX
  8
0
 10
71.141707
 20
96.930519
 42
0.074631
  0
SEQEND
  0
POLYLINE
  8
0
 66
1
 70
1
  0
VERTEX
  8
0
 10
102.228960
 20
92.330706
 42
0.146449
  0
VERTEX
  8
0
 10
100.864944
 20
91.242580
 42
0.038842
  0
VERTEX
  8
0
 10
99.444086
 20
88.811775
 42
0.039833
  0
VERTEX
  8
0
 10
98.354720
 20
86.017169
 42
0.073147
  0
VERTEX
  8
0
 10
98.000000
 20
83.605424
 42
0.117167
  0
VERTEX
  8
0
 10
98.601948
 20
81.071933
 42
0.070141
  0
VERTEX
  8
0
 10
100.375018
 20
78.516570
 42
0.067855
  0
VERTEX
  8
0
 10
102.867598
 20
76.465021
 42
0.091222
  0
VERTEX
  8
0
 10
105.586850
 20
75.406560
 42
0.126074
  0
VERTEX
  8
0
 10
108.577552
 20
75.590910
 42
0.081730
  0
VERTEX
  8
0
 10
111.674920
 20
77.185698
 42
0.109290
  0
VERTEX
  8
0
 10
113.523573
 20
79.316997
 42
0.329806
  0
VERTEX
  8
0
 10
113.270206
 20
81.110230
 42
0.071744
  0
VERTEX
  8
0
 10
112.536033
 20
81.668406
 42
0.129425
  0
VERTEX
  8
0
 10
111.808469
 20
81.853707
 42
0.094447
  0
VERTEX
  8
0
 10
110.926315
 20
81.678216
 42
0.026679
  0
VERTEX
  8
0
 10
109.651643
 20
81.081157
 42
-0.064350
  0
VERTEX
  8
0
 10
107.620796
 20
80.310068
 42
-0.084814
  0
VERTEX
  8
0
 10
105.647619
 20
80.181374
 42
-0.108322
  0
VERTEX
  8
0
 10
104.100526
 20
80.693888
 42
-0.180338
  0
VERTEX
  8
0
 10
103.249533
 20
81.750000
 42
-0.312173
  0
VERTEX
  8
0
 10
103.415199
 20
82.318068
 42
-0.111587
  0
VERTEX
  8
0
 10
104.212431
 20
82.712666
 42
-0.047670
  0
VERTEX
  8
0
 10
105.791383
 20
82.938534
 42
-0.011705
  0
VERTEX
  8
0
 10
108.416667
 20
83.000000
 42
0.007935
  0
VERTEX
  8
0
 10
112.005123
 20
83.056951
 42
0.109629
  0
VERTEX
  8
0
 10
113.256020
 20
83.376523
 42
0.230129
  0
VERTEX
  8
0
 10
113.832476
 20
84.134965
 42
0.049421
  0
VERTEX
  8
0
 10
114.000000
 20
85.825686
 42
0.148726
  0
VERTEX
  8
0
 10
112.965992
 20
89.225018
 42
0.119403
  0
VERTEX
  8
0
 10
110.136096
 20
91.822183
 42
0.110240
  0
VERTEX
  8
0
 10
106.225081
 20
92.969149
 42
0.112522
  0
SEQEND
  0
POLYLINE
  8
0
 66
1
 70
1
  0
VERTEX
  8
0
 10
108.000000
 20
88.000000
 42
-0.046037
  0
VERTEX
  8
0
 10
108.616325
 20
87.515969
 42
-0.464355
  0
VERTEX
  8
0
 10
108.600168
 20
87.229858
 42
-0.149908
  0
VERTEX
  8
0
 10
108.116157
 20
87.054644
 42
-0.011070
  0
VERTEX
  8
0
 10
106.690983
 20
87.015313
 42
-0.031127
  0
VERTEX
  8
0
 10
105.616019
 20
87.076417
 42
-0.075986
  0
VERTEX
  8
0
 10
104.853834
 20
87.287930
 42
-0.157247
  0
VERTEX
  8
0
 10
104.494373
 20
87.612423
 42
-0.276250
  0
VERTEX
  8
0
 10
104.500000
 20
88.000000
 42
-0.088664
  0
VERTEX
  8
0
 10
105.118496
 20
88.690509
 42
-0.167411
  0
VERTEX
  8
0
 10
105.817281
 20
88.931224
 42
-0.113655
  0
VERTEX
  8
0
 10
106.714104
 20
88.724699
 42
-0.030273
  0
SEQEND
  0
POLYLINE
  8
0
 66
1
 70
1
  0
VERTEX
  8
0
 10
115.000000
 20
92.096066
 42
0.108974
  0
VERTEX
  8
0
 10
115.129758
 20
91.507777
 42
0.005451
  0
VERTEX
  8
0
 10
115.984472
 20
89.715955
 42
0.008553
  0
VERTEX
  8
0
 10
117.067487
 20
87.600122
 42
0.006066
  0
VERTEX
  8
0
 10
118.351393
 20
85.262912
 42
0.000000
  0
VERTEX
  8
0
 10
121.702786
 20
79.333692
 42
0.000000
  0
VERTEX
  8
0
 10
118.898571
 20
73.916846
 42
0.005050
  0
VERTEX
  8
0
 10
116.650084
 20
69.463912
 42
0.095152
  0
VERTEX
  8
0
 10
116.237790
 20
67.961116
 42
0.352459
  0
VERTEX
  8
0
 10
116.730528
 20
67.240416
 42
0.073474
  0
VERTEX
  8
0
 10
118.357751
 20
67.000000
 42
0.171509
  0
VERTEX
  8
0
 10
119.869192
 20
67.534163
 42
0.067719
  0
VERTEX
  8
0
 10
121.403815
 20
69.161320
 42
0.031033
  0
VERTEX
  8
0
 10
123.402183
 20
72.356833
 42
0.004940
  0
VERTEX
  8
0
 10
126.857751
 20
78.883424
 42
0.003795
  0
VERTEX
  8
0
 10
129.211423
 20
83.523065
 42
0.005636
  0
VERTEX
  8
0
 10
131.195714
 20
87.624517
 42
0.002667
  0
VERTEX
  8
0
 10
132.821257
 20
91.131837
 42
0.107579
  0
VERTEX
  8
0
 10
133.000000
 20
91.952975
 42
0.358291
  0
VERTEX
  8
0
 10
132.201744
 20
92.923949
 42
0.166835
  0
VERTEX
  8
0
 10
130.473302
 20
92.687428
 42
0.081476
  0
VERTEX
  8
0
 10
128.191789
 20
91.026689
 42
0.067283
  0
VERTEX
  8
0
 10
126.382070
 20
88.619374
 42
0.000000
  0
VERTEX
  8
0
 10
124.210076
 20
84.738749
 42
0.000000
  0
VERTEX
  8
0
 10
121.855038
 20
88.861672
 42
0.024391
  0
VERTEX
  8
0
 10
120.648548
 20
90.753315
 42
0.055840
  0
VERTEX
  8
0
 10
119.524777
 20
92.013882
 42
0.076728
  0
VERTEX
  8
0
 10
118.412311
 20
92.739540
 42
0.105744
  0
VERTEX
  8
0
 10
117.250000
 20
92.992298
 42
0.038308
  0
VERTEX
  8
0
 10
116.388382
 20
92.929153
 42
0.057395
  0
VERTEX
  8
0
 10
115.660938
 20
92.732207
 42
0.075547
  0
VERTEX
  8
0
 10
115.164815
 20
92.441607
 42
0.226277
  0
SEQEND
  0
POLYLINE
  8
0
 66
1
 70
1
  0
VERTEX
  8
0
 10
209.000000
 20
47.200000
 42
0.008695
  0
VERTEX
  8
0
 10
209.074295
 20
42.928253
 42
0.018472
  0
VERTEX
  8
0
 10
209.311224
 20
39.630442
 42
0.019349
  0
VERTEX
  8
0
 10
209.671932
 20
37.200304
 42
0.150969
  0
VERTEX
  8
0
 10
210.200000
 20
36.200000
 42
-0.018208
  0
VERTEX
  8
0
 10
210.777696
 20
35.578624
 42
-0.180052
  0
VERTEX
  8
0
 10
210.900000
 20
35.250000
 42
-0.354955
  0
VERTEX
  8
0
 10
210.742599
 20
35.056215
 42
-0.051663
  0
VERTEX
  8
0
 10
210.200000
 20
35.000000
 42
0.284069
  0
VERTEX
  8
0
 10
209.344232
 20
34.471129
 42
0.119428
  0
VERTEX
  8
0
 10
209.028492
 20
33.097631
 42
0.102914
  0
VERTEX
  8
0
 10
209.362421
 20
31.582161
 42
0.201777
  0
VERTEX
  8
0
 10
210.250000
 20
30.754296
 42
0.092066
  0
VERTEX
  8
0
 10
211.667603
 20
30.512733
 42
0.131944
  0
VERTEX
  8
0
 10
212.887426
 20
30.859810
 42
0.143117
  0
VERTEX
  8
0
 10
213.703544
 20
31.741286
 42
0.116172
  0
VERTEX
  8
0
 10
214.000000
 20
33.000000
 42
0.062829
  0
VERTEX
  8
0
 10
213.906821
 20
33.738602
 42
0.060083
  0
VERTEX
  8
0
 10
213.632812
 20
34.442955
 42
0.064843
  0
VERTEX
  8
0
 10
213.228220
 20
35.009045
 42
0.109745
  0
VERTEX
  8
0
 10
212.750000
 20
35.337719
 42
-0.009076
  0
VERTEX
  8
0
 10
212.090194
 20
35.617987
 42
-0.295955
  0
VERTEX
  8
0
 10
212.000000
 20
35.757018
 42
-0.382689
  0
VERTEX
  8
0
 10
212.096611
 20
35.864758
 42
-0.011437
  0
VERTEX
  8
0
 10
212.750000
 20
35.921053
 42
0.324370
  0
VERTEX
  8
0
 10
213.357383
 20
36.422754
 42
0.033878
  0
VERTEX
  8
0
 10
213.718358
 20
38.348002
 42
0.023385
  0
VERTEX
  8
0
 10
213.939299
 20
41.461095
 42
0.006023
  0
VERTEX
  8
0
 10
214.000000
 20
46.500000
 42
0.000000
  0
VERTEX
  8
0
 10
214.000000
 20
57.000000
 42
0.000000
  0
VERTEX
  8
0
 10
211.500000
 20
57.000000
 42
0.112867
  0
VERTEX
  8
0
 10
210.048203
 20
56.668050
 42
0.221377
  0
VERTEX
  8
0
 10
209.313776
 20
55.770000
 42
0.059265
  0
VERTEX
  8
0
 10
209.042326
 20
53.715810
 42
0.003248
  0
SEQEND
  0
POLYLINE
  8
0
 66
1
 70
1
  0
VERTEX
  8
0
 10
141.000000
 20
50.986431
 42
-0.048045
  0
VERTEX
  8
0
 10
140.912071
 20
50.073467
 42
-0.026731
  0
VERTEX
  8
0
 10
140.640168
 20
48.988166
 42
-0.026432
  0
VERTEX
  8
0
 10
140.244238
 20
47.909477
 42
-0.038423
  0
VERTEX
  8
0
 10
139.775041
 20
47.011391
 42
0.033247
  0
VERTEX
  8
0
 10
139.215675
 20
45.967160
 42
0.106729
  0
VERTEX
  8
0
 10
139.050081
 20
45.200232
 42
0.132680
  0
VERTEX
  8
0
 10
139.230766
 20
44.531315
 42
0.064530
  0
VERTEX
  8
0
 10
139.775041
 20
43.824959
 42
-0.129706
  0
VERTEX
  8
0
 10
140.256388
 20
42.998561
 42
-0.024209
  0
VERTEX
  8
0
 10
140.644400
 20
41.271887
 42
-0.024191
  0
VERTEX
  8
0
 10
140.911370
 20
39.134558
 42
-0.018975
  0
VERTEX
  8
0
 10
141.000000
 20
36.800000
 42
0.007811
  0
VERTEX
  8
0
 10
141.056509
 20
33.182826
 42
0.094209
  0
VERTEX
  8
0
 10
141.357759
 20
31.830000
 42
0.223853
  0
VERTEX
  8
0
 10
142.066464
 20
31.204164
 42
0.070853
  0
VERTEX
  8
0
 10
143.500000
 20
31.000000
 42
0.072846
  0
VERTEX
  8
0
 10
144.935971
 20
31.210324
 42
0.224968
  0
VERTEX
  8
0
 10
145.645833
 20
31.850000
 42
0.091609
  0
VERTEX
  8
0
 10
145.944747
 20
33.238228
 42
0.007344
  0
VERTEX
  8
0
 10
146.000000
 20
37.000000
 42
-0.015416
  0
VERTEX
  8
0
 10
146.071434
 20
39.316313
 42
-0.025878
  0
VERTEX
  8
0
 10
146.291667
 20
41.250000
 42
-0.024068
  0
VERTEX
  8
0
 10
146.604992
 20
42.696775
 42
-0.339565
  0
VERTEX
  8
0
 10
147.000000
 20
43.000000
 42
0.226478
  0
VERTEX
  8
0
 10
147.382936
 20
43.182831
 42
0.074992
  0
VERTEX
  8
0
 10
147.706250
 20
43.734375
 42
0.057076
  0
VERTEX
  8
0
 10
147.926884
 20
44.542644
 42
0.038131
  0
VERTEX
  8
0
 10
148.000000
 20
45.500000
 42
0.038131
  0
VERTEX
  8
0
 10
147.926884
 20
46.457356
 42
0.057076
  0
VERTEX
  8
0
 10
147.706250
 20
47.265625
 42
0.074992
  0
VERTEX
  8
0
 10
147.382936
 20
47.817169
 42
0.226478
  0
VERTEX
  8
0
 10
147.000000
 20
48.000000
 42
-0.226478
  0
VERTEX
  8
0
 10
146.617064
 20
48.182831
 42
-0.074992
  0
VERTEX
  8
0
 10
146.293750
 20
48.734375
 42
-0.057076
  0
VERTEX
  8
0
 10
146.073116
 20
49.542644
 42
-0.038131
  0
VERTEX
  8
0
 10
146.000000
 20
50.500000
 42
0.045527
  0
VERTEX
  8
0
 10
145.884257
 20
51.768514
 42
0.152009
  0
VERTEX
  8
0
 10
145.500000
 20
52.500000
 42
0.152009
  0
VERTEX
  8
0
 10
144.768514
 20
52.884257
 42
0.045527
  0
VERTEX
  8
0
 10
143.500000
 20
53.000000
 42
0.044905
  0
VERTEX
  8
0
 10
142.314351
 20
52.893302
 42
0.125285
  0
VERTEX
  8
0
 10
141.560394
 20
52.548643
 42
0.149801
  0
VERTEX
  8
0
 10
141.141707
 20
51.930519
 42
0.074631
  0
SEQEND
  0
POLYLINE
  8
0
 66
1
 70
1
  0
VERTEX
  8
0
 10
199.000000
 20
50.986431
 42
-0.048045
  0
VERTEX
  8
0
 10
198.912071
 20
50.073467
 42
-0.026731
  0
VERTEX
  8
0
 10
198.640168
 20
48.988166
 42
-0.026432
  0
VERTEX
  8
0
 10
198.244238
 20
47.909477
 42
-0.038423
  0
VERTEX
  8
0
 10
197.775041
 20
47.011391
 42
0.033247
  0
VERTEX
  8
0
 10
197.215675
 20
45.967160
 42
0.106729
  0
VERTEX
  8
0
 10
197.050081
 20
45.200232
 42
0.132680
  0
VERTEX
  8
0
 10
197.230766
 20
44.531315
 42
0.064530
  0
VERTEX
  8
0
 10
197.775041
 20
43.824959
 42
-0.129706
  0
VERTEX
  8
0
 10
198.256388
 20
42.998561
 42
-0.024209
  0
VERTEX
  8
0
 10
198.644400
 20
41.271887
 42
-0.024191
  0
VERTEX
  8
0
 10
198.911370
 20
39.134558
 42
-0.018975
  0
VERTEX
  8
0
 10
199.000000
 20
36.800000
 42
0.007811
  0
VERTEX
  8
0
 10
199.056509
 20
33.182826
 42
0.094209
  0
VERTEX
  8
0
 10
199.357759
 20
31.830000
 42
0.223853
  0
VERTEX
  8
0
 10
200.066464
 20
31.204164
 42
0.070853
  0
VERTEX
  8
0
 10
201.500000
 20
31.000000
 42
0.072846
  0
VERTEX
  8
0
 10
202.935971
 20
31.210324
 42
0.224968
  0
VERTEX
  8
0
 10
203.645833
 20
31.850000
 42
0.091609
  0
VERTEX
  8
0
 10
203.944747
 20
33.238228
 42
0.007344
  0
VERTEX
  8
0
 10
204.000000
 20
37.000000
 42
-0.015416
  0
VERTEX
  8
0
 10
204.071434
 20
39.316313
 42
-0.025878
  0
VERTEX
  8
0
 10
204.291667
 20
41.250000
 42
-0.024068
  0
VERTEX
  8
0
 10
204.604992
 20
42.696775
 42
-0.339565
  0
VERTEX
  8
0
 10
205.000000
 20
43.000000
 42
0.226478
  0
VERTEX
  8
0
 10
205.382936
 20
43.182831
 42
0.074992
  0
VERTEX
  8
0
 10
205.706250
 20
43.734375
 42
0.057076
  0
VERTEX
  8
0
 10
205.926884
 20
44.542644
 42
0.038131
  0
VERTEX
  8
0
 10
206.000000
 20
45.500000
 42
0.038131
  0
VERTEX
  8
0
 10
205.926884
 20
46.457356
 42
0.057076
  0
VERTEX
  8
0
 10
205.706250
 20
47.265625
 42
0.074992
  0
VERTEX
  8
0
 10
205.382936
 20
47.817169
 42
0.226478
  0
VERTEX
  8
0
 10
205.000000
 20
48.000000
 42
-0.226478
  0
VERTEX
  8
0
 10
204.617064
 20
48.182831
 42
-0.074992
  0
VERTEX
  8
0
 10
204.293750
 20
48.734375
 42
-0.057076
  0
VERTEX
  8
0
 10
204.073116
 20
49.542644
 42
-0.038131
  0
VERTEX
  8
0
 10
204.000000
 20
50.500000
 42
0.045527
  0
VERTEX
  8
0
 10
203.884257
 20
51.768514
 42
0.152009
  0
VERTEX
  8
0
 10
203.500000
 20
52.500000
 42
0.152009
  0
VERTEX
  8
0
 10
202.768514
 20
52.884257
 42
0.045527
  0
VERTEX
  8
0
 10
201.500000
 20
53.000000
 42
0.044905
  0
VERTEX
  8
0
 10
200.314351
 20
52.893302
 42
0.125285
  0
VERTEX
  8
0
 10
199.560394
 20
52.548643
 42
0.149801
  0
VERTEX
  8
0
 10
199.141707
 20
51.930519
 42
0.074631
  0
SEQEND
  0
POLYLINE
  8
0
 66
1
 70
1
  0
VERTEX
  8
0
 10
103.000000
 20
34.815064
 42
0.002229
  0
VERTEX
  8
0
 10
103.038233
 20
26.237814
 42
0.041854
  0
VERTEX
  8
0
 10
103.287255
 20
23.555541
 42
0.200100
  0
VERTEX
  8
0
 10
103.978098
 20
22.480616
 42
0.188608
  0
VERTEX
  8
0
 10
105.250000
 20
22.180449
 42
0.083450
  0
VERTEX
  8
0
 10
106.419250
 20
22.551892
 42
0.149092
  0
VERTEX
  8
0
 10
107.137021
 20
23.248048
 42
0.090016
  0
VERTEX
  8
0
 10
107.557362
 20
24.494998
 42
0.018431
  0
VERTEX
  8
0
 10
107.810728
 20
26.816117
 42
-0.011172
  0
VERTEX
  8
0
 10
108.070203
 20
29.562153
 42
-0.153124
  0
VERTEX
  8
0
 10
108.474243
 20
30.465844
 42
-0.239470
  0
VERTEX
  8
0
 10
109.244924
 20
30.770435
 42
-0.030634
  0
VERTEX
  8
0
 10
111.058652
 20
30.487118
 42
0.051816
  0
VERTEX
  8
0
 10
112.699857
 20
30.301425
 42
0.097030
  0
VERTEX
  8
0
 10
114.008360
 20
30.545389
 42
0.077767
  0
VERTEX
  8
0
 10
115.311923
 20
31.314437
 42
0.024298
  0
VERTEX
  8
0
 10
116.997924
 20
32.844078
 42
0.063436
  0
VERTEX
  8
0
 10
118.971622
 20
35.394014
 42
0.099561
  0
VERTEX
  8
0
 10
119.875980
 20
38.004222
 42
0.096597
  0
VERTEX
  8
0
 10
119.713876
 20
40.818436
 42
0.056840
  0
VERTEX
  8
0
 10
118.510967
 20
43.978791
 42
0.065470
  0
VERTEX
  8
0
 10
117.075122
 20
46.041929
 42
0.119050
  0
VERTEX
  8
0
 10
115.383543
 20
47.186961
 42
0.076314
  0
VERTEX
  8
0
 10
112.841970
 20
47.717362
 42
0.015697
  0
VERTEX
  8
0
 10
108.250000
 20
47.818464
 42
0.000000
  0
VERTEX
  8
0
 10
103.000000
 20
47.769231
 42
0.000000
  0
SEQEND
  0
POLYLINE
  8
0
 66
1
 70
1
  0
VERTEX
  8
0
 10
113.065741
 20
42.964816
 42
-0.181018
  0
VERTEX
  8
0
 10
114.743228
 20
41.056993
 42
-0.142415
  0
VERTEX
  8
0
 10
114.965260
 20
38.292947
 42
-0.148547
  0
VERTEX
  8
0
 10
113.677032
 20
35.921966
 42
-0.197029
  0
VERTEX
  8
0
 10
111.428195
 20
35.000000
 42
-0.131136
  0
VERTEX
  8
0
 10
109.280344
 20
35.573176
 42
-0.157205
  0
VERTEX
  8
0
 10
107.879685
 20
37.115271
 42
-0.145213
  0
VERTEX
  8
0
 10
107.579762
 20
39.289081
 42
-0.107596
  0
VERTEX
  8
0
 10
108.451981
 20
41.567058
 42
-0.018014
  0
VERTEX
  8
0
 10
109.681047
 20
43.303064
 42
-0.157417
  0
VERTEX
  8
0
 10
110.446585
 20
43.834062
 42
-0.174768
  0
VERTEX
  8
0
 10
111.338654
 20
43.787743
 42
-0.023374
  0
SEQEND
  0
POLYLINE
  8
0
 66
1
 70
1
  0
VERTEX
  8
0
 10
123.204667
 20
40.928713
 42
0.009738
  0
VERTEX
  8
0
 10
123.459004
 20
36.719081
 42
0.057841
  0
VERTEX
  8
0
 10
123.886123
 20
34.560812
 42
0.098209
  0
VERTEX
  8
0
 10
124.696575
 20
33.100692
 42
0.057086
  0
VERTEX
  8
0
 10
126.162947
 20
31.722964
 42
0.038817
  0
VERTEX
  8
0
 10
127.499867
 20
30.879939
 42
0.057500
  0
VERTEX
  8
0
 10
128.790222
 20
30.379268
 42
0.063301
  0
VERTEX
  8
0
 10
130.062111
 20
30.214509
 42
0.062153
  0
VERTEX
  8
0
 10
131.343020
 20
30.371245
 42
0.073268
  0
VERTEX
  8
0
 10
134.186607
 20
31.547364
 42
0.137358
  0
VERTEX
  8
0
 10
135.886518
 20
33.338276
 42
0.096770
  0
VERTEX
  8
0
 10
136.755941
 20
36.216145
 42
0.025117
  0
VERTEX
  8
0
 10
137.000000
 20
41.071429
 42
0.006822
  0
VERTEX
  8
0
 10
136.944771
 20
45.119381
 42
0.061920
  0
VERTEX
  8
0
 10
136.679557
 20
46.862760
 42
0.178082
  0
VERTEX
  8
0
 10
136.084106
 20
47.684395
 42
0.148887
  0
VERTEX
  8
0
 10
135.047717
 20
48.000000
 42
0.142004
  0
VERTEX
  8
0
 10
134.017074
 20
47.701264
 42
0.166770
  0
VERTEX
  8
0
 10
133.383586
 20
46.911531
 42
0.065785
  0
VERTEX
  8
0
 10
133.027961
 20
45.276554
 42
0.008799
  0
VERTEX
  8
0
 10
132.797717
 20
41.750000
 42
-0.009061
  0
VERTEX
  8
0
 10
132.559678
 20
38.133202
 42
-0.070087
  0
VERTEX
  8
0
 10
132.184439
 20
36.484513
 42
-0.160552
  0
VERTEX
  8
0
 10
131.489901
 20
35.629350
 42
-0.107656
  0
VERTEX
  8
0
 10
130.299355
 20
35.186917
 42
-0.104951
  0
VERTEX
  8
0
 10
129.074561
 20
35.270104
 42
-0.228627
  0
VERTEX
  8
0
 10
128.387575
 20
35.880556
 42
-0.080001
  0
VERTEX
  8
0
 10
128.035263
 20
37.351211
 42
-0.007022
  0
VERTEX
  8
0
 10
127.799355
 20
41.186917
 42
0.008685
  0
VERTEX
  8
0
 10
127.558324
 20
44.904048
 42
0.072746
  0
VERTEX
  8
0
 10
127.179894
 20
46.539737
 42
0.167299
  0
VERTEX
  8
0
 10
126.463710
 20
47.382943
 42
0.098891
  0
VERTEX
  8
0
 10
125.204667
 20
47.825492
 42
0.098113
  0
VERTEX
  8
0
 10
123.900768
 20
47.754054
 42
0.265544
  0
VERTEX
  8
0
 10
123.258949
 20
47.132398
 42
0.076283
  0
VERTEX
  8
0
 10
123.057391
 20
45.590422
 42
0.004644
  0
SEQEND
  0
POLYLINE
  8
0
 66
1
 70
1
  0
VERTEX
  8
0
 10
161.799763
 20
44.953609
 42
0.024572
  0
VERTEX
  8
0
 10
160.175859
 20
43.161736
 42
0.084052
  0
VERTEX
  8
0
 10
159.398003
 20
41.801347
 42
0.093548
  0
VERTEX
  8
0
 10
159.154737
 20
40.341798
 42
0.034883
  0
VERTEX
  8
0
 10
159.344684
 20
38.263389
 42
0.066720
  0
VERTEX
  8
0
 10
160.366994
 20
34.888345
 42
0.105782
  0
VERTEX
  8
0
 10
162.159599
 20
32.471322
 42
0.108373
  0
VERTEX
  8
0
 10
164.749111
 20
31.036520
 42
0.072645
  0
VERTEX
  8
0
 10
168.111183
 20
30.545455
 42
0.136164
  0
VERTEX
  8
0
 10
173.122294
 20
31.935900
 42
0.161357
  0
VERTEX
  8
0
 10
176.309472
 20
35.647599
 42
0.160791
  0
VERTEX
  8
0
 10
176.655884
 20
40.538773
 42
0.135126
  0
VERTEX
  8
0
 10
174.076923
 20
45.076923
 42
0.076639
  0
VERTEX
  8
0
 10
171.057793
 20
47.289417
 42
0.122985
  0
VERTEX
  8
0
 10
167.968604
 20
48.028054
 42
0.121272
  0
VERTEX
  8
0
 10
164.863858
 20
47.230617
 42
0.073286
  0
SEQEND
  0
POLYLINE
  8
0
 66
1
 70
1
  0
VERTEX
  8
0
 10
170.394658
 20
42.700686
 42
-0.078090
  0
VERTEX
  8
0
 10
171.146769
 20
41.945808
 42
-0.075336
  0
VERTEX
  8
0
 10
171.642310
 20
40.987678
 42
-0.066533
  0
VERTEX
  8
0
 10
171.871523
 20
39.821340
 42
-0.043651
  0
VERTEX
  8
0
 10
171.835788
 20
38.450686
 42
-0.040578
  0
VERTEX
  8
0
 10
171.532982
 20
36.912916
 42
-0.126073
  0
VERTEX
  8
0
 10
171.006219
 20
36.006322
 42
-0.128150
  0
VERTEX
  8
0
 10
170.114110
 20
35.473133
 42
-0.042559
  0
VERTEX
  8
0
 10
168.608507
 20
35.169924
 42
-0.043008
  0
VERTEX
  8
0
 10
167.416986
 20
35.136913
 42
-0.050883
  0
VERTEX
  8
0
 10
166.304885
 20
35.316320
 42
-0.058144
  0
VERTEX
  8
0
 10
165.408336
 20
35.672107
 42
-0.128667
  0
VERTEX
  8
0
 10
164.873819
 20
36.169924
 42
-0.092408
  0
VERTEX
  8
0
 10
164.155735
 20
37.964063
 42
-0.081556
  0
VERTEX
  8
0
 10
164.087843
 20
39.979807
 42
-0.088273
  0
VERTEX
  8
0
 10
164.651677
 20
41.769683
 42
-0.141463
  0
VERTEX
  8
0
 10
165.750000
 20
42.919901
 42
-0.022043
  0
VERTEX
  8
0
 10
167.252505
 20
43.708500
 42
-0.122207
  0
VERTEX
  8
0
 10
168.140365
 20
43.884826
 42
-0.123810
  0
VERTEX
  8
0
 10
169.001940
 20
43.624407
 42
-0.022873
  0
SEQEND
  0
POLYLINE
  8
0
 66
1
 70
1
  0
VERTEX
  8
0
 10
181.204667
 20
40.928713
 42
0.009738
  0
VERTEX
  8
0
 10
181.459004
 20
36.719081
 42
0.057841
  0
VERTEX
  8
0
 10
181.886123
 20
34.560812
 42
0.098209
  0
VERTEX
  8
0
 10
182.696575
 20
33.100692
 42
0.057086
  0
VERTEX
  8
0
 10
184.162947
 20
31.722964
 42
0.038817
  0
VERTEX
  8
0
 10
185.499867
 20
30.879939
 42
0.057500
  0
VERTEX
  8
0
 10
186.790222
 20
30.379268
 42
0.063301
  0
VERTEX
  8
0
 10
188.062111
 20
30.214509
 42
0.062153
  0
VERTEX
  8
0
 10
189.343020
 20
30.371245
 42
0.073268
  0
VERTEX
  8
0
 10
192.186607
 20
31.547364
 42
0.137358
  0
VERTEX
  8
0
 10
193.886518
 20
33.338276
 42
0.096770
  0
VERTEX
  8
0
 10
194.755941
 20
36.216145
 42
0.025117
  0
VERTEX
  8
0
 10
195.000000
 20
41.071429
 42
0.006822
  0
VERTEX
  8
0
 10
194.944771
 20
45.119381
 42
0.061920
  0
VERTEX
  8
0
 10
194.679557
 20
46.862760
 42
0.178082
  0
VERTEX
  8
0
 10
194.084106
 20
47.684395
 42
0.148887
  0
VERTEX
  8
0
 10
193.047717
 20
48.000000
 42
0.142004
  0
VERTEX
  8
0
 10
192.017074
 20
47.701264
 42
0.166770
  0
VERTEX
  8
0
 10
191.383586
 20
46.911531
 42
0.065785
  0
VERTEX
  8
0
 10
191.027961
 20
45.276554
 42
0.008799
  0
VERTEX
  8
0
 10
190.797717
 20
41.750000
 42
-0.009061
  0
VERTEX
  8
0
 10
190.559678
 20
38.133202
 42
-0.070087
  0
VERTEX
  8
0
 10
190.184439
 20
36.484513
 42
-0.160552
  0
VERTEX
  8
0
 10
189.489901
 20
35.629350
 42
-0.107656
  0
VERTEX
  8
0
 10
188.299355
 20
35.186917
 42
-0.104951
  0
VERTEX
  8
0
 10
187.074561
 20
35.270104
 42
-0.228627
  0
VERTEX
  8
0
 10
186.387575
 20
35.880556
 42
-0.080001
  0
VERTEX
  8
0
 10
186.035263
 20
37.351211
 42
-0.007022
  0
VERTEX
  8
0
 10
185.799355
 20
41.186917
 42
0.008685
  0
VERTEX
  8
0
 10
185.558324
 20
44.904048
 42
0.072746
  0
VERTEX
  8
0
 10
185.179894
 20
46.539737
 42
0.167299
  0
VERTEX
  8
0
 10
184.463710
 20
47.382943
 42
0.098891
  0
VERTEX
  8
0
 10
183.204667
 20
47.825492
 42
0.098113
  0
VERTEX
  8
0
 10
181.900768
 20
47.754054
 42
0.265544
  0
VERTEX
  8
0
 10
181.258949
 20
47.132398
 42
0.076283
  0
VERTEX
  8
0
 10
181.057391
 20
45.590422
 42
0.004644
  0
SEQEND
  0
ENDSEC
  0
EOF
