  0
SECTION
  2
HEADER
  9
$ACADVER
  1
AC1006
  9
$EXTMIN
 10
0.000000
 20
0.000000
 30
0.000000
  9
$EXTMAX
 10
320.000000
 20
318.000000
 30
0.000000
  0
ENDSEC
  0
SECTION
  2
ENTITIES
  0
POLYLINE
  8
0
 66
1
 70
1
  0
VERTEX
  8
0
 10
155.528423
 20
295.045989
 42
0.110835
  0
VERTEX
  8
0
 10
155.343111
 20
294.509884
 42
0.031548
  0
VERTEX
  8
0
 10
155.299716
 20
293.624334
 42
0.030110
  0
VERTEX
  8
0
 10
155.376673
 20
292.590669
 42
0.027854
  0
VERTEX
  8
0
 10
155.577814
 20
291.545989
 42
-0.060961
  0
VERTEX
  8
0
 10
155.790325
 20
289.842828
 42
-0.305968
  0
VERTEX
  8
0
 10
155.281841
 20
289.085825
 42
-0.269160
  0
VERTEX
  8
0
 10
154.311283
 20
289.222984
 42
-0.053006
  0
VERTEX
  8
0
 10
153.000000
 20
290.500000
 42
0.056850
  0
VERTEX
  8
0
 10
151.661519
 20
291.783662
 42
0.329681
  0
VERTEX
  8
0
 10
150.741079
 20
291.796548
 42
0.210002
  0
VERTEX
  8
0
 10
150.146829
 20
290.791303
 42
0.029984
  0
VERTEX
  8
0
 10
150.000000
 20
288.345012
 42
-0.006330
  0
VERTEX
  8
0
 10
149.969780
 20
285.957918
 42
-0.194702
  0
VERTEX
  8
0
 10
149.737412
 20
285.423153
 42
-0.377180
  0
VERTEX
  8
0
 10
149.299850
 20
285.399092
 42
-0.017285
  0
VERTEX
  8
0
 10
148.063013
 20
286.442974
 42
0.067237
  0
VERTEX
  8
0
 10
146.286681
 20
287.661602
 42
0.309769
  0
VERTEX
  8
0
 10
145.114446
 20
287.503852
 42
0.235563
  0
VERTEX
  8
0
 10
144.611854
 20
286.221566
 42
0.047575
  0
VERTEX
  8
0
 10
145.073673
 20
283.743117
 42
-0.006990
  0
VERTEX
  8
0
 10
145.872016
 20
280.805083
 42
-0.128586
  0
VERTEX
  8
0
 10
145.867775
 20
279.847063
 42
-0.357839
  0
VERTEX
  8
0
 10
145.370168
 20
279.489316
 42
-0.047991
  0
VERTEX
  8
0
 10
144.000000
 20
279.710251
 42
0.148635
  0
VERTEX
  8
0
 10
142.711746
 20
279.659555
 42
0.270669
  0
VERTEX
  8
0
 10
142.048760
 20
278.884595
 42
0.112165
  0
VERTEX
  8
0
 10
142.123503
 20
277.201646
 42
0.023890
  0
VERTEX
  8
0
 10
143.038754
 20
274.398068
 42
-0.025380
  0
VERTEX
  8
0
 10
143.481363
 20
273.028464
 42
-0.083303
  0
VERTEX
  8
0
 10
143.571805
 20
272.085303
 42
-0.128837
  0
VERTEX
  8
0
 10
143.339579
 20
271.400365
 42
-0.108167
  0
VERTEX
  8
0
 10
142.788754
 20
270.863942
 42
0.080461
  0
VERTEX
  8
0
 10
142.287177
 20
270.426475
 42
0.049154
  0
VERTEX
  8
0
 10
141.846048
 20
269.774372
 42
0.047812
  0
VERTEX
  8
0
 10
141.526949
 20
269.021691
 42
0.060911
  0
VERTEX
  8
0
 10
141.389283
 20
268.280973
 42
-0.040824
  0
VERTEX
  8
0
 10
141.096841
 20
266.259750
 42
-0.032686
  0
VERTEX
  8
0
 10
140.466288
 20
264.151651
 42
-0.027801
  0
VERTEX
  8
0
 10
139.700981
 20
262.398394
 42
-0.283130
  0
VERTEX
  8
0
 10
139.053826
 20
262.000000
 42
-0.062943
  0
VERTEX
  8
0
 10
138.518419
 20
262.067669
 42
-0.000633
  0
VERTEX
  8
0
 10
134.799004
 20
263.028125
 42
-0.002053
  0
VERTEX
  8
0
 10
130.516577
 20
264.158538
 42
-0.001329
  0
VERTEX
  8
0
 10
125.570435
 20
265.500000
 42
0.003232
  0
VERTEX
  8
0
 10
114.409133
 20
268.481552
 42
0.071604
  0
VERTEX
  8
0
 10
111.077374
 20
268.854962
 42
0.497081
  0
VERTEX
  8
0
 10
110.322403
 20
267.790308
 42
0.076452
  0
VERTEX
  8
0
 10
111.667758
 20
265.063955
 42
-0.008096
  0
VERTEX
  8
0
 10
112.756092
 20
263.455330
 42
-0.333600
  0
VERTEX
  8
0
 10
112.730237
 20
263.060246
 42
-0.264761
  0
VERTEX
  8
0
 10
112.318086
 20
262.912679
 42
-0.005893
  0
VERTEX
  8
0
 10
110.167758
 20
263.316448
 42
0.020929
  0
VERTEX
  8
0
 10
108.624755
 20
263.558408
 42
0.089197
  0
VERTEX
  8
0
 10
107.697429
 20
263.498765
 42
0.181859
  0
VERTEX
  8
0
 10
107.194673
 20
263.153379
 42
0.153456
  0
VERTEX
  8
0
 10
107.000000
 20
262.534017
 42
0.062868
  0
VERTEX
  8
0
 10
107.074160
 20
261.946541
 42
0.051494
  0
VERTEX
  8
0
 10
107.293750
 20
261.352432
 42
0.053360
  0
VERTEX
  8
0
 10
107.617191
 20
260.840587
 42
0.086980
  0
VERTEX
  8
0
 10
108.000000
 20
260.500000
 42
-0.148632
  0
VERTEX
  8
0
 10
108.847111
 20
259.538273
 42
-0.178179
  0
VERTEX
  8
0
 10
108.936213
 20
258.342191
 42
-0.177865
  0
VERTEX
  8
0
 10
108.228473
 20
257.372218
 42
-0.148170
  0
VERTEX
  8
0
 10
107.000000
 20
257.000000
 42
0.071572
  0
VERTEX
  8
0
 10
106.235698
 20
256.890031
 42
0.086803
  0
VERTEX
  8
0
 10
105.587500
 20
256.569710
 42
0.100362
  0
VERTEX
  8
0
 10
105.154156
 20
256.093778
 42
0.135454
  0
VERTEX
  8
0
 10
105.000000
 20
255.535184
 42
0.112104
  0
VERTEX
  8
0
 10
105.145075
 20
254.896259
 42
0.055403
  0
VERTEX
  8
0
 10
105.587500
 20
254.186237
 42
0.050946
  0
VERTEX
  8
0
 10
106.235006
 20
253.518128
 42
0.052011
  0
VERTEX
  8
0
 10
107.000000
 20
253.000000
 42
-0.099094
  0
VERTEX
  8
0
 10
108.244040
 20
251.975465
 42
-0.110278
  0
VERTEX
  8
0
 10
108.939984
 20
250.587046
 42
-0.184952
  0
VERTEX
  8
0
 10
108.806291
 20
249.485637
 42
-0.277898
  0
VERTEX
  8
0
 10
108.000000
 20
249.000000
 42
0.243618
  0
VERTEX
  8
0
 10
107.251563
 20
248.612327
 42
0.239824
  0
VERTEX
  8
0
 10
107.129667
 20
247.772797
 42
0.087750
  0
VERTEX
  8
0
 10
107.891843
 20
246.382999
 42
0.027188
  0
VERTEX
  8
0
 10
109.489924
 20
244.600985
 42
-0.035453
  0
VERTEX
  8
0
 10
110.462251
 20
243.480046
 42
-0.052267
  0
VERTEX
  8
0
 10
111.130667
 20
242.362950
 42
-0.063904
  0
VERTEX
  8
0
 10
111.452385
 20
241.348613
 42
-0.137331
  0
VERTEX
  8
0
 10
111.376473
 20
240.538691
 42
0.134753
  0
VERTEX
  8
0
 10
111.298028
 20
239.745000
 42
0.082537
  0
VERTEX
  8
0
 10
111.608408
 20
238.850754
 42
0.063963
  0
VERTEX
  8
0
 10
112.293964
 20
237.903609
 42
0.037517
  0
VERTEX
  8
0
 10
113.327441
 20
236.957075
 42
-0.027049
  0
VERTEX
  8
0
 10
114.347659
 20
236.061187
 42
-0.024506
  0
VERTEX
  8
0
 10
115.301228
 20
235.031645
 42
-0.025294
  0
VERTEX
  8
0
 10
116.062801
 20
234.024687
 42
-0.068471
  0
VERTEX
  8
0
 10
116.459766
 20
233.223915
 42
0.107617
  0
VERTEX
  8
0
 10
116.978261
 20
232.354811
 42
0.019112
  0
VERTEX
  8
0
 10
118.332827
 20
231.014088
 42
0.019894
  0
VERTEX
  8
0
 10
120.072955
 20
229.541661
 42
0.016770
  0
VERTEX
  8
0
 10
122.024508
 20
228.121917
 42
0.015701
  0
VERTEX
  8
0
 10
125.021316
 20
226.226311
 42
0.065240
  0
VERTEX
  8
0
 10
126.985740
 20
225.390416
 42
0.075562
  0
VERTEX
  8
0
 10
128.954040
 20
225.150735
 42
0.025561
  0
VERTEX
  8
0
 10
131.839370
 20
225.384304
 42
-0.021296
  0
VERTEX
  8
0
 10
134.585873
 20
225.630216
 42
-0.067674
  0
VERTEX
  8
0
 10
136.418249
 20
225.467754
 42
-0.073970
  0
VERTEX
  8
0
 10
138.051034
 20
224.832117
 42
-0.028930
  0
VERTEX
  8
0
 10
140.083736
 20
223.509745
 42
0.010848
  0
VERTEX
  8
0
 10
141.514970
 20
222.503214
 42
0.010809
  0
VERTEX
  8
0
 10
142.990215
 20
221.558461
 42
0.010704
  0
VERTEX
  8
0
 10
144.313499
 20
220.789200
 42
0.041140
  0
VERTEX
  8
0
 10
145.180825
 20
220.398817
 42
-0.057926
  0
VERTEX
  8
0
 10
145.865641
 20
220.062568
 42
-0.042925
  0
VERTEX
  8
0
 10
146.533502
 20
219.546430
 42
-0.043721
  0
VERTEX
  8
0
 10
147.086854
 20
218.940001
 42
-0.071590
  0
VERTEX
  8
0
 10
147.425376
 20
218.333872
 42
-0.367137
  0
VERTEX
  8
0
 10
146.885712
 20
216.795114
 42
-0.019192
  0
VERTEX
  8
0
 10
141.913934
 20
214.134359
 42
-0.015341
  0
VERTEX
  8
0
 10
133.633328
 20
210.413321
 42
-0.003133
  0
VERTEX
  8
0
 10
118.750779
 20
204.375944
 42
0.006862
  0
VERTEX
  8
0
 10
113.059711
 20
202.017671
 42
0.011178
  0
VERTEX
  8
0
 10
108.305130
 20
199.843323
 42
0.005308
  0
VERTEX
  8
0
 10
104.417369
 20
197.907970
 42
0.281522
  0
VERTEX
  8
0
 10
104.000779
 20
197.227657
 42
0.181656
  0
VERTEX
  8
0
 10
104.817913
 20
195.048703
 42
0.018242
  0
VERTEX
  8
0
 10
108.688357
 20
190.932647
 42
0.023564
  0
VERTEX
  8
0
 10
113.013747
 20
187.041923
 42
0.064327
  0
VERTEX
  8
0
 10
116.500000
 20
184.871013
 42
0.037180
  0
VERTEX
  8
0
 10
120.367095
 20
183.441218
 42
0.107207
  0
VERTEX
  8
0
 10
123.203129
 20
183.253134
 42
0.100415
  0
VERTEX
  8
0
 10
125.970540
 20
184.255591
 42
0.030278
  0
VERTEX
  8
0
 10
129.660202
 20
186.824662
 42
-0.007051
  0
VERTEX
  8
0
 10
131.922751
 20
188.561383
 42
-0.003823
  0
VERTEX
  8
0
 10
134.751031
 20
190.636199
 42
-0.003807
  0
VERTEX
  8
0
 10
137.662246
 20
192.704281
 42
-0.006006
  0
VERTEX
  8
0
 10
140.194370
 20
194.429305
 42
-0.012633
  0
VERTEX
  8
0
 10
143.819483
 20
196.705902
 42
-0.069954
  0
VERTEX
  8
0
 10
145.938535
 20
197.591385
 42
-0.076397
  0
VERTEX
  8
0
 10
148.137518
 20
197.820099
 42
-0.016673
  0
VERTEX
  8
0
 10
151.944370
 20
197.506457
 42
0.000000
  0
VERTEX
  8
0
 10
158.000000
 20
196.803626
 42
0.000000
  0
VERTEX
  8
0
 10
158.000000
 20
189.901813
 42
0.017676
  0
VERTEX
  8
0
 10
158.158577
 20
185.417667
 42
0.126620
  0
VERTEX
  8
0
 10
158.840233
 20
183.378461
 42
0.357735
  0
VERTEX
  8
0
 10
160.014525
 20
183.003337
 42
0.102229
  0
VERTEX
  8
0
 10
161.733811
 20
184.133811
 42
-0.297809
  0
VERTEX
  8
0
 10
163.669945
 20
184.539419
 42
-0.044090
  0
VERTEX
  8
0
 10
167.427379
 20
182.675434
 42
-0.044787
  0
VERTEX
  8
0
 10
170.933251
 20
180.075264
 42
-0.177338
  0
VERTEX
  8
0
 10
172.180647
 20
177.748490
 42
0.075136
  0
VERTEX
  8
0
 10
172.510737
 20
176.646664
 42
0.127484
  0
VERTEX
  8
0
 10
173.123251
 20
175.911538
 42
0.098673
  0
VERTEX
  8
0
 10
174.138562
 20
175.451022
 42
0.033260
  0
VERTEX
  8
0
 10
175.750000
 20
175.186642
 42
0.024603
  0
VERTEX
  8
0
 10
177.282209
 20
175.114690
 42
0.085804
  0
VERTEX
  8
0
 10
178.253954
 20
175.284959
 42
0.155772
  0
VERTEX
  8
0
 10
178.794808
 20
175.699291
 42
0.153189
  0
VERTEX
  8
0
 10
179.000000
 20
176.353308
 42
0.077594
  0
VERTEX
  8
0
 10
178.906457
 20
176.952453
 42
0.066553
  0
VERTEX
  8
0
 10
178.632812
 20
177.529714
 42
0.068609
  0
VERTEX
  8
0
 10
178.227836
 20
177.998427
 42
0.094831
  0
VERTEX
  8
0
 10
177.750000
 20
178.279762
 42
-0.085034
  0
VERTEX
  8
0
 10
177.332890
 20
178.514548
 42
-0.138633
  0
VERTEX
  8
0
 10
177.100859
 20
178.844460
 42
-0.156709
  0
VERTEX
  8
0
 10
177.090971
 20
179.216889
 42
-0.117661
  0
VERTEX
  8
0
 10
177.295478
 20
179.575240
 42
-0.167576
  0
VERTEX
  8
0
 10
177.742474
 20
179.811310
 42
-0.071558
  0
VERTEX
  8
0
 10
178.427440
 20
179.818814
 42
-0.059484
  0
VERTEX
  8
0
 10
179.230465
 20
179.613130
 42
-0.047204
  0
VERTEX
  8
0
 10
180.031910
 20
179.212145
 42
0.010952
  0
VERTEX
  8
0
 10
180.812729
 20
178.747970
 42
0.013934
  0
VERTEX
  8
0
 10
181.553568
 20
178.356068
 42
0.011913
  0
VERTEX
  8
0
 10
182.184607
 20
178.062922
 42
0.103128
  0
VERTEX
  8
0
 10
182.486431
 20
178.000000
 42
0.369449
  0
VERTEX
  8
0
 10
182.969147
 20
178.413057
 42
0.107386
  0
VERTEX
  8
0
 10
182.906946
 20
179.470823
 42
0.062951
  0
VERTEX
  8
0
 10
182.286895
 20
180.943845
 42
0.043925
  0
VERTEX
  8
0
 10
181.250000
 20
182.421259
 42
-0.000460
  0
VERTEX
  8
0
 10
179.989033
 20
183.921904
 42
-0.448631
  0
VERTEX
  8
0
 10
180.000529
 20
184.000348
 42
-0.331714
  0
VERTEX
  8
0
 10
180.096075
 20
183.994729
 42
-0.000414
  0
VERTEX
  8
0
 10
181.650723
 20
182.684857
 42
0.082765
  0
VERTEX
  8
0
 10
183.562440
 20
181.549729
 42
0.420727
  0
VERTEX
  8
0
 10
184.575239
 20
182.009099
 42
0.229359
  0
VERTEX
  8
0
 10
184.411242
 20
183.604570
 42
0.058078
  0
VERTEX
  8
0
 10
182.748409
 20
185.706136
 42
0.023538
  0
VERTEX
  8
0
 10
181.324083
 20
187.002322
 42
0.101599
  0
VERTEX
  8
0
 10
180.318723
 20
187.536971
 42
0.137445
  0
VERTEX
  8
0
 10
179.348711
 20
187.549658
 42
0.057889
  0
VERTEX
  8
0
 10
178.125124
 20
187.066965
 42
-0.046413
  0
VERTEX
  8
0
 10
176.981736
 20
186.585384
 42
-0.082604
  0
VERTEX
  8
0
 10
175.973094
 20
186.442170
 42
-0.079697
  0
VERTEX
  8
0
 10
174.947890
 20
186.631744
 42
-0.040592
  0
VERTEX
  8
0
 10
173.750000
 20
187.171071
 42
-0.009728
  0
VERTEX
  8
0
 10
172.481561
 20
187.903478
 42
-0.183602
  0
VERTEX
  8
0
 10
172.203205
 20
188.258794
 42
-0.407604
  0
VERTEX
  8
0
 10
172.343539
 20
188.533214
 42
-0.029319
  0
VERTEX
  8
0
 10
173.250000
 20
188.779579
 42
0.035215
  0
VERTEX
  8
0
 10
173.919985
 20
188.970176
 42
0.048214
  0
VERTEX
  8
0
 10
174.485938
 20
189.239325
 42
0.057864
  0
VERTEX
  8
0
 10
174.878395
 20
189.541322
 42
0.202536
  0
VERTEX
  8
0
 10
175.000000
 20
189.829213
 42
-0.223408
  0
VERTEX
  8
0
 10
175.158377
 20
190.165978
 42
-0.024415
  0
VERTEX
  8
0
 10
175.861755
 20
190.692724
 42
-0.026142
  0
VERTEX
  8
0
 10
176.809821
 20
191.263205
 42
-0.018177
  0
VERTEX
  8
0
 10
177.933632
 20
191.810329
 42
-0.040558
  0
VERTEX
  8
0
 10
179.720490
 20
192.433670
 42
-0.109494
  0
VERTEX
  8
0
 10
181.055950
 20
192.482378
 42
-0.080222
  0
VERTEX
  8
0
 10
182.523980
 20
191.960165
 42
-0.015309
  0
VERTEX
  8
0
 10
184.972475
 20
190.517376
 42
-0.028924
  0
VERTEX
  8
0
 10
186.612624
 20
189.344159
 42
-0.026984
  0
VERTEX
  8
0
 10
188.146850
 20
187.963638
 42
-0.028012
  0
VERTEX
  8
0
 10
189.373425
 20
186.587836
 42
-0.077351
  0
VERTEX
  8
0
 10
190.014092
 20
185.462935
 42
0.057851
  0
VERTEX
  8
0
 10
190.529595
 20
184.470069
 42
0.068258
  0
VERTEX
  8
0
 10
191.235660
 20
183.682325
 42
0.075589
  0
VERTEX
  8
0
 10
192.058251
 20
183.174786
 42
0.100823
  0
VERTEX
  8
0
 10
192.916232
 20
183.000000
 42
0.091378
  0
VERTEX
  8
0
 10
194.493694
 20
183.290717
 42
0.160290
  0
VERTEX
  8
0
 10
195.513441
 20
184.119360
 42
0.233435
  0
VERTEX
  8
0
 10
195.629774
 20
185.154729
 42
0.169202
  0
VERTEX
  8
0
 10
194.886475
 20
186.070163
 42
-0.056431
  0
VERTEX
  8
0
 10
194.309728
 20
186.523646
 42
-0.162610
  0
VERTEX
  8
0
 10
194.082615
 20
186.971484
 42
-0.170985
  0
VERTEX
  8
0
 10
194.175643
 20
187.450656
 42
-0.063823
  0
VERTEX
  8
0
 10
194.600741
 20
188.000741
 42
-0.084637
  0
VERTEX
  8
0
 10
195.174792
 20
188.407559
 42
-0.161165
  0
VERTEX
  8
0
 10
195.729975
 20
188.479055
 42
-0.127687
  0
VERTEX
  8
0
 10
196.309219
 20
188.202451
 42
-0.044671
  0
VERTEX
  8
0
 10
196.964826
 20
187.542382
 42
0.030751
  0
VERTEX
  8
0
 10
197.519388
 20
186.952098
 42
0.033633
  0
VERTEX
  8
0
 10
198.126653
 20
186.453075
 42
0.035796
  0
VERTEX
  8
0
 10
198.698558
 20
186.103172
 42
0.119946
  0
VERTEX
  8
0
 10
199.122445
 20
186.000000
 42
0.293292
  0
VERTEX
  8
0
 10
199.816064
 20
186.445159
 42
0.176713
  0
VERTEX
  8
0
 10
199.896817
 20
187.454745
 42
0.082024
  0
VERTEX
  8
0
 10
199.187045
 20
188.987454
 42
0.039227
  0
VERTEX
  8
0
 10
197.825686
 20
190.685549
 42
-0.024736
  0
VERTEX
  8
0
 10
197.069135
 20
191.575190
 42
-0.058738
  0
VERTEX
  8
0
 10
196.624696
 20
192.320130
 42
-0.138571
  0
VERTEX
  8
0
 10
196.555448
 20
192.793717
 42
-0.376574
  0
VERTEX
  8
0
 10
196.790502
 20
193.000000
 42
-0.135834
  0
VERTEX
  8
0
 10
197.304201
 20
192.857822
 42
-0.049841
  0
VERTEX
  8
0
 10
197.913837
 20
192.404273
 42
-0.044814
  0
VERTEX
  8
0
 10
198.515521
 20
191.747958
 42
-0.040280
  0
VERTEX
  8
0
 10
199.014990
 20
190.971992
 42
0.046669
  0
VERTEX
  8
0
 10
199.500252
 20
190.238813
 42
0.069300
  0
VERTEX
  8
0
 10
200.060535
 20
189.712150
 42
0.092842
  0
VERTEX
  8
0
 10
200.604787
 20
189.461921
 42
0.202545
  0
VERTEX
  8
0
 10
201.050173
 20
189.531009
 42
0.118699
  0
VERTEX
  8
0
 10
201.732614
 20
190.219575
 42
0.201203
  0
VERTEX
  8
0
 10
201.850069
 20
191.009924
 42
0.095088
  0
VERTEX
  8
0
 10
201.340036
 20
192.095618
 42
0.016401
  0
VERTEX
  8
0
 10
199.937314
 20
193.897112
 42
0.028486
  0
VERTEX
  8
0
 10
198.743470
 20
195.175183
 42
0.124097
  0
VERTEX
  8
0
 10
197.849435
 20
195.681830
 42
0.137128
  0
VERTEX
  8
0
 10
196.871360
 20
195.678000
 42
0.037782
  0
VERTEX
  8
0
 10
195.413436
 20
195.142513
 42
-0.036656
  0
VERTEX
  8
0
 10
194.073269
 20
194.646854
 42
-0.073506
  0
VERTEX
  8
0
 10
192.957338
 20
194.496168
 42
-0.077754
  0
VERTEX
  8
0
 10
191.886858
 20
194.677416
 42
-0.045430
  0
VERTEX
  8
0
 10
190.692853
 20
195.201655
 42
-0.009518
  0
VERTEX
  8
0
 10
189.442823
 20
195.923281
 42
-0.190919
  0
VERTEX
  8
0
 10
189.181244
 20
196.266721
 42
-0.402775
  0
VERTEX
  8
0
 10
189.324303
 20
196.533529
 42
-0.026524
  0
VERTEX
  8
0
 10
190.250000
 20
196.779579
 42
0.138339
  0
VERTEX
  8
0
 10
191.515931
 20
197.441356
 42
0.235474
  0
VERTEX
  8
0
 10
191.918269
 20
198.537938
 42
0.155214
  0
VERTEX
  8
0
 10
191.307719
 20
199.909398
 42
0.062945
  0
VERTEX
  8
0
 10
189.750000
 20
201.270841
 42
-0.012655
  0
VERTEX
  8
0
 10
188.320506
 20
202.286731
 42
-0.389158
  0
VERTEX
  8
0
 10
188.246467
 20
202.681507
 42
-0.203873
  0
VERTEX
  8
0
 10
188.681596
 20
202.986732
 42
-0.005010
  0
VERTEX
  8
0
 10
191.125892
 20
203.480821
 42
-0.045376
  0
VERTEX
  8
0
 10
193.185567
 20
203.684859
 42
-0.053352
  0
VERTEX
  8
0
 10
195.136103
 20
203.492005
 42
-0.042314
  0
VERTEX
  8
0
 10
197.334616
 20
202.836582
 42
-0.016893
  0
VERTEX
  8
0
 10
200.222383
 20
201.588008
 42
0.014057
  0
VERTEX
  8
0
 10
204.742407
 20
199.603203
 42
0.086625
  0
VERTEX
  8
0
 10
207.216306
 20
199.068578
 42
0.275893
  0
VERTEX
  8
0
 10
208.374908
 20
199.699086
 42
0.176401
  0
VERTEX
  8
0
 10
208.664852
 20
201.250000
 42
-0.007506
  0
VERTEX
  8
0
 10
208.543487
 20
202.056404
 42
-0.047182
  0
VERTEX
  8
0
 10
208.526828
 20
202.471875
 42
-0.714548
  0
VERTEX
  8
0
 10
208.597051
 20
202.491744
 42
-0.069143
  0
VERTEX
  8
0
 10
208.719124
 20
202.250000
 42
0.173546
  0
VERTEX
  8
0
 10
209.472463
 20
201.305379
 42
0.192168
  0
VERTEX
  8
0
 10
210.617863
 20
201.103805
 42
0.110388
  0
VERTEX
  8
0
 10
212.118311
 20
201.783590
 42
0.042859
  0
VERTEX
  8
0
 10
213.825686
 20
203.314451
 42
0.055420
  0
VERTEX
  8
0
 10
215.403871
 20
205.418865
 42
0.136807
  0
VERTEX
  8
0
 10
215.897154
 20
207.267128
 42
0.171005
  0
VERTEX
  8
0
 10
215.324254
 20
208.837336
 42
0.098915
  0
VERTEX
  8
0
 10
213.750000
 20
210.123516
 42
-0.031759
  0
VERTEX
  8
0
 10
212.796470
 20
210.709883
 42
-0.021765
  0
VERTEX
  8
0
 10
211.791211
 20
211.487422
 42
-0.021998
  0
VERTEX
  8
0
 10
210.884903
 20
212.324765
 42
-0.040903
  0
VERTEX
  8
0
 10
210.241356
 20
213.090085
 42
0.089448
  0
VERTEX
  8
0
 10
209.408324
 20
213.905898
 42
0.020434
  0
VERTEX
  8
0
 10
207.725771
 20
214.950658
 42
0.020504
  0
VERTEX
  8
0
 10
205.657352
 20
216.011269
 42
0.018697
  0
VERTEX
  8
0
 10
203.445121
 20
216.934649
 42
-0.012024
  0
VERTEX
  8
0
 10
197.756502
 20
219.220424
 42
-0.026236
  0
VERTEX
  8
0
 10
193.542995
 20
221.300544
 42
-0.029388
  0
VERTEX
  8
0
 10
190.682916
 20
223.132947
 42
-0.240016
  0
VERTEX
  8
0
 10
190.000000
 20
224.473639
 42
-0.130841
  0
VERTEX
  8
0
 10
190.179404
 20
225.147482
 42
-0.041232
  0
VERTEX
  8
0
 10
190.775456
 20
226.013465
 42
-0.037975
  0
VERTEX
  8
0
 10
191.629613
 20
226.910068
 42
-0.034047
  0
VERTEX
  8
0
 10
192.639851
 20
227.703315
 42
0.048968
  0
VERTEX
  8
0
 10
198.987259
 20
233.000435
 42
0.194709
  0
VERTEX
  8
0
 10
200.891933
 20
237.596297
 42
0.123914
  0
VERTEX
  8
0
 10
199.451188
 20
243.527565
 42
0.015486
  0
VERTEX
  8
0
 10
192.866997
 20
255.139051
 42
-0.000063
  0
VERTEX
  8
0
 10
189.608949
 20
260.492903
 42
-0.000075
  0
VERTEX
  8
0
 10
186.545618
 20
265.529909
 42
-0.000064
  0
VERTEX
  8
0
 10
183.965775
 20
269.774587
 42
-0.000503
  0
VERTEX
  8
0
 10
182.768221
 20
271.750000
 42
0.045483
  0
VERTEX
  8
0
 10
181.284753
 20
273.763878
 42
0.112126
  0
VERTEX
  8
0
 10
179.801013
 20
274.826923
 42
0.218492
  0
VERTEX
  8
0
 10
178.599640
 20
274.788643
 42
0.199321
  0
VERTEX
  8
0
 10
177.782753
 20
273.848258
 42
-0.546449
  0
VERTEX
  8
0
 10
177.322966
 20
273.731433
 42
-0.005745
  0
VERTEX
  8
0
 10
174.471336
 20
276.457539
 42
-0.011191
  0
VERTEX
  8
0
 10
171.046515
 20
279.961146
 42
-0.006338
  0
VERTEX
  8
0
 10
167.048957
 20
284.348258
 42
0.001305
  0
VERTEX
  8
0
 10
163.059852
 20
288.815594
 42
0.002136
  0
VERTEX
  8
0
 10
159.654013
 20
292.577301
 42
0.000246
  0
VERTEX
  8
0
 10
156.603985
 20
295.913925
 42
0.210465
  0
VERTEX
  8
0
 10
156.408555
 20
296.000000
 42
0.181452
  0
VERTEX
  8
0
 10
156.261381
 20
295.944772
 42
0.026922
  0
VERTEX
  8
0
 10
156.030176
 20
295.719759
 42
0.027414
  0
VERTEX
  8
0
 10
155.775450
 20
295.411331
 42
0.020487
  0
SEQEND
  0
POLYLINE
  8
0
 66
1
 70
1
  0
VERTEX
  8
0
 10
171.949082
 20
274.895871
 42
0.012029
  0
VERTEX
  8
0
 10
174.713386
 20
271.875589
 42
0.020842
  0
VERTEX
  8
0
 10
177.169768
 20
269.522682
 42
0.020728
  0
VERTEX
  8
0
 10
179.212894
 20
267.867928
 42
0.158360
  0
VERTEX
  8
0
 10
180.368924
 20
267.478156
 42
-0.228046
  0
VERTEX
  8
0
 10
182.219517
 20
266.562420
 42
-0.011514
  0
VERTEX
  8
0
 10
186.351359
 20
261.011079
 42
-0.017542
  0
VERTEX
  8
0
 10
190.808937
 20
254.233049
 42
-0.014998
  0
VERTEX
  8
0
 10
195.031587
 20
246.800625
 42
-0.071993
  0
VERTEX
  8
0
 10
196.317776
 20
243.198243
 42
-0.161881
  0
VERTEX
  8
0
 10
195.969465
 20
240.352357
 42
-0.134768
  0
VERTEX
  8
0
 10
193.893215
 20
237.940137
 42
-0.043978
  0
VERTEX
  8
0
 10
189.744693
 20
235.650634
 42
0.021528
  0
VERTEX
  8
0
 10
186.865514
 20
234.226165
 42
0.062355
  0
VERTEX
  8
0
 10
185.068643
 20
232.924179
 42
0.069874
  0
VERTEX
  8
0
 10
183.762544
 20
231.308020
 42
0.032377
  0
VERTEX
  8
0
 10
182.524191
 20
228.902634
 42
-0.002783
  0
VERTEX
  8
0
 10
180.839193
 20
225.091351
 42
-0.093602
  0
VERTEX
  8
0
 10
180.273200
 20
224.278942
 42
-0.333647
  0
VERTEX
  8
0
 10
179.660884
 20
224.197911
 42
-0.045088
  0
VERTEX
  8
0
 10
178.524166
 20
224.979944
 42
-0.155007
  0
VERTEX
  8
0
 10
177.448200
 20
226.656736
 42
-0.065224
  0
VERTEX
  8
0
 10
177.089845
 20
229.341874
 42
-0.059997
  0
VERTEX
  8
0
 10
177.443891
 20
232.342747
 42
-0.070624
  0
VERTEX
  8
0
 10
178.500000
 20
235.000000
 42
0.106690
  0
VERTEX
  8
0
 10
179.784056
 20
239.054033
 42
0.091975
  0
VERTEX
  8
0
 10
179.385026
 20
243.512032
 42
0.094928
  0
VERTEX
  8
0
 10
177.442367
 20
247.413458
 42
0.123621
  0
VERTEX
  8
0
 10
174.334729
 20
249.893349
 42
-0.029063
  0
VERTEX
  8
0
 10
173.440891
 20
250.365113
 42
-0.037605
  0
VERTEX
  8
0
 10
172.685827
 20
250.902934
 42
-0.041314
  0
VERTEX
  8
0
 10
172.151900
 20
251.427629
 42
-0.179785
  0
VERTEX
  8
0
 10
172.000000
 20
251.836425
 42
0.221511
  0
VERTEX
  8
0
 10
171.771758
 20
252.326339
 42
0.010342
  0
VERTEX
  8
0
 10
170.310937
 20
253.503181
 42
0.015453
  0
VERTEX
  8
0
 10
168.453354
 20
254.847812
 42
0.010323
  0
VERTEX
  8
0
 10
166.250000
 20
256.275721
 42
-0.024032
  0
VERTEX
  8
0
 10
162.201721
 20
259.059716
 42
-0.019879
  0
VERTEX
  8
0
 10
158.165080
 20
262.392863
 42
-0.017992
  0
VERTEX
  8
0
 10
155.102949
 20
265.338223
 42
-0.662212
  0
VERTEX
  8
0
 10
155.383503
 20
266.000000
 42
-0.149402
  0
VERTEX
  8
0
 10
155.860267
 20
265.854289
 42
-0.006654
  0
VERTEX
  8
0
 10
157.293193
 20
264.860176
 42
-0.010711
  0
VERTEX
  8
0
 10
158.972706
 20
263.606416
 42
-0.007406
  0
VERTEX
  8
0
 10
160.820594
 20
262.119748
 42
0.008883
  0
VERTEX
  8
0
 10
168.045209
 20
256.342451
 42
0.320587
  0
VERTEX
  8
0
 10
170.063688
 20
256.269145
 42
0.474302
  0
VERTEX
  8
0
 10
170.220898
 20
257.822403
 42
0.009559
  0
VERTEX
  8
0
 10
163.750229
 20
264.056660
 42
-0.007253
  0
VERTEX
  8
0
 10
158.157890
 20
269.395171
 42
-0.182966
  0
VERTEX
  8
0
 10
157.286779
 20
271.283705
 42
-0.657004
  0
VERTEX
  8
0
 10
158.056392
 20
271.682892
 42
-0.008698
  0
VERTEX
  8
0
 10
163.539547
 20
267.050624
 42
0.015092
  0
VERTEX
  8
0
 10
167.156500
 20
264.073363
 42
0.049302
  0
VERTEX
  8
0
 10
169.779785
 20
262.428739
 42
0.133331
  0
VERTEX
  8
0
 10
171.325752
 20
262.121202
 42
0.394222
  0
VERTEX
  8
0
 10
172.000000
 20
262.843463
 42
0.188328
  0
VERTEX
  8
0
 10
171.805151
 20
263.342427
 42
0.008760
  0
VERTEX
  8
0
 10
170.528593
 20
264.679868
 42
0.013482
  0
VERTEX
  8
0
 10
168.910223
 20
266.231050
 42
0.009176
  0
VERTEX
  8
0
 10
166.990954
 20
267.910617
 42
-0.029861
  0
VERTEX
  8
0
 10
163.769726
 20
270.973737
 42
-0.032060
  0
VERTEX
  8
0
 10
161.017605
 20
274.330455
 42
-0.028881
  0
VERTEX
  8
0
 10
159.114418
 20
277.333260
 42
-0.334877
  0
VERTEX
  8
0
 10
159.295884
 20
278.629217
 42
-0.405184
  0
VERTEX
  8
0
 10
159.623248
 20
278.634280
 42
-0.005962
  0
VERTEX
  8
0
 10
161.145118
 20
277.169178
 42
-0.012303
  0
VERTEX
  8
0
 10
162.931522
 20
275.319038
 42
-0.007345
  0
VERTEX
  8
0
 10
164.968564
 20
273.036287
 42
0.017212
  0
VERTEX
  8
0
 10
168.426892
 20
269.311433
 42
0.068586
  0
VERTEX
  8
0
 10
170.900451
 20
267.426703
 42
0.246855
  0
VERTEX
  8
0
 10
172.303033
 20
267.384453
 42
0.286709
  0
VERTEX
  8
0
 10
173.000000
 20
268.500000
 42
0.063084
  0
VERTEX
  8
0
 10
172.927351
 20
269.073519
 42
0.081148
  0
VERTEX
  8
0
 10
172.713901
 20
269.559375
 42
0.098293
  0
VERTEX
  8
0
 10
172.397482
 20
269.884491
 42
0.151902
  0
VERTEX
  8
0
 10
172.026045
 20
270.000000
 42
-0.240642
  0
VERTEX
  8
0
 10
170.593134
 20
270.732027
 42
-0.005399
  0
VERTEX
  8
0
 10
165.998890
 20
277.230482
 42
-0.007133
  0
VERTEX
  8
0
 10
161.661810
 20
283.703421
 42
-0.150786
  0
VERTEX
  8
0
 10
161.035963
 20
285.906829
 42
-0.138959
  0
VERTEX
  8
0
 10
161.202917
 20
286.449006
 42
-0.370197
  0
VERTEX
  8
0
 10
161.562303
 20
286.555009
 42
-0.097471
  0
VERTEX
  8
0
 10
162.202244
 20
286.101414
 42
-0.013812
  0
VERTEX
  8
0
 10
163.285963
 20
284.895871
 42
0.001923
  0
VERTEX
  8
0
 10
164.532870
 20
283.440653
 42
0.000396
  0
VERTEX
  8
0
 10
166.744044
 20
280.884168
 42
0.000416
  0
VERTEX
  8
0
 10
169.317690
 20
277.918352
 42
0.000392
  0
SEQEND
  0
POLYLINE
  8
0
 66
1
 70
1
  0
VERTEX
  8
0
 10
126.866002
 20
262.495243
 42
-0.006574
  0
VERTEX
  8
0
 10
129.677587
 20
261.744658
 42
-0.004419
  0
VERTEX
  8
0
 10
132.870103
 20
260.816727
 42
-0.004451
  0
VERTEX
  8
0
 10
135.944921
 20
259.863538
 42
-0.008785
  0
VERTEX
  8
0
 10
138.366002
 20
259.042161
 42
0.018603
  0
VERTEX
  8
0
 10
140.719449
 20
258.294913
 42
0.011142
  0
VERTEX
  8
0
 10
143.564171
 20
257.574711
 42
0.011149
  0
VERTEX
  8
0
 10
146.431326
 20
256.983407
 42
0.018999
  0
VERTEX
  8
0
 10
148.852452
 20
256.634579
 42
-0.029631
  0
VERTEX
  8
0
 10
151.204304
 20
256.244552
 42
-0.019568
  0
VERTEX
  8
0
 10
153.850963
 20
255.532777
 42
-0.019712
  0
VERTEX
  8
0
 10
156.378599
 20
254.635052
 42
-0.035687
  0
VERTEX
  8
0
 10
158.352452
 20
253.676628
 42
0.015798
  0
VERTEX
  8
0
 10
160.160180
 20
252.708274
 42
0.012660
  0
VERTEX
  8
0
 10
162.162908
 20
251.777959
 42
0.012855
  0
VERTEX
  8
0
 10
164.060359
 20
251.011635
 42
0.031495
  0
VERTEX
  8
0
 10
165.500000
 20
250.573925
 42
-0.070264
  0
VERTEX
  8
0
 10
170.211368
 20
248.733049
 42
-0.173024
  0
VERTEX
  8
0
 10
172.613085
 20
245.968891
 42
-0.173498
  0
VERTEX
  8
0
 10
172.719537
 20
242.314453
 42
-0.070716
  0
VERTEX
  8
0
 10
170.500000
 20
237.785188
 42
0.034363
  0
VERTEX
  8
0
 10
169.520668
 20
236.106620
 42
0.029031
  0
VERTEX
  8
0
 10
168.717275
 20
234.213832
 42
0.030074
  0
VERTEX
  8
0
 10
168.176959
 20
232.357420
 42
0.056116
  0
VERTEX
  8
0
 10
168.003738
 20
230.803054
 42
0.077626
  0
VERTEX
  8
0
 10
168.440757
 20
228.025733
 42
0.035961
  0
VERTEX
  8
0
 10
169.809178
 20
224.628345
 42
0.035963
  0
VERTEX
  8
0
 10
171.652614
 20
221.458117
 42
0.076681
  0
VERTEX
  8
0
 10
173.583372
 20
219.392440
 42
-0.302017
  0
VERTEX
  8
0
 10
174.178754
 20
217.584322
 42
-0.092986
  0
VERTEX
  8
0
 10
172.855865
 20
214.873131
 42
-0.078239
  0
VERTEX
  8
0
 10
170.383138
 20
212.450098
 42
-0.145459
  0
VERTEX
  8
0
 10
167.750000
 20
211.547606
 42
-0.026910
  0
VERTEX
  8
0
 10
166.696168
 20
211.560784
 42
-0.043140
  0
VERTEX
  8
0
 10
165.807813
 20
211.697354
 42
-0.053951
  0
VERTEX
  8
0
 10
165.183751
 20
211.922727
 42
-0.286590
  0
VERTEX
  8
0
 10
165.000000
 20
212.216978
 42
0.229880
  0
VERTEX
  8
0
 10
164.854399
 20
212.516931
 42
0.073585
  0
VERTEX
  8
0
 10
164.412500
 20
212.769987
 42
0.056069
  0
VERTEX
  8
0
 10
163.765922
 20
212.942785
 42
0.037299
  0
VERTEX
  8
0
 10
163.000000
 20
213.000000
 42
-0.048028
  0
VERTEX
  8
0
 10
162.234582
 20
213.073693
 42
-0.068025
  0
VERTEX
  8
0
 10
161.587500
 20
213.293750
 42
-0.088204
  0
VERTEX
  8
0
 10
161.151477
 20
213.618118
 42
-0.191087
  0
VERTEX
  8
0
 10
161.000000
 20
214.000000
 42
0.148195
  0
VERTEX
  8
0
 10
160.884432
 20
214.381354
 42
0.098894
  0
VERTEX
  8
0
 10
160.559375
 20
214.706250
 42
0.082425
  0
VERTEX
  8
0
 10
160.073457
 20
214.925306
 42
0.064853
  0
VERTEX
  8
0
 10
159.500000
 20
215.000000
 42
-0.064853
  0
VERTEX
  8
0
 10
158.926543
 20
215.074694
 42
-0.082425
  0
VERTEX
  8
0
 10
158.440625
 20
215.293750
 42
-0.098894
  0
VERTEX
  8
0
 10
158.115568
 20
215.618646
 42
-0.148195
  0
VERTEX
  8
0
 10
158.000000
 20
216.000000
 42
0.191087
  0
VERTEX
  8
0
 10
157.848523
 20
216.381882
 42
0.088204
  0
VERTEX
  8
0
 10
157.412500
 20
216.706250
 42
0.068025
  0
VERTEX
  8
0
 10
156.765418
 20
216.926307
 42
0.048028
  0
VERTEX
  8
0
 10
156.000000
 20
217.000000
 42
-0.072314
  0
VERTEX
  8
0
 10
155.230589
 20
217.111864
 42
-0.088920
  0
VERTEX
  8
0
 10
154.583333
 20
217.437500
 42
-0.102140
  0
VERTEX
  8
0
 10
154.153209
 20
217.924246
 42
-0.130775
  0
VERTEX
  8
0
 10
154.000000
 20
218.500000
 42
0.130258
  0
VERTEX
  8
0
 10
153.848362
 20
219.072192
 42
0.100732
  0
VERTEX
  8
0
 10
153.421897
 20
219.559511
 42
0.088591
  0
VERTEX
  8
0
 10
152.783784
 20
219.887182
 42
0.074555
  0
VERTEX
  8
0
 10
152.031385
 20
220.000000
 42
-0.051069
  0
VERTEX
  8
0
 10
151.183769
 20
220.086800
 42
-0.155809
  0
VERTEX
  8
0
 10
150.685920
 20
220.367392
 42
-0.195231
  0
VERTEX
  8
0
 10
150.507681
 20
220.836898
 42
-0.086117
  0
VERTEX
  8
0
 10
150.638374
 20
221.500000
 42
0.093029
  0
VERTEX
  8
0
 10
150.762289
 20
222.177573
 42
0.209178
  0
VERTEX
  8
0
 10
150.554926
 20
222.645618
 42
0.145807
  0
VERTEX
  8
0
 10
149.990492
 20
222.919499
 42
0.040570
  0
VERTEX
  8
0
 10
149.000000
 20
223.000000
 42
-0.039335
  0
VERTEX
  8
0
 10
147.978352
 20
223.080497
 42
-0.157511
  0
VERTEX
  8
0
 10
147.426103
 20
223.360822
 42
-0.214124
  0
VERTEX
  8
0
 10
147.238246
 20
223.849868
 42
-0.077977
  0
VERTEX
  8
0
 10
147.397138
 20
224.592541
 42
0.093138
  0
VERTEX
  8
0
 10
147.530988
 20
225.325330
 42
0.150354
  0
VERTEX
  8
0
 10
147.342949
 20
225.925663
 42
0.124603
  0
VERTEX
  8
0
 10
146.812071
 20
226.392078
 42
0.054339
  0
VERTEX
  8
0
 10
145.929364
 20
226.728723
 42
-0.152737
  0
VERTEX
  8
0
 10
145.301346
 20
227.121505
 42
-0.419889
  0
VERTEX
  8
0
 10
145.341849
 20
227.589608
 42
-0.070228
  0
VERTEX
  8
0
 10
146.420231
 20
228.249567
 42
-0.007408
  0
VERTEX
  8
0
 10
149.153051
 20
229.386182
 42
0.018249
  0
VERTEX
  8
0
 10
151.151423
 20
230.268617
 42
0.030209
  0
VERTEX
  8
0
 10
152.757637
 20
231.172816
 42
0.031303
  0
VERTEX
  8
0
 10
153.867728
 20
231.991944
 42
0.342035
  0
VERTEX
  8
0
 10
153.977813
 20
232.500000
 42
0.043480
  0
VERTEX
  8
0
 10
153.758088
 20
232.872747
 42
0.056782
  0
VERTEX
  8
0
 10
153.493483
 20
233.166647
 42
0.069074
  0
VERTEX
  8
0
 10
153.226281
 20
233.344177
 42
0.179872
  0
VERTEX
  8
0
 10
153.000000
 20
233.365183
 42
-0.001241
  0
VERTEX
  8
0
 10
149.157582
 20
232.339356
 42
-0.056004
  0
VERTEX
  8
0
 10
148.343955
 20
232.219285
 42
-0.681528
  0
VERTEX
  8
0
 10
148.252961
 20
232.429232
 42
-0.025380
  0
VERTEX
  8
0
 10
149.144947
 20
233.231647
 42
0.041454
  0
VERTEX
  8
0
 10
149.949811
 20
234.003856
 42
0.151121
  0
VERTEX
  8
0
 10
150.237226
 20
234.641850
 42
0.149501
  0
VERTEX
  8
0
 10
150.115749
 20
235.334930
 42
0.040287
  0
VERTEX
  8
0
 10
149.524811
 20
236.296956
 42
0.134819
  0
VERTEX
  8
0
 10
148.395048
 20
237.194599
 42
0.073668
  0
VERTEX
  8
0
 10
146.670749
 20
237.646498
 42
0.033235
  0
VERTEX
  8
0
 10
143.749204
 20
237.771608
 42
0.004989
  0
VERTEX
  8
0
 10
137.879864
 20
237.574169
 42
-0.000197
  0
VERTEX
  8
0
 10
130.824885
 20
237.269128
 42
-0.047045
  0
VERTEX
  8
0
 10
130.182806
 20
237.302033
 42
-0.884659
  0
VERTEX
  8
0
 10
130.184587
 20
237.379558
 42
-0.000419
  0
VERTEX
  8
0
 10
135.572522
 20
237.911627
 42
0.010422
  0
VERTEX
  8
0
 10
138.804515
 20
238.296222
 42
0.012336
  0
VERTEX
  8
0
 10
141.839937
 20
238.798401
 42
0.011221
  0
VERTEX
  8
0
 10
144.368682
 20
239.340204
 42
0.073214
  0
VERTEX
  8
0
 10
145.572522
 20
239.820580
 42
0.060804
  0
VERTEX
  8
0
 10
146.604026
 20
240.600349
 42
0.610962
  0
VERTEX
  8
0
 10
146.483501
 20
240.997205
 42
0.037654
  0
VERTEX
  8
0
 10
144.948175
 20
241.157139
 42
0.000731
  0
VERTEX
  8
0
 10
137.000000
 20
241.372265
 42
-0.010961
  0
VERTEX
  8
0
 10
133.215982
 20
241.552211
 42
-0.013549
  0
VERTEX
  8
0
 10
129.703125
 20
241.892388
 42
-0.011929
  0
VERTEX
  8
0
 10
126.792144
 20
242.324873
 42
-0.091215
  0
VERTEX
  8
0
 10
125.500000
 20
242.801343
 42
-0.335476
  0
VERTEX
  8
0
 10
125.287690
 20
243.320439
 42
-0.305228
  0
VERTEX
  8
0
 10
125.729763
 20
243.707534
 42
-0.034330
  0
VERTEX
  8
0
 10
127.913976
 20
243.834506
 42
-0.003838
  0
VERTEX
  8
0
 10
132.897131
 20
243.743597
 42
0.007996
  0
VERTEX
  8
0
 10
137.017966
 20
243.702696
 42
0.020390
  0
VERTEX
  8
0
 10
140.002191
 20
243.842583
 42
0.020742
  0
VERTEX
  8
0
 10
142.104891
 20
244.115547
 42
0.272086
  0
VERTEX
  8
0
 10
142.681485
 20
244.603063
 42
0.396061
  0
VERTEX
  8
0
 10
142.455476
 20
245.113808
 42
0.040174
  0
VERTEX
  8
0
 10
141.076372
 20
245.570328
 42
0.029107
  0
VERTEX
  8
0
 10
138.889830
 20
245.970858
 42
0.010875
  0
VERTEX
  8
0
 10
135.784354
 20
246.286290
 42
-0.014016
  0
VERTEX
  8
0
 10
132.702193
 20
246.618929
 42
-0.011849
  0
VERTEX
  8
0
 10
129.464779
 20
247.138840
 42
-0.012016
  0
VERTEX
  8
0
 10
126.534733
 20
247.754056
 42
-0.032363
  0
VERTEX
  8
0
 10
124.500000
 20
248.373889
 42
-0.019731
  0
VERTEX
  8
0
 10
122.401485
 20
249.260772
 42
-0.743256
  0
VERTEX
  8
0
 10
122.450786
 20
249.594057
 42
-0.049563
  0
VERTEX
  8
0
 10
123.960975
 20
249.664408
 42
-0.001275
  0
VERTEX
  8
0
 10
130.750000
 20
249.290343
 42
0.006906
  0
VERTEX
  8
0
 10
138.741782
 20
248.940228
 42
0.175221
  0
VERTEX
  8
0
 10
140.783836
 20
249.610039
 42
0.635810
  0
VERTEX
  8
0
 10
140.574770
 20
250.520365
 42
0.010638
  0
VERTEX
  8
0
 10
133.958443
 20
251.800394
 42
-0.019982
  0
VERTEX
  8
0
 10
128.586073
 20
252.944281
 42
-0.025697
  0
VERTEX
  8
0
 10
123.763965
 20
254.441895
 42
-0.036033
  0
VERTEX
  8
0
 10
120.643917
 20
255.852263
 42
-0.641865
  0
VERTEX
  8
0
 10
120.699373
 20
256.678078
 42
-0.129537
  0
VERTEX
  8
0
 10
121.508956
 20
256.763263
 42
-0.008981
  0
VERTEX
  8
0
 10
123.788630
 20
256.370145
 42
-0.012293
  0
VERTEX
  8
0
 10
126.520551
 20
255.778388
 42
-0.008917
  0
VERTEX
  8
0
 10
129.531767
 20
254.991086
 42
0.011810
  0
VERTEX
  8
0
 10
132.570720
 20
254.215286
 42
0.015366
  0
VERTEX
  8
0
 10
135.388130
 20
253.657065
 42
0.013003
  0
VERTEX
  8
0
 10
137.738586
 20
253.328550
 42
0.120394
  0
VERTEX
  8
0
 10
138.749611
 20
253.457411
 42
0.229034
  0
VERTEX
  8
0
 10
139.440997
 20
254.193507
 42
0.331690
  0
VERTEX
  8
0
 10
139.158004
 20
255.001845
 42
0.073900
  0
VERTEX
  8
0
 10
137.249100
 20
255.914474
 42
0.015156
  0
VERTEX
  8
0
 10
133.636191
 20
256.907095
 42
-0.022184
  0
VERTEX
  8
0
 10
131.354779
 20
257.568510
 42
-0.010478
  0
VERTEX
  8
0
 10
128.472057
 20
258.612606
 42
-0.010361
  0
VERTEX
  8
0
 10
125.495159
 20
259.833387
 42
-0.014398
  0
VERTEX
  8
0
 10
122.886191
 20
261.057451
 42
-0.009878
  0
VERTEX
  8
0
 10
119.217746
 20
263.001140
 42
-0.051056
  0
VERTEX
  8
0
 10
117.336695
 20
264.313075
 42
-0.658890
  0
VERTEX
  8
0
 10
117.471080
 20
264.739282
 42
-0.096854
  0
VERTEX
  8
0
 10
118.750000
 20
264.620068
 42
0.006500
  0
VERTEX
  8
0
 10
119.786622
 20
264.329766
 42
0.000998
  0
VERTEX
  8
0
 10
121.855951
 20
263.783584
 42
0.001115
  0
VERTEX
  8
0
 10
124.300401
 20
263.149432
 42
0.000968
  0
SEQEND
  0
POLYLINE
  8
0
 66
1
 70
1
  0
VERTEX
  8
0
 10
175.582793
 20
235.486014
 42
0.086561
  0
VERTEX
  8
0
 10
174.521779
 20
233.027011
 42
0.046856
  0
VERTEX
  8
0
 10
174.057275
 20
229.754807
 42
0.046894
  0
VERTEX
  8
0
 10
174.210093
 20
226.460096
 42
0.088059
  0
VERTEX
  8
0
 10
175.035184
 20
223.934259
 42
-0.038162
  0
VERTEX
  8
0
 10
175.750145
 20
222.311997
 42
-0.714317
  0
VERTEX
  8
0
 10
175.454671
 20
222.078350
 42
-0.095922
  0
VERTEX
  8
0
 10
174.436115
 20
223.051728
 42
-0.017323
  0
VERTEX
  8
0
 10
172.989040
 20
225.250000
 42
-0.050627
  0
VERTEX
  8
0
 10
171.516286
 20
228.327360
 42
-0.103013
  0
VERTEX
  8
0
 10
171.144144
 20
230.970155
 42
-0.096726
  0
VERTEX
  8
0
 10
171.852195
 20
233.650559
 42
-0.040959
  0
VERTEX
  8
0
 10
173.750000
 20
236.867557
 42
-0.034555
  0
VERTEX
  8
0
 10
175.700204
 20
239.259874
 42
-0.383182
  0
VERTEX
  8
0
 10
176.830278
 20
239.357217
 42
-0.356486
  0
VERTEX
  8
0
 10
177.112313
 20
238.204674
 42
-0.033800
  0
SEQEND
  0
POLYLINE
  8
0
 66
1
 70
1
  0
VERTEX
  8
0
 10
195.500000
 20
233.450248
 42
0.000789
  0
VERTEX
  8
0
 10
194.122599
 20
232.354144
 42
0.000441
  0
VERTEX
  8
0
 10
192.449433
 20
231.015944
 42
0.000440
  0
VERTEX
  8
0
 10
190.760058
 20
229.659897
 42
0.000714
  0
VERTEX
  8
0
 10
189.327857
 20
228.504836
 42
-0.022597
  0
VERTEX
  8
0
 10
188.074538
 20
227.581524
 42
-0.037856
  0
VERTEX
  8
0
 10
186.935699
 20
226.938406
 42
-0.045790
  0
VERTEX
  8
0
 10
186.040096
 20
226.614651
 42
-0.329333
  0
VERTEX
  8
0
 10
185.638841
 20
226.775351
 42
-0.235734
  0
VERTEX
  8
0
 10
185.493114
 20
228.380132
 42
-0.082474
  0
VERTEX
  8
0
 10
186.712560
 20
230.428247
 42
-0.067675
  0
VERTEX
  8
0
 10
188.869611
 20
232.374413
 42
-0.066926
  0
VERTEX
  8
0
 10
191.475840
 20
233.682755
 42
0.012821
  0
VERTEX
  8
0
 10
193.068178
 20
234.277100
 42
0.014443
  0
VERTEX
  8
0
 10
194.565041
 20
234.930822
 42
0.013776
  0
VERTEX
  8
0
 10
195.801120
 20
235.555909
 42
0.072539
  0
VERTEX
  8
0
 10
196.409173
 20
236.009173
 42
-0.057354
  0
VERTEX
  8
0
 10
196.817474
 20
236.333195
 42
-0.076723
  0
VERTEX
  8
0
 10
197.251861
 20
236.518434
 42
-0.095763
  0
VERTEX
  8
0
 10
197.643660
 20
236.541577
 42
-0.165226
  0
VERTEX
  8
0
 10
197.933333
 20
236.398262
 42
-0.344751
  0
VERTEX
  8
0
 10
197.976836
 20
236.037133
 42
-0.036504
  0
VERTEX
  8
0
 10
197.452292
 20
235.297816
 42
-0.032911
  0
VERTEX
  8
0
 10
196.609321
 20
234.403487
 42
-0.019645
  0
SEQEND
  0
POLYLINE
  8
0
 66
1
 70
1
  0
VERTEX
  8
0
 10
136.250000
 20
233.337719
 42
-0.057986
  0
VERTEX
  8
0
 10
135.679992
 20
233.181385
 42
-0.037979
  0
VERTEX
  8
0
 10
135.000000
 20
233.129660
 42
-0.037979
  0
VERTEX
  8
0
 10
134.320008
 20
233.181385
 42
-0.057986
  0
VERTEX
  8
0
 10
133.750000
 20
233.337719
 42
-0.174857
  0
VERTEX
  8
0
 10
133.540618
 20
233.525001
 42
-0.447206
  0
VERTEX
  8
0
 10
133.601562
 20
233.693942
 42
-0.078554
  0
VERTEX
  8
0
 10
134.108560
 20
233.810911
 42
-0.017491
  0
VERTEX
  8
0
 10
135.000000
 20
233.842105
 42
-0.017491
  0
VERTEX
  8
0
 10
135.891440
 20
233.810911
 42
-0.078554
  0
VERTEX
  8
0
 10
136.398438
 20
233.693942
 42
-0.447206
  0
VERTEX
  8
0
 10
136.459382
 20
233.525001
 42
-0.174857
  0
SEQEND
  0
POLYLINE
  8
0
 66
1
 70
1
  0
VERTEX
  8
0
 10
200.000000
 20
215.253568
 42
-0.537292
  0
VERTEX
  8
0
 10
199.974869
 20
215.131283
 42
-0.120454
  0
VERTEX
  8
0
 10
199.716909
 20
215.094330
 42
-0.036462
  0
VERTEX
  8
0
 10
199.134006
 20
215.194605
 42
-0.013654
  0
VERTEX
  8
0
 10
198.334157
 20
215.416450
 42
0.074284
  0
VERTEX
  8
0
 10
196.480220
 20
215.695825
 42
0.330131
  0
VERTEX
  8
0
 10
195.647167
 20
215.080152
 42
0.266462
  0
VERTEX
  8
0
 10
195.908077
 20
213.936070
 42
0.061507
  0
VERTEX
  8
0
 10
197.475785
 20
212.607823
 42
-0.035135
  0
VERTEX
  8
0
 10
198.687839
 20
211.685878
 42
-0.113095
  0
VERTEX
  8
0
 10
199.277000
 20
210.869356
 42
-0.132520
  0
VERTEX
  8
0
 10
199.402217
 20
209.956404
 42
-0.056447
  0
VERTEX
  8
0
 10
199.106641
 20
208.748439
 42
-0.102927
  0
VERTEX
  8
0
 10
198.354293
 20
207.542758
 42
-0.113069
  0
VERTEX
  8
0
 10
197.205629
 20
206.785912
 42
-0.056791
  0
VERTEX
  8
0
 10
195.235136
 20
206.295422
 42
-0.009697
  0
VERTEX
  8
0
 10
191.389443
 20
205.866376
 42
-0.012304
  0
VERTEX
  8
0
 10
188.684627
 20
205.684596
 42
-0.017137
  0
VERTEX
  8
0
 10
186.258518
 20
205.664637
 42
-0.013611
  0
VERTEX
  8
0
 10
184.278047
 20
205.770228
 42
-0.168255
  0
VERTEX
  8
0
 10
183.597002
 20
206.069374
 42
-0.182688
  0
VERTEX
  8
0
 10
182.894553
 20
207.479568
 42
-0.019967
  0
VERTEX
  8
0
 10
182.670468
 20
211.159189
 42
-0.024631
  0
VERTEX
  8
0
 10
182.788478
 20
215.319638
 42
-0.030188
  0
VERTEX
  8
0
 10
183.323215
 20
219.170856
 42
0.000000
  0
VERTEX
  8
0
 10
184.060931
 20
222.841712
 42
0.000000
  0
VERTEX
  8
0
 10
191.780466
 20
219.298652
 42
-0.002718
  0
VERTEX
  8
0
 10
194.774816
 20
217.904570
 42
-0.004042
  0
VERTEX
  8
0
 10
197.379262
 20
216.648896
 42
-0.001811
  0
VERTEX
  8
0
 10
199.585752
 20
215.553070
 42
-0.080886
  0
SEQEND
  0
POLYLINE
  8
0
 66
1
 70
1
  0
VERTEX
  8
0
 10
180.286304
 20
207.677613
 42
-0.021536
  0
VERTEX
  8
0
 10
180.557479
 20
205.341377
 42
-0.141747
  0
VERTEX
  8
0
 10
180.315533
 20
204.201355
 42
-0.147987
  0
VERTEX
  8
0
 10
179.507025
 20
203.391532
 42
-0.024152
  0
VERTEX
  8
0
 10
177.480995
 20
202.427613
 42
-0.034145
  0
VERTEX
  8
0
 10
174.017662
 20
201.250941
 42
-0.086451
  0
VERTEX
  8
0
 10
171.377811
 20
201.021282
 42
-0.148252
  0
VERTEX
  8
0
 10
169.660371
 20
201.707359
 42
-0.189802
  0
VERTEX
  8
0
 10
168.819551
 20
203.171672
 42
0.049283
  0
VERTEX
  8
0
 10
168.604604
 20
204.032905
 42
0.050767
  0
VERTEX
  8
0
 10
168.226681
 20
204.826341
 42
0.055997
  0
VERTEX
  8
0
 10
167.752213
 20
205.440417
 42
0.121324
  0
VERTEX
  8
0
 10
167.250000
 20
205.755005
 42
0.457685
  0
VERTEX
  8
0
 10
166.188545
 20
205.118291
 42
0.057594
  0
VERTEX
  8
0
 10
166.015244
 20
202.079830
 42
0.045976
  0
VERTEX
  8
0
 10
166.607783
 20
198.158553
 42
0.057468
  0
VERTEX
  8
0
 10
167.892201
 20
194.711442
 42
-0.005204
  0
VERTEX
  8
0
 10
169.110706
 20
192.258663
 42
-0.115287
  0
VERTEX
  8
0
 10
169.284287
 20
191.486439
 42
-0.356513
  0
VERTEX
  8
0
 10
168.968937
 20
191.106976
 42
-0.048157
  0
VERTEX
  8
0
 10
167.860816
 20
191.000000
 42
0.068524
  0
VERTEX
  8
0
 10
167.084377
 20
190.893089
 42
0.062867
  0
VERTEX
  8
0
 10
166.340892
 20
190.579419
 42
0.066716
  0
VERTEX
  8
0
 10
165.741058
 20
190.115769
 42
0.103648
  0
VERTEX
  8
0
 10
165.387811
 20
189.568236
 42
-0.108728
  0
VERTEX
  8
0
 10
165.034052
 20
189.031818
 42
-0.072763
  0
VERTEX
  8
0
 10
164.436020
 20
188.599519
 42
-0.068006
  0
VERTEX
  8
0
 10
163.693913
 20
188.332964
 42
-0.071174
  0
VERTEX
  8
0
 10
162.919196
 20
188.281040
 42
-0.156809
  0
VERTEX
  8
0
 10
161.905466
 20
188.693325
 42
-0.156438
  0
VERTEX
  8
0
 10
161.320801
 20
189.619527
 42
-0.056534
  0
VERTEX
  8
0
 10
161.056541
 20
191.497822
 42
-0.006707
  0
VERTEX
  8
0
 10
161.000000
 20
195.712804
 42
0.011954
  0
VERTEX
  8
0
 10
160.931045
 20
198.596453
 42
0.022144
  0
VERTEX
  8
0
 10
160.715693
 20
200.928201
 42
0.019193
  0
VERTEX
  8
0
 10
160.408019
 20
202.670840
 42
0.353079
  0
VERTEX
  8
0
 10
160.000000
 20
203.000000
 42
0.148195
  0
VERTEX
  8
0
 10
159.618646
 20
202.884432
 42
0.098894
  0
VERTEX
  8
0
 10
159.293750
 20
202.559375
 42
0.082425
  0
VERTEX
  8
0
 10
159.074694
 20
202.073457
 42
0.064853
  0
VERTEX
  8
0
 10
159.000000
 20
201.500000
 42
-0.145727
  0
VERTEX
  8
0
 10
158.810509
 20
200.863648
 42
-0.124872
  0
VERTEX
  8
0
 10
158.294219
 20
200.388902
 42
-0.086259
  0
VERTEX
  8
0
 10
157.435774
 20
200.101606
 42
-0.039127
  0
VERTEX
  8
0
 10
156.250000
 20
200.015313
 42
-0.037674
  0
VERTEX
  8
0
 10
153.053296
 20
200.274427
 42
-0.391019
  0
VERTEX
  8
0
 10
152.303517
 20
201.222518
 42
-0.207048
  0
VERTEX
  8
0
 10
153.083582
 20
202.703907
 42
-0.016966
  0
VERTEX
  8
0
 10
156.661118
 20
205.389064
 42
-0.013004
  0
VERTEX
  8
0
 10
159.913548
 20
207.538237
 42
-0.058646
  0
VERTEX
  8
0
 10
161.969730
 20
208.508150
 42
-0.079141
  0
VERTEX
  8
0
 10
163.885853
 20
208.828485
 42
-0.035993
  0
VERTEX
  8
0
 10
166.428341
 20
208.664876
 42
0.029058
  0
VERTEX
  8
0
 10
169.009131
 20
208.462865
 42
0.104511
  0
VERTEX
  8
0
 10
170.622637
 20
208.770247
 42
0.085002
  0
VERTEX
  8
0
 10
172.147634
 20
209.739378
 42
0.015400
  0
VERTEX
  8
0
 10
174.573375
 20
212.075143
 42
-0.015911
  0
VERTEX
  8
0
 10
177.459566
 20
214.848602
 42
-0.362109
  0
VERTEX
  8
0
 10
178.528599
 20
214.890123
 42
-0.185830
  0
VERTEX
  8
0
 10
179.258628
 20
213.692186
 42
-0.005304
  0
SEQEND
  0
POLYLINE
  8
0
 66
1
 70
1
  0
VERTEX
  8
0
 10
204.000000
 20
214.000000
 42
-0.027796
  0
VERTEX
  8
0
 10
204.514186
 20
213.625641
 42
-0.102785
  0
VERTEX
  8
0
 10
204.765625
 20
213.315379
 42
-0.335455
  0
VERTEX
  8
0
 10
204.732273
 20
213.122372
 42
-0.190341
  0
VERTEX
  8
0
 10
204.500000
 20
213.030626
 42
-0.067616
  0
VERTEX
  8
0
 10
204.012663
 20
213.096832
 42
-0.024967
  0
VERTEX
  8
0
 10
203.353125
 20
213.315379
 42
-0.024204
  0
VERTEX
  8
0
 10
202.647707
 20
213.628962
 42
-0.026766
  0
VERTEX
  8
0
 10
202.000000
 20
214.000000
 42
-0.027796
  0
VERTEX
  8
0
 10
201.485814
 20
214.374359
 42
-0.102785
  0
VERTEX
  8
0
 10
201.234375
 20
214.684621
 42
-0.335455
  0
VERTEX
  8
0
 10
201.267727
 20
214.877628
 42
-0.190341
  0
VERTEX
  8
0
 10
201.500000
 20
214.969374
 42
-0.067616
  0
VERTEX
  8
0
 10
201.987337
 20
214.903168
 42
-0.024967
  0
VERTEX
  8
0
 10
202.646875
 20
214.684621
 42
-0.024204
  0
VERTEX
  8
0
 10
203.352293
 20
214.371038
 42
-0.026766
  0
SEQEND
  0
POLYLINE
  8
0
 66
1
 70
1
  0
VERTEX
  8
0
 10
142.916667
 20
210.627176
 42
-0.065832
  0
VERTEX
  8
0
 10
141.366437
 20
209.570136
 42
-0.022572
  0
VERTEX
  8
0
 10
138.881447
 20
208.454926
 42
-0.015581
  0
VERTEX
  8
0
 10
136.435711
 20
207.574498
 42
-0.509596
  0
VERTEX
  8
0
 10
136.000000
 20
207.890987
 42
-0.198886
  0
VERTEX
  8
0
 10
136.177671
 20
208.319983
 42
-0.042397
  0
VERTEX
  8
0
 10
136.807813
 20
208.851557
 42
-0.038200
  0
VERTEX
  8
0
 10
137.697015
 20
209.384145
 42
-0.028284
  0
VERTEX
  8
0
 10
138.750000
 20
209.837719
 42
-0.012073
  0
VERTEX
  8
0
 10
140.695530
 20
210.495502
 42
-0.028667
  0
VERTEX
  8
0
 10
142.177391
 20
210.865323
 42
-0.092864
  0
VERTEX
  8
0
 10
142.849502
 20
210.866702
 42
-0.622960
  0
SEQEND
  0
POLYLINE
  8
0
 66
1
 70
1
  0
VERTEX
  8
0
 10
212.654923
 20
207.456872
 42
-0.050913
  0
VERTEX
  8
0
 10
213.033877
 20
206.058658
 42
-0.417231
  0
VERTEX
  8
0
 10
212.683745
 20
205.576028
 42
-0.184843
  0
VERTEX
  8
0
 10
211.783943
 20
205.770565
 42
-0.019166
  0
VERTEX
  8
0
 10
209.985060
 20
207.046157
 42
0.000000
  0
VERTEX
  8
0
 10
207.500000
 20
208.955528
 42
0.000000
  0
VERTEX
  8
0
 10
209.781385
 20
208.977764
 42
-0.062844
  0
VERTEX
  8
0
 10
210.697837
 20
208.871183
 42
-0.061450
  0
VERTEX
  8
0
 10
211.566558
 20
208.540174
 42
-0.066782
  0
VERTEX
  8
0
 10
212.259232
 20
208.045503
 42
-0.113196
  0
SEQEND
  0
POLYLINE
  8
0
 66
1
 70
1
  0
VERTEX
  8
0
 10
131.500000
 20
205.384784
 42
-0.035006
  0
VERTEX
  8
0
 10
130.208357
 20
204.520277
 42
-0.004110
  0
VERTEX
  8
0
 10
127.186102
 20
202.823298
 42
-0.004909
  0
VERTEX
  8
0
 10
123.551350
 20
200.867788
 42
-0.004001
  0
VERTEX
  8
0
 10
119.622899
 20
198.843688
 42
-0.007197
  0
VERTEX
  8
0
 10
114.954696
 20
196.569253
 42
-0.023874
  0
VERTEX
  8
0
 10
111.797296
 20
195.266819
 42
-0.031957
  0
VERTEX
  8
0
 10
109.634027
 20
194.645680
 42
-0.255639
  0
VERTEX
  8
0
 10
108.672899
 20
194.927101
 42
-0.301549
  0
VERTEX
  8
0
 10
108.418183
 20
196.185955
 42
-0.157159
  0
VERTEX
  8
0
 10
109.491817
 20
197.466125
 42
-0.040153
  0
VERTEX
  8
0
 10
112.737810
 20
199.159699
 42
-0.004382
  0
VERTEX
  8
0
 10
120.528874
 20
202.379248
 42
-0.002512
  0
VERTEX
  8
0
 10
128.364021
 20
205.491244
 42
-0.026422
  0
VERTEX
  8
0
 10
131.636477
 20
206.576503
 42
-0.558477
  0
VERTEX
  8
0
 10
132.018007
 20
206.220167
 42
-0.179867
  0
SEQEND
  0
POLYLINE
  8
0
 66
1
 70
1
  0
VERTEX
  8
0
 10
185.299422
 20
201.367245
 42
-0.407628
  0
VERTEX
  8
0
 10
185.309516
 20
200.471368
 42
-0.038709
  0
VERTEX
  8
0
 10
183.512220
 20
198.861144
 42
-0.039736
  0
VERTEX
  8
0
 10
181.298507
 20
197.430508
 42
-0.124211
  0
VERTEX
  8
0
 10
179.592271
 20
197.000000
 42
-0.132869
  0
VERTEX
  8
0
 10
178.392870
 20
197.324454
 42
-0.356021
  0
VERTEX
  8
0
 10
178.103660
 20
198.096644
 42
-0.147450
  0
VERTEX
  8
0
 10
178.906360
 20
199.224618
 42
-0.040633
  0
VERTEX
  8
0
 10
180.750000
 20
200.428025
 42
-0.009038
  0
VERTEX
  8
0
 10
182.813663
 20
201.499764
 42
-0.064423
  0
VERTEX
  8
0
 10
183.875811
 20
201.866254
 42
-0.141492
  0
VERTEX
  8
0
 10
184.613345
 20
201.808959
 42
-0.107094
  0
SEQEND
  0
POLYLINE
  8
0
 66
1
 70
1
  0
VERTEX
  8
0
 10
131.000000
 20
199.559532
 42
-0.278217
  0
VERTEX
  8
0
 10
130.312040
 20
198.418858
 42
-0.003590
  0
VERTEX
  8
0
 10
122.571694
 20
194.406846
 42
-0.004227
  0
VERTEX
  8
0
 10
114.853095
 20
190.557975
 42
-0.208057
  0
VERTEX
  8
0
 10
113.179682
 20
190.484544
 42
-0.260009
  0
VERTEX
  8
0
 10
112.594439
 20
191.185556
 42
-0.287644
  0
VERTEX
  8
0
 10
112.913028
 20
191.999015
 42
-0.043647
  0
VERTEX
  8
0
 10
114.999356
 20
193.278458
 42
-0.003526
  0
VERTEX
  8
0
 10
120.781610
 20
196.113198
 42
-0.006417
  0
VERTEX
  8
0
 10
125.547987
 20
198.333460
 42
-0.024457
  0
VERTEX
  8
0
 10
128.600859
 20
199.532302
 42
-0.041179
  0
VERTEX
  8
0
 10
130.483596
 20
199.998983
 42
-0.462094
  0
SEQEND
  0
POLYLINE
  8
0
 66
1
 70
1
  0
VERTEX
  8
0
 10
174.984687
 20
196.750000
 42
-0.050145
  0
VERTEX
  8
0
 10
174.920072
 20
196.177843
 42
-0.026319
  0
VERTEX
  8
0
 10
174.732129
 20
195.486096
 42
-0.025898
  0
VERTEX
  8
0
 10
174.462698
 20
194.790826
 42
-0.035967
  0
VERTEX
  8
0
 10
174.146416
 20
194.202666
 42
-0.041146
  0
VERTEX
  8
0
 10
173.673792
 20
193.577770
 42
-0.213408
  0
VERTEX
  8
0
 10
173.288179
 20
193.405331
 42
-0.195903
  0
VERTEX
  8
0
 10
172.880321
 20
193.571510
 42
-0.034361
  0
VERTEX
  8
0
 10
172.317429
 20
194.202666
 42
-0.014691
  0
VERTEX
  8
0
 10
170.789143
 20
196.297800
 42
-0.159677
  0
VERTEX
  8
0
 10
170.499895
 20
197.288176
 42
-0.342601
  0
VERTEX
  8
0
 10
170.955706
 20
197.837463
 42
-0.054553
  0
VERTEX
  8
0
 10
172.440983
 20
198.000000
 42
-0.046917
  0
VERTEX
  8
0
 10
173.419309
 20
197.907997
 42
-0.067407
  0
VERTEX
  8
0
 10
174.243791
 20
197.632812
 42
-0.088178
  0
VERTEX
  8
0
 10
174.796785
 20
197.227366
 42
-0.196080
  0
SEQEND
  0
POLYLINE
  8
0
 66
1
 70
1
  0
VERTEX
  8
0
 10
136.000000
 20
196.058447
 42
-0.229989
  0
VERTEX
  8
0
 10
135.255567
 20
194.525642
 42
-0.008270
  0
VERTEX
  8
0
 10
129.919251
 20
190.468738
 42
-0.010329
  0
VERTEX
  8
0
 10
124.525558
 20
186.676236
 42
-0.151277
  0
VERTEX
  8
0
 10
122.325956
 20
186.015313
 42
-0.070506
  0
VERTEX
  8
0
 10
120.758706
 20
186.250842
 42
-0.052034
  0
VERTEX
  8
0
 10
119.136664
 20
186.925035
 42
-0.066198
  0
VERTEX
  8
0
 10
118.032378
 20
187.730351
 42
-0.424557
  0
VERTEX
  8
0
 10
118.028960
 20
188.351042
 42
-0.071270
  0
VERTEX
  8
0
 10
119.742633
 20
189.603160
 42
-0.003006
  0
VERTEX
  8
0
 10
126.430411
 20
193.107870
 42
-0.002072
  0
VERTEX
  8
0
 10
133.344885
 20
196.642339
 42
-0.114787
  0
VERTEX
  8
0
 10
134.750000
 20
196.985934
 42
-0.073826
  0
VERTEX
  8
0
 10
135.227627
 20
196.920509
 42
-0.088942
  0
VERTEX
  8
0
 10
135.632812
 20
196.719287
 42
-0.101869
  0
VERTEX
  8
0
 10
135.903559
 20
196.416386
 42
-0.132357
  0
SEQEND
  0
POLYLINE
  8
0
 66
1
 70
1
  0
VERTEX
  8
0
 10
44.571152
 20
134.779285
 42
0.000496
  0
VERTEX
  8
0
 10
42.323451
 20
129.983767
 42
0.000717
  0
VERTEX
  8
0
 10
40.346837
 20
125.739852
 42
0.000365
  0
VERTEX
  8
0
 10
38.677442
 20
122.135189
 42
0.011841
  0
VERTEX
  8
0
 10
38.293448
 20
121.250000
 42
0.165972
  0
VERTEX
  8
0
 10
38.263799
 20
120.727372
 42
0.185845
  0
VERTEX
  8
0
 10
38.563474
 20
120.324686
 42
0.104805
  0
VERTEX
  8
0
 10
39.235898
 20
120.075660
 42
0.036474
  0
VERTEX
  8
0
 10
40.271691
 20
120.000000
 42
0.069620
  0
VERTEX
  8
0
 10
41.502775
 20
120.172252
 42
0.100218
  0
VERTEX
  8
0
 10
42.476969
 20
120.676710
 42
0.085789
  0
VERTEX
  8
0
 10
43.279525
 20
121.587953
 42
0.039572
  0
VERTEX
  8
0
 10
44.000000
 20
123.000000
 42
-0.043802
  0
VERTEX
  8
0
 10
44.893934
 20
124.716050
 42
-0.143624
  0
VERTEX
  8
0
 10
45.847187
 20
125.548252
 42
-0.095070
  0
VERTEX
  8
0
 10
47.329846
 20
125.915546
 42
-0.013318
  0
VERTEX
  8
0
 10
50.500000
 20
126.000000
 42
-0.013318
  0
VERTEX
  8
0
 10
53.670154
 20
125.915546
 42
-0.095070
  0
VERTEX
  8
0
 10
55.152813
 20
125.548252
 42
-0.143624
  0
VERTEX
  8
0
 10
56.106066
 20
124.716050
 42
-0.043802
  0
VERTEX
  8
0
 10
57.000000
 20
123.000000
 42
0.039836
  0
VERTEX
  8
0
 10
57.709984
 20
121.610329
 42
0.082390
  0
VERTEX
  8
0
 10
58.508319
 20
120.693401
 42
0.097600
  0
VERTEX
  8
0
 10
59.462741
 20
120.177641
 42
0.075355
  0
VERTEX
  8
0
 10
60.634740
 20
120.000000
 42
0.028896
  0
VERTEX
  8
0
 10
62.072781
 20
120.083177
 42
0.296560
  0
VERTEX
  8
0
 10
62.509856
 20
120.445493
 42
0.167961
  0
VERTEX
  8
0
 10
62.487840
 20
121.160918
 42
0.009455
  0
VERTEX
  8
0
 10
61.647396
 20
123.250000
 42
0.004359
  0
VERTEX
  8
0
 10
58.659389
 20
130.122599
 42
0.003125
  0
VERTEX
  8
0
 10
55.204591
 20
137.754393
 42
0.000928
  0
VERTEX
  8
0
 10
51.752570
 20
145.218430
 42
0.075592
  0
VERTEX
  8
0
 10
51.048485
 20
146.279285
 42
0.504298
  0
VERTEX
  8
0
 10
50.597077
 20
146.233900
 42
0.005869
  0
VERTEX
  8
0
 10
48.854108
 20
143.222615
 42
0.011695
  0
VERTEX
  8
0
 10
46.834971
 20
139.433179
 42
0.006721
  0
SEQEND
  0
POLYLINE
  8
0
 66
1
 70
1
  0
VERTEX
  8
0
 10
52.788629
 20
132.750000
 42
-0.018076
  0
VERTEX
  8
0
 10
53.460510
 20
130.995099
 42
-0.261933
  0
VERTEX
  8
0
 10
53.343839
 20
130.364192
 42
-0.210098
  0
VERTEX
  8
0
 10
52.716946
 20
130.052497
 42
-0.011810
  0
VERTEX
  8
0
 10
50.494740
 20
130.000000
 42
0.000000
  0
VERTEX
  8
0
 10
47.032357
 20
130.000000
 42
0.000000
  0
VERTEX
  8
0
 10
48.706166
 20
133.510013
 42
-0.021292
  0
VERTEX
  8
0
 10
49.926122
 20
135.810761
 42
-0.316123
  0
VERTEX
  8
0
 10
50.711881
 20
136.169517
 42
-0.236833
  0
VERTEX
  8
0
 10
51.496167
 20
135.574344
 42
-0.013689
  0
SEQEND
  0
POLYLINE
  8
0
 66
1
 70
1
  0
VERTEX
  8
0
 10
122.177246
 20
134.210445
 42
0.001957
  0
VERTEX
  8
0
 10
119.809507
 20
129.241092
 42
0.003059
  0
VERTEX
  8
0
 10
117.814566
 20
124.943672
 42
0.000860
  0
VERTEX
  8
0
 10
116.109047
 20
121.193033
 42
0.106667
  0
VERTEX
  8
0
 10
116.000000
 20
120.687691
 42
0.376370
  0
VERTEX
  8
0
 10
116.671563
 20
119.921911
 42
0.088162
  0
VERTEX
  8
0
 10
118.523334
 20
120.005220
 42
0.070734
  0
VERTEX
  8
0
 10
120.527627
 20
120.764358
 42
0.192364
  0
VERTEX
  8
0
 10
121.473472
 20
121.916419
 42
-0.153376
  0
VERTEX
  8
0
 10
122.762430
 20
123.753931
 42
-0.102300
  0
VERTEX
  8
0
 10
125.094134
 20
124.882616
 42
-0.086910
  0
VERTEX
  8
0
 10
128.042519
 20
125.099830
 42
-0.074684
  0
VERTEX
  8
0
 10
131.059786
 20
124.332815
 42
-0.024760
  0
VERTEX
  8
0
 10
132.428179
 20
123.675960
 42
-0.025410
  0
VERTEX
  8
0
 10
133.712728
 20
122.892181
 42
-0.026200
  0
VERTEX
  8
0
 10
134.751482
 20
122.100787
 42
-0.089525
  0
VERTEX
  8
0
 10
135.289306
 20
121.447523
 42
0.180659
  0
VERTEX
  8
0
 10
136.514140
 20
120.409293
 42
0.077426
  0
VERTEX
  8
0
 10
138.652267
 20
119.995601
 42
0.115937
  0
VERTEX
  8
0
 10
140.324388
 20
120.324585
 42
0.406609
  0
VERTEX
  8
0
 10
140.686845
 20
121.250000
 42
0.006377
  0
VERTEX
  8
0
 10
137.968946
 20
127.472145
 42
0.002392
  0
VERTEX
  8
0
 10
134.007201
 20
136.124895
 42
0.000527
  0
VERTEX
  8
0
 10
129.732003
 20
145.320026
 42
0.080397
  0
VERTEX
  8
0
 10
129.084794
 20
146.272754
 42
0.496245
  0
VERTEX
  8
0
 10
128.618385
 20
146.222354
 42
0.005451
  0
VERTEX
  8
0
 10
126.754452
 20
143.048212
 42
0.011334
  0
VERTEX
  8
0
 10
124.598770
 20
139.077799
 42
0.006545
  0
SEQEND
  0
POLYLINE
  8
0
 66
1
 70
1
  0
VERTEX
  8
0
 10
129.868879
 20
132.657991
 42
-0.098039
  0
VERTEX
  8
0
 10
130.450813
 20
131.585826
 42
-0.243490
  0
VERTEX
  8
0
 10
130.299096
 20
130.732052
 42
-0.176901
  0
VERTEX
  8
0
 10
129.421008
 20
130.172852
 42
-0.054275
  0
VERTEX
  8
0
 10
127.833333
 20
130.000000
 42
-0.144806
  0
VERTEX
  8
0
 10
126.746631
 20
130.321462
 42
-0.166231
  0
VERTEX
  8
0
 10
126.080493
 20
131.169004
 42
-0.156123
  0
VERTEX
  8
0
 10
126.050268
 20
132.291150
 42
-0.126310
  0
VERTEX
  8
0
 10
126.666667
 20
133.333333
 42
-0.093126
  0
VERTEX
  8
0
 10
127.425114
 20
133.851860
 42
-0.156719
  0
VERTEX
  8
0
 10
128.185129
 20
133.930462
 42
-0.122130
  0
VERTEX
  8
0
 10
128.984581
 20
133.543387
 42
-0.046059
  0
SEQEND
  0
POLYLINE
  8
0
 66
1
 70
1
  0
VERTEX
  8
0
 10
97.641848
 20
142.250000
 42
0.022896
  0
VERTEX
  8
0
 10
97.401299
 20
140.221331
 42
0.005837
  0
VERTEX
  8
0
 10
97.200855
 20
136.915803
 42
0.005937
  0
VERTEX
  8
0
 10
97.060744
 20
133.132439
 42
0.005985
  0
VERTEX
  8
0
 10
97.011006
 20
129.356989
 42
0.012830
  0
VERTEX
  8
0
 10
97.179985
 20
122.448666
 42
0.176627
  0
VERTEX
  8
0
 10
98.139352
 20
120.178046
 42
0.214639
  0
VERTEX
  8
0
 10
100.250270
 20
119.289236
 42
0.019954
  0
VERTEX
  8
0
 10
106.032877
 20
119.661225
 42
0.010816
  0
VERTEX
  8
0
 10
109.221246
 20
120.064364
 42
0.061744
  0
VERTEX
  8
0
 10
110.862967
 20
120.520024
 42
0.139663
  0
VERTEX
  8
0
 10
111.689969
 20
121.177372
 42
0.156681
  0
VERTEX
  8
0
 10
112.000000
 20
122.142456
 42
0.130804
  0
VERTEX
  8
0
 10
111.748286
 20
123.088174
 42
0.175476
  0
VERTEX
  8
0
 10
111.077068
 20
123.657123
 42
0.076983
  0
VERTEX
  8
0
 10
109.725074
 20
123.934064
 42
0.012096
  0
VERTEX
  8
0
 10
107.000000
 20
124.000000
 42
-0.009909
  0
VERTEX
  8
0
 10
103.857673
 20
124.062280
 42
-0.118260
  0
VERTEX
  8
0
 10
102.696429
 20
124.390000
 42
-0.221976
  0
VERTEX
  8
0
 10
102.155035
 20
125.142862
 42
-0.046676
  0
VERTEX
  8
0
 10
102.000000
 20
126.800000
 42
-0.072665
  0
VERTEX
  8
0
 10
102.354133
 20
129.223897
 42
-0.146726
  0
VERTEX
  8
0
 10
103.404602
 20
130.821947
 42
-0.127042
  0
VERTEX
  8
0
 10
105.283767
 20
131.718526
 42
-0.048148
  0
VERTEX
  8
0
 10
108.200000
 20
132.000000
 42
0.019179
  0
VERTEX
  8
0
 10
110.219919
 20
132.077509
 42
0.102297
  0
VERTEX
  8
0
 10
111.275000
 20
132.381579
 42
0.181790
  0
VERTEX
  8
0
 10
111.811680
 20
132.985315
 42
0.092012
  0
VERTEX
  8
0
 10
112.000000
 20
134.000000
 42
0.111565
  0
VERTEX
  8
0
 10
111.763379
 20
135.047266
 42
0.189886
  0
VERTEX
  8
0
 10
111.116306
 20
135.651372
 42
0.082852
  0
VERTEX
  8
0
 10
109.785745
 20
135.935583
 42
0.011279
  0
VERTEX
  8
0
 10
106.930449
 20
136.000000
 42
-0.009195
  0
VERTEX
  8
0
 10
103.870515
 20
136.056276
 42
-0.101748
  0
VERTEX
  8
0
 10
102.687702
 20
136.345198
 42
-0.245110
  0
VERTEX
  8
0
 10
102.196686
 20
136.994219
 42
-0.077157
  0
VERTEX
  8
0
 10
102.180449
 20
138.250000
 42
-0.088261
  0
VERTEX
  8
0
 10
102.564270
 20
139.419384
 42
-0.140684
  0
VERTEX
  8
0
 10
103.293864
 20
140.167676
 42
-0.084164
  0
VERTEX
  8
0
 10
104.600784
 20
140.645603
 42
-0.018000
  0
VERTEX
  8
0
 10
107.000000
 20
141.000000
 42
0.018000
  0
VERTEX
  8
0
 10
109.399216
 20
141.354397
 42
0.084164
  0
VERTEX
  8
0
 10
110.706136
 20
141.832324
 42
0.140684
  0
VERTEX
  8
0
 10
111.435730
 20
142.580616
 42
0.088261
  0
VERTEX
  8
0
 10
111.819551
 20
143.750000
 42
0.103669
  0
VERTEX
  8
0
 10
111.736461
 20
145.016340
 42
0.247635
  0
VERTEX
  8
0
 10
111.108256
 20
145.680446
 42
0.076615
  0
VERTEX
  8
0
 10
109.567916
 20
145.952376
 42
0.005452
  0
VERTEX
  8
0
 10
105.200393
 20
146.000000
 42
0.000000
  0
VERTEX
  8
0
 10
98.261685
 20
146.000000
 42
0.000000
  0
SEQEND
  0
POLYLINE
  8
0
 66
1
 70
1
  0
VERTEX
  8
0
 10
148.718562
 20
144.223391
 42
0.088611
  0
VERTEX
  8
0
 10
146.505706
 20
142.237199
 42
0.036512
  0
VERTEX
  8
0
 10
144.257844
 20
138.876855
 42
0.036395
  0
VERTEX
  8
0
 10
142.534234
 20
135.251723
 42
0.095897
  0
VERTEX
  8
0
 10
142.021962
 20
132.434276
 42
0.057219
  0
VERTEX
  8
0
 10
142.149529
 20
131.424503
 42
0.015537
  0
VERTEX
  8
0
 10
142.581257
 20
129.870909
 42
0.015510
  0
VERTEX
  8
0
 10
143.184889
 20
128.126498
 42
0.015543
  0
VERTEX
  8
0
 10
143.895106
 20
126.424139
 42
0.123572
  0
VERTEX
  8
0
 10
147.451752
 20
121.955306
 42
0.109661
  0
VERTEX
  8
0
 10
152.853756
 20
119.450135
 42
0.111651
  0
VERTEX
  8
0
 10
158.727452
 20
119.488907
 42
0.132062
  0
VERTEX
  8
0
 10
163.609529
 20
122.102897
 42
0.080786
  0
VERTEX
  8
0
 10
165.368721
 20
124.391311
 42
0.038289
  0
VERTEX
  8
0
 10
166.881904
 20
127.801475
 42
0.035561
  0
VERTEX
  8
0
 10
167.816392
 20
131.178117
 42
0.190370
  0
VERTEX
  8
0
 10
167.485740
 20
133.023073
 42
0.189217
  0
VERTEX
  8
0
 10
166.977211
 20
133.404238
 42
0.023704
  0
VERTEX
  8
0
 10
165.607911
 20
133.713028
 42
0.025206
  0
VERTEX
  8
0
 10
163.877438
 20
133.928709
 42
0.018401
  0
VERTEX
  8
0
 10
161.940983
 20
134.000000
 42
0.010564
  0
VERTEX
  8
0
 10
158.943818
 20
133.936671
 42
0.106945
  0
VERTEX
  8
0
 10
157.744098
 20
133.623507
 42
0.216343
  0
VERTEX
  8
0
 10
157.178348
 20
132.918522
 42
0.062618
  0
VERTEX
  8
0
 10
157.000000
 20
131.500000
 42
0.047734
  0
VERTEX
  8
0
 10
157.097720
 20
130.478748
 42
0.083213
  0
VERTEX
  8
0
 10
157.394098
 20
129.683732
 42
0.111514
  0
VERTEX
  8
0
 10
157.856992
 20
129.181832
 42
0.152080
  0
VERTEX
  8
0
 10
158.440983
 20
129.000000
 42
-0.117725
  0
VERTEX
  8
0
 10
159.729890
 20
128.692263
 42
-0.175838
  0
VERTEX
  8
0
 10
160.514876
 20
127.856261
 42
-0.168785
  0
VERTEX
  8
0
 10
160.598818
 20
126.682617
 42
-0.107842
  0
VERTEX
  8
0
 10
159.963645
 20
125.456195
 42
-0.157310
  0
VERTEX
  8
0
 10
157.891177
 20
124.139446
 42
-0.102581
  0
VERTEX
  8
0
 10
155.037006
 20
123.998050
 42
-0.090245
  0
VERTEX
  8
0
 10
152.039252
 20
125.041463
 42
-0.089321
  0
VERTEX
  8
0
 10
149.588894
 20
127.076725
 42
-0.028333
  0
VERTEX
  8
0
 10
148.598078
 20
128.399592
 42
-0.028122
  0
VERTEX
  8
0
 10
147.760488
 20
129.829212
 42
-0.029302
  0
VERTEX
  8
0
 10
147.174303
 20
131.159100
 42
-0.089379
  0
VERTEX
  8
0
 10
147.000000
 20
132.126385
 42
-0.083072
  0
VERTEX
  8
0
 10
147.279894
 20
133.799410
 42
-0.015861
  0
VERTEX
  8
0
 10
148.379216
 20
136.691505
 42
-0.009252
  0
VERTEX
  8
0
 10
149.654541
 20
139.598158
 42
-0.292657
  0
VERTEX
  8
0
 10
150.282282
 20
140.000000
 42
0.064349
  0
VERTEX
  8
0
 10
150.451583
 20
140.021879
 42
0.001050
  0
VERTEX
  8
0
 10
151.378036
 20
140.267485
 42
0.002717
  0
VERTEX
  8
0
 10
152.454750
 20
140.561623
 42
0.001798
  0
VERTEX
  8
0
 10
153.688236
 20
140.910587
 42
-0.041785
  0
VERTEX
  8
0
 10
155.444273
 20
141.258840
 42
-0.066814
  0
VERTEX
  8
0
 10
156.970652
 20
141.226514
 42
-0.058904
  0
VERTEX
  8
0
 10
158.565256
 20
140.781280
 42
-0.025519
  0
VERTEX
  8
0
 10
160.560580
 20
139.839534
 42
0.050463
  0
VERTEX
  8
0
 10
163.345392
 20
138.691025
 42
0.169780
  0
VERTEX
  8
0
 10
165.285918
 20
138.780404
 42
0.325809
  0
VERTEX
  8
0
 10
165.988995
 20
139.905601
 42
0.122304
  0
VERTEX
  8
0
 10
165.379368
 20
141.777524
 42
0.140577
  0
VERTEX
  8
0
 10
162.505745
 20
144.365978
 42
0.077191
  0
VERTEX
  8
0
 10
157.946116
 20
145.775629
 42
0.073699
  0
VERTEX
  8
0
 10
152.931124
 20
145.768763
 42
0.101903
  0
SEQEND
  0
POLYLINE
  8
0
 66
1
 70
1
  0
VERTEX
  8
0
 10
173.641848
 20
142.250000
 42
0.022896
  0
VERTEX
  8
0
 10
173.401299
 20
140.221331
 42
0.005837
  0
VERTEX
  8
0
 10
173.200855
 20
136.915803
 42
0.005937
  0
VERTEX
  8
0
 10
173.060744
 20
133.132439
 42
0.005985
  0
VERTEX
  8
0
 10
173.011006
 20
129.356989
 42
0.011822
  0
VERTEX
  8
0
 10
173.164135
 20
122.534100
 42
0.161960
  0
VERTEX
  8
0
 10
174.042369
 20
120.250968
 42
0.228206
  0
VERTEX
  8
0
 10
175.985382
 20
119.351091
 42
0.025726
  0
VERTEX
  8
0
 10
180.968676
 20
119.682696
 42
0.014519
  0
VERTEX
  8
0
 10
183.571651
 20
120.067907
 42
0.069676
  0
VERTEX
  8
0
 10
184.993943
 20
120.531494
 42
0.140175
  0
VERTEX
  8
0
 10
185.727822
 20
121.191896
 42
0.140798
  0
VERTEX
  8
0
 10
186.000000
 20
122.139291
 42
0.112391
  0
VERTEX
  8
0
 10
185.789532
 20
123.063787
 42
0.173641
  0
VERTEX
  8
0
 10
185.212570
 20
123.633706
 42
0.091133
  0
VERTEX
  8
0
 10
184.089294
 20
123.924884
 42
0.017971
  0
VERTEX
  8
0
 10
182.000000
 20
124.000000
 42
0.000000
  0
VERTEX
  8
0
 10
178.000000
 20
124.000000
 42
0.000000
  0
VERTEX
  8
0
 10
178.000000
 20
135.000000
 42
0.003606
  0
VERTEX
  8
0
 10
177.952350
 20
141.606667
 42
0.038492
  0
VERTEX
  8
0
 10
177.707519
 20
144.278749
 42
0.130530
  0
VERTEX
  8
0
 10
177.140108
 20
145.522823
 42
0.224485
  0
VERTEX
  8
0
 10
176.130842
 20
146.000000
 42
0.120225
  0
VERTEX
  8
0
 10
175.222008
 20
145.778265
 42
0.127236
  0
VERTEX
  8
0
 10
174.539689
 20
145.165534
 42
0.080418
  0
VERTEX
  8
0
 10
174.033427
 20
144.048348
 42
0.025300
  0
SEQEND
  0
POLYLINE
  8
0
 66
1
 70
1
  0
VERTEX
  8
0
 10
190.641848
 20
142.250000
 42
0.022896
  0
VERTEX
  8
0
 10
190.401299
 20
140.221331
 42
0.005837
  0
VERTEX
  8
0
 10
190.200855
 20
136.915803
 42
0.005937
  0
VERTEX
  8
0
 10
190.060744
 20
133.132439
 42
0.005985
  0
VERTEX
  8
0
 10
190.011006
 20
129.356989
 42
0.012830
  0
VERTEX
  8
0
 10
190.179985
 20
122.448666
 42
0.176627
  0
VERTEX
  8
0
 10
191.139352
 20
120.178046
 42
0.214639
  0
VERTEX
  8
0
 10
193.250270
 20
119.289236
 42
0.019954
  0
VERTEX
  8
0
 10
199.032877
 20
119.661225
 42
0.010816
  0
VERTEX
  8
0
 10
202.221246
 20
120.064364
 42
0.061744
  0
VERTEX
  8
0
 10
203.862967
 20
120.520024
 42
0.139663
  0
VERTEX
  8
0
 10
204.689969
 20
121.177372
 42
0.156681
  0
VERTEX
  8
0
 10
205.000000
 20
122.142456
 42
0.130804
  0
VERTEX
  8
0
 10
204.748286
 20
123.088174
 42
0.175476
  0
VERTEX
  8
0
 10
204.077068
 20
123.657123
 42
0.076983
  0
VERTEX
  8
0
 10
202.725074
 20
123.934064
 42
0.012096
  0
VERTEX
  8
0
 10
200.000000
 20
124.000000
 42
-0.009909
  0
VERTEX
  8
0
 10
196.857673
 20
124.062280
 42
-0.118260
  0
VERTEX
  8
0
 10
195.696429
 20
124.390000
 42
-0.221976
  0
VERTEX
  8
0
 10
195.155035
 20
125.142862
 42
-0.046676
  0
VERTEX
  8
0
 10
195.000000
 20
126.800000
 42
-0.072665
  0
VERTEX
  8
0
 10
195.354133
 20
129.223897
 42
-0.146726
  0
VERTEX
  8
0
 10
196.404602
 20
130.821947
 42
-0.127042
  0
VERTEX
  8
0
 10
198.283767
 20
131.718526
 42
-0.048148
  0
VERTEX
  8
0
 10
201.200000
 20
132.000000
 42
0.019179
  0
VERTEX
  8
0
 10
203.219919
 20
132.077509
 42
0.102297
  0
VERTEX
  8
0
 10
204.275000
 20
132.381579
 42
0.181790
  0
VERTEX
  8
0
 10
204.811680
 20
132.985315
 42
0.092012
  0
VERTEX
  8
0
 10
205.000000
 20
134.000000
 42
0.111565
  0
VERTEX
  8
0
 10
204.763379
 20
135.047266
 42
0.189886
  0
VERTEX
  8
0
 10
204.116306
 20
135.651372
 42
0.082852
  0
VERTEX
  8
0
 10
202.785745
 20
135.935583
 42
0.011279
  0
VERTEX
  8
0
 10
199.930449
 20
136.000000
 42
-0.009195
  0
VERTEX
  8
0
 10
196.870515
 20
136.056276
 42
-0.101748
  0
VERTEX
  8
0
 10
195.687702
 20
136.345198
 42
-0.245110
  0
VERTEX
  8
0
 10
195.196686
 20
136.994219
 42
-0.077157
  0
VERTEX
  8
0
 10
195.180449
 20
138.250000
 42
-0.088261
  0
VERTEX
  8
0
 10
195.564270
 20
139.419384
 42
-0.140684
  0
VERTEX
  8
0
 10
196.293864
 20
140.167676
 42
-0.084164
  0
VERTEX
  8
0
 10
197.600784
 20
140.645603
 42
-0.018000
  0
VERTEX
  8
0
 10
200.000000
 20
141.000000
 42
0.018000
  0
VERTEX
  8
0
 10
202.399216
 20
141.354397
 42
0.084164
  0
VERTEX
  8
0
 10
203.706136
 20
141.832324
 42
0.140684
  0
VERTEX
  8
0
 10
204.435730
 20
142.580616
 42
0.088261
  0
VERTEX
  8
0
 10
204.819551
 20
143.750000
 42
0.103669
  0
VERTEX
  8
0
 10
204.736461
 20
145.016340
 42
0.247635
  0
VERTEX
  8
0
 10
204.108256
 20
145.680446
 42
0.076615
  0
VERTEX
  8
0
 10
202.567916
 20
145.952376
 42
0.005452
  0
VERTEX
  8
0
 10
198.200393
 20
146.000000
 42
0.000000
  0
VERTEX
  8
0
 10
191.261685
 20
146.000000
 42
0.000000
  0
SEQEND
  0
POLYLINE
  8
0
 66
1
 70
1
  0
VERTEX
  8
0
 10
65.000000
 20
130.902769
 42
0.004609
  0
VERTEX
  8
0
 10
65.054139
 20
125.029236
 42
0.029580
  0
VERTEX
  8
0
 10
65.284395
 20
122.067128
 42
0.069646
  0
VERTEX
  8
0
 10
65.726633
 20
120.504445
 42
0.297308
  0
VERTEX
  8
0
 10
66.500000
 20
120.000000
 42
0.236339
  0
VERTEX
  8
0
 10
67.232574
 20
120.366757
 42
0.106151
  0
VERTEX
  8
0
 10
67.694238
 20
121.370829
 42
0.045935
  0
VERTEX
  8
0
 10
67.938083
 20
123.270688
 42
0.008962
  0
VERTEX
  8
0
 10
68.000000
 20
126.724972
 42
0.000000
  0
VERTEX
  8
0
 10
68.000000
 20
133.449945
 42
0.000000
  0
VERTEX
  8
0
 10
75.500000
 20
126.000000
 42
0.000000
  0
VERTEX
  8
0
 10
83.000000
 20
118.550055
 42
0.000000
  0
VERTEX
  8
0
 10
83.000000
 20
129.848352
 42
0.003438
  0
VERTEX
  8
0
 10
82.953937
 20
136.547297
 42
0.036140
  0
VERTEX
  8
0
 10
82.718630
 20
139.276649
 42
0.132568
  0
VERTEX
  8
0
 10
82.180400
 20
140.475939
 42
0.274875
  0
VERTEX
  8
0
 10
81.250000
 20
140.814349
 42
0.166313
  0
VERTEX
  8
0
 10
80.365895
 20
140.311356
 42
0.100005
  0
VERTEX
  8
0
 10
79.755123
 20
139.255861
 42
0.050448
  0
VERTEX
  8
0
 10
79.330079
 20
137.393826
 42
0.011229
  0
VERTEX
  8
0
 10
79.000000
 20
134.141911
 42
0.000000
  0
VERTEX
  8
0
 10
78.500000
 20
127.801772
 42
0.000000
  0
VERTEX
  8
0
 10
71.750000
 20
134.803655
 42
0.000000
  0
VERTEX
  8
0
 10
65.000000
 20
141.805539
 42
0.000000
  0
SEQEND
  0
POLYLINE
  8
0
 66
1
 70
1
  0
VERTEX
  8
0
 10
218.388431
 20
139.569852
 42
0.097680
  0
VERTEX
  8
0
 10
217.795211
 20
136.148168
 42
0.023324
  0
VERTEX
  8
0
 10
218.199368
 20
130.360605
 42
0.021539
  0
VERTEX
  8
0
 10
219.112834
 20
124.679656
 42
0.134060
  0
VERTEX
  8
0
 10
220.433526
 20
122.073453
 42
0.125370
  0
VERTEX
  8
0
 10
222.792396
 20
120.508384
 42
0.084144
  0
VERTEX
  8
0
 10
225.998104
 20
119.963166
 42
0.084174
  0
VERTEX
  8
0
 10
229.203295
 20
120.504717
 42
0.125630
  0
VERTEX
  8
0
 10
231.560704
 20
122.067077
 42
0.152375
  0
VERTEX
  8
0
 10
233.094062
 20
125.382964
 42
0.026729
  0
VERTEX
  8
0
 10
233.631153
 20
132.319739
 42
0.022786
  0
VERTEX
  8
0
 10
233.483466
 20
139.113157
 42
0.394636
  0
VERTEX
  8
0
 10
232.000000
 20
140.500000
 42
0.256268
  0
VERTEX
  8
0
 10
231.241558
 20
140.083948
 42
0.079985
  0
VERTEX
  8
0
 10
230.708879
 20
138.850566
 42
0.038165
  0
VERTEX
  8
0
 10
230.317244
 20
136.592948
 42
0.008059
  0
VERTEX
  8
0
 10
230.000000
 20
132.603395
 42
-0.009728
  0
VERTEX
  8
0
 10
229.670697
 20
128.630037
 42
-0.035757
  0
VERTEX
  8
0
 10
229.235189
 20
126.147009
 42
-0.059899
  0
VERTEX
  8
0
 10
228.627374
 20
124.555268
 42
-0.132242
  0
VERTEX
  8
0
 10
227.750000
 20
123.608510
 42
-0.051921
  0
VERTEX
  8
0
 10
226.835711
 20
123.159267
 42
-0.088470
  0
VERTEX
  8
0
 10
226.000000
 20
123.010230
 42
-0.088470
  0
VERTEX
  8
0
 10
225.164289
 20
123.159267
 42
-0.051921
  0
VERTEX
  8
0
 10
224.250000
 20
123.608510
 42
-0.131714
  0
VERTEX
  8
0
 10
223.374175
 20
124.551631
 42
-0.059897
  0
VERTEX
  8
0
 10
222.765718
 20
126.135166
 42
-0.035946
  0
VERTEX
  8
0
 10
222.329200
 20
128.599241
 42
-0.009901
  0
VERTEX
  8
0
 10
222.000000
 20
132.524476
 42
0.011191
  0
VERTEX
  8
0
 10
221.709378
 20
135.885545
 42
0.025212
  0
VERTEX
  8
0
 10
221.304455
 20
138.409966
 42
0.028155
  0
VERTEX
  8
0
 10
220.821131
 20
140.185619
 42
0.236829
  0
VERTEX
  8
0
 10
220.250526
 20
140.754239
 42
0.126747
  0
VERTEX
  8
0
 10
219.726876
 20
140.789070
 42
0.095482
  0
VERTEX
  8
0
 10
219.188128
 20
140.576307
 42
0.085116
  0
VERTEX
  8
0
 10
218.716506
 20
140.148839
 42
0.074698
  0
SEQEND
  0
POLYLINE
  8
0
 66
1
 70
1
  0
VERTEX
  8
0
 10
239.574630
 20
139.082465
 42
0.112621
  0
VERTEX
  8
0
 10
238.331497
 20
136.866633
 42
0.145017
  0
VERTEX
  8
0
 10
238.333951
 20
134.543011
 42
0.117583
  0
VERTEX
  8
0
 10
239.664465
 20
132.236221
 42
0.060086
  0
VERTEX
  8
0
 10
242.250000
 20
130.086999
 42
-0.054376
  0
VERTEX
  8
0
 10
244.641179
 20
128.144931
 42
-0.120745
  0
VERTEX
  8
0
 10
245.839524
 20
126.144435
 42
-0.201933
  0
VERTEX
  8
0
 10
245.672634
 20
124.466437
 42
-0.178550
  0
VERTEX
  8
0
 10
244.344242
 20
123.301857
 42
-0.105570
  0
VERTEX
  8
0
 10
243.547151
 20
123.176453
 42
-0.085036
  0
VERTEX
  8
0
 10
242.699601
 20
123.369525
 42
-0.073028
  0
VERTEX
  8
0
 10
241.856181
 20
123.874451
 42
-0.051271
  0
VERTEX
  8
0
 10
241.074293
 20
124.659925
 42
0.081496
  0
VERTEX
  8
0
 10
239.767038
 20
125.823952
 42
0.147694
  0
VERTEX
  8
0
 10
238.399377
 20
126.204829
 42
0.220496
  0
VERTEX
  8
0
 10
237.406194
 20
125.718054
 42
0.171924
  0
VERTEX
  8
0
 10
237.000000
 20
124.571654
 42
0.227305
  0
VERTEX
  8
0
 10
238.227441
 20
122.011172
 42
0.112449
  0
VERTEX
  8
0
 10
241.545491
 20
120.396860
 42
0.101988
  0
VERTEX
  8
0
 10
245.506725
 20
120.295515
 42
0.165881
  0
VERTEX
  8
0
 10
248.419968
 20
121.911566
 42
0.118597
  0
VERTEX
  8
0
 10
249.780861
 20
124.405787
 42
0.141137
  0
VERTEX
  8
0
 10
249.735333
 20
127.077327
 42
0.112497
  0
VERTEX
  8
0
 10
248.189128
 20
129.768374
 42
0.058825
  0
VERTEX
  8
0
 10
245.237162
 20
132.293977
 42
-0.031577
  0
VERTEX
  8
0
 10
242.460181
 20
134.419706
 42
-0.207583
  0
VERTEX
  8
0
 10
241.723123
 20
135.965315
 42
-0.410063
  0
VERTEX
  8
0
 10
242.511033
 20
136.823592
 42
-0.061882
  0
VERTEX
  8
0
 10
245.082507
 20
136.633499
 42
0.068684
  0
VERTEX
  8
0
 10
247.255826
 20
136.502415
 42
0.209575
  0
VERTEX
  8
0
 10
248.531007
 20
137.182716
 42
0.303478
  0
VERTEX
  8
0
 10
248.621960
 20
138.342632
 42
0.107508
  0
VERTEX
  8
0
 10
247.461646
 20
139.651704
 42
0.081881
  0
VERTEX
  8
0
 10
245.441732
 20
140.672609
 42
0.094436
  0
VERTEX
  8
0
 10
243.300921
 20
140.922636
 42
0.097580
  0
VERTEX
  8
0
 10
241.273211
 20
140.368878
 42
0.093797
  0
SEQEND
  0
POLYLINE
  8
0
 66
1
 70
1
  0
VERTEX
  8
0
 10
254.000000
 20
130.500000
 42
0.000000
  0
VERTEX
  8
0
 10
254.000000
 20
120.000000
 42
0.000000
  0
VERTEX
  8
0
 10
259.500000
 20
120.000000
 42
0.012120
  0
VERTEX
  8
0
 10
262.247932
 20
120.066617
 42
0.054498
  0
VERTEX
  8
0
 10
263.833333
 20
120.318182
 42
0.118311
  0
VERTEX
  8
0
 10
264.683247
 20
120.784456
 42
0.211442
  0
VERTEX
  8
0
 10
265.000000
 20
121.500000
 42
0.178124
  0
VERTEX
  8
0
 10
264.747409
 20
122.186534
 42
0.128719
  0
VERTEX
  8
0
 10
264.072774
 20
122.657712
 42
0.068777
  0
VERTEX
  8
0
 10
262.860939
 20
122.923992
 42
0.019742
  0
VERTEX
  8
0
 10
260.936642
 20
123.000000
 42
-0.013333
  0
VERTEX
  8
0
 10
258.349110
 20
123.069010
 42
-0.166710
  0
VERTEX
  8
0
 10
257.453270
 20
123.430678
 42
-0.217115
  0
VERTEX
  8
0
 10
257.090697
 20
124.223104
 42
-0.024415
  0
VERTEX
  8
0
 10
257.186642
 20
126.250000
 42
-0.032999
  0
VERTEX
  8
0
 10
257.492335
 20
128.119337
 42
-0.157075
  0
VERTEX
  8
0
 10
258.041759
 20
129.036590
 42
-0.137093
  0
VERTEX
  8
0
 10
259.067229
 20
129.528196
 42
-0.022995
  0
VERTEX
  8
0
 10
261.250000
 20
129.810365
 42
0.051053
  0
VERTEX
  8
0
 10
264.347590
 20
130.388743
 42
0.354413
  0
VERTEX
  8
0
 10
265.162090
 20
131.571706
 42
0.335242
  0
VERTEX
  8
0
 10
264.176952
 20
132.683314
 42
0.049718
  0
VERTEX
  8
0
 10
261.000000
 20
133.000000
 42
-0.017388
  0
VERTEX
  8
0
 10
258.849164
 20
133.074821
 42
-0.098846
  0
VERTEX
  8
0
 10
257.750000
 20
133.375000
 42
-0.184152
  0
VERTEX
  8
0
 10
257.195784
 20
133.978414
 42
-0.094959
  0
VERTEX
  8
0
 10
257.000000
 20
135.000000
 42
-0.094959
  0
VERTEX
  8
0
 10
257.195784
 20
136.021586
 42
-0.184152
  0
VERTEX
  8
0
 10
257.750000
 20
136.625000
 42
-0.098846
  0
VERTEX
  8
0
 10
258.849164
 20
136.925179
 42
-0.017388
  0
VERTEX
  8
0
 10
261.000000
 20
137.000000
 42
0.017388
  0
VERTEX
  8
0
 10
263.150836
 20
137.074821
 42
0.098846
  0
VERTEX
  8
0
 10
264.250000
 20
137.375000
 42
0.184152
  0
VERTEX
  8
0
 10
264.804216
 20
137.978414
 42
0.094959
  0
VERTEX
  8
0
 10
265.000000
 20
139.000000
 42
0.118451
  0
VERTEX
  8
0
 10
264.746716
 20
140.054152
 42
0.189837
  0
VERTEX
  8
0
 10
264.062500
 20
140.659091
 42
0.077556
  0
VERTEX
  8
0
 10
262.640147
 20
140.938496
 42
0.009792
  0
VERTEX
  8
0
 10
259.500000
 20
141.000000
 42
0.000000
  0
VERTEX
  8
0
 10
254.000000
 20
141.000000
 42
0.000000
  0
SEQEND
  0
POLYLINE
  8
0
 66
1
 70
1
  0
VERTEX
  8
0
 10
270.574630
 20
139.082465
 42
0.112621
  0
VERTEX
  8
0
 10
269.331497
 20
136.866633
 42
0.145017
  0
VERTEX
  8
0
 10
269.333951
 20
134.543011
 42
0.117583
  0
VERTEX
  8
0
 10
270.664465
 20
132.236221
 42
0.060086
  0
VERTEX
  8
0
 10
273.250000
 20
130.086999
 42
-0.054376
  0
VERTEX
  8
0
 10
275.641179
 20
128.144931
 42
-0.120745
  0
VERTEX
  8
0
 10
276.839524
 20
126.144435
 42
-0.201933
  0
VERTEX
  8
0
 10
276.672634
 20
124.466437
 42
-0.178550
  0
VERTEX
  8
0
 10
275.344242
 20
123.301857
 42
-0.105570
  0
VERTEX
  8
0
 10
274.547151
 20
123.176453
 42
-0.085036
  0
VERTEX
  8
0
 10
273.699601
 20
123.369525
 42
-0.073028
  0
VERTEX
  8
0
 10
272.856181
 20
123.874451
 42
-0.051271
  0
VERTEX
  8
0
 10
272.074293
 20
124.659925
 42
0.081496
  0
VERTEX
  8
0
 10
270.767038
 20
125.823952
 42
0.147694
  0
VERTEX
  8
0
 10
269.399377
 20
126.204829
 42
0.220496
  0
VERTEX
  8
0
 10
268.406194
 20
125.718054
 42
0.171924
  0
VERTEX
  8
0
 10
268.000000
 20
124.571654
 42
0.227305
  0
VERTEX
  8
0
 10
269.227441
 20
122.011172
 42
0.112449
  0
VERTEX
  8
0
 10
272.545491
 20
120.396860
 42
0.101988
  0
VERTEX
  8
0
 10
276.506725
 20
120.295515
 42
0.165881
  0
VERTEX
  8
0
 10
279.419968
 20
121.911566
 42
0.118597
  0
VERTEX
  8
0
 10
280.780861
 20
124.405787
 42
0.141137
  0
VERTEX
  8
0
 10
280.735333
 20
127.077327
 42
0.112497
  0
VERTEX
  8
0
 10
279.189128
 20
129.768374
 42
0.058825
  0
VERTEX
  8
0
 10
276.237162
 20
132.293977
 42
-0.031577
  0
VERTEX
  8
0
 10
273.460181
 20
134.419706
 42
-0.207583
  0
VERTEX
  8
0
 10
272.723123
 20
135.965315
 42
-0.410063
  0
VERTEX
  8
0
 10
273.511033
 20
136.823592
 42
-0.061882
  0
VERTEX
  8
0
 10
276.082507
 20
136.633499
 42
0.068684
  0
VERTEX
  8
0
 10
278.255826
 20
136.502415
 42
0.209575
  0
VERTEX
  8
0
 10
279.531007
 20
137.182716
 42
0.303478
  0
VERTEX
  8
0
 10
279.621960
 20
138.342632
 42
0.107508
  0
VERTEX
  8
0
 10
278.461646
 20
139.651704
 42
0.081881
  0
VERTEX
  8
0
 10
276.441732
 20
140.672609
 42
0.094436
  0
VERTEX
  8
0
 10
274.300921
 20
140.922636
 42
0.097580
  0
VERTEX
  8
0
 10
272.273211
 20
140.368878
 42
0.093797
  0
SEQEND
  0
POLYLINE
  8
0
 66
1
 70
1
  0
VERTEX
  8
0
 10
190.609606
 20
88.478437
 42
-0.000940
  0
VERTEX
  8
0
 10
189.898459
 20
84.875897
 42
-0.001116
  0
VERTEX
  8
0
 10
189.212871
 20
81.476478
 42
-0.000968
  0
VERTEX
  8
0
 10
188.622441
 20
78.610570
 42
-0.007167
  0
VERTEX
  8
0
 10
188.318983
 20
77.250000
 42
0.038668
  0
VERTEX
  8
0
 10
188.140452
 20
76.118421
 42
0.165100
  0
VERTEX
  8
0
 10
188.305996
 20
75.464823
 42
0.194630
  0
VERTEX
  8
0
 10
188.812803
 20
75.109826
 42
0.056706
  0
VERTEX
  8
0
 10
189.778080
 20
75.000000
 42
0.135858
  0
VERTEX
  8
0
 10
190.832677
 20
75.291939
 42
0.142754
  0
VERTEX
  8
0
 10
191.563228
 20
76.080738
 42
0.066369
  0
VERTEX
  8
0
 10
192.105039
 20
77.657702
 42
0.011679
  0
VERTEX
  8
0
 10
192.651922
 20
80.750000
 42
0.000000
  0
VERTEX
  8
0
 10
193.530868
 20
86.500000
 42
0.000000
  0
VERTEX
  8
0
 10
196.564996
 20
80.042312
 42
0.000000
  0
VERTEX
  8
0
 10
199.599125
 20
73.584625
 42
0.000000
  0
VERTEX
  8
0
 10
201.915706
 20
79.292312
 42
-0.010626
  0
VERTEX
  8
0
 10
202.858167
 20
81.479804
 42
-0.016412
  0
VERTEX
  8
0
 10
203.773580
 20
83.323367
 42
-0.010828
  0
VERTEX
  8
0
 10
204.597848
 20
84.778612
 42
-0.264359
  0
VERTEX
  8
0
 10
204.987313
 20
85.000000
 42
-0.315478
  0
VERTEX
  8
0
 10
205.315214
 20
84.770241
 42
-0.018005
  0
VERTEX
  8
0
 10
205.715386
 20
83.531250
 42
-0.022209
  0
VERTEX
  8
0
 10
206.096851
 20
81.916533
 42
-0.013924
  0
VERTEX
  8
0
 10
206.405612
 20
80.000000
 42
0.015112
  0
VERTEX
  8
0
 10
206.822480
 20
77.451000
 42
0.067771
  0
VERTEX
  8
0
 10
207.308039
 20
76.022539
 42
0.133195
  0
VERTEX
  8
0
 10
207.973114
 20
75.276119
 42
0.145548
  0
VERTEX
  8
0
 10
208.901568
 20
75.000000
 42
0.209213
  0
VERTEX
  8
0
 10
209.841031
 20
75.411089
 42
0.189620
  0
VERTEX
  8
0
 10
210.227134
 20
76.403451
 42
0.041616
  0
VERTEX
  8
0
 10
210.030350
 20
78.661657
 42
0.002611
  0
VERTEX
  8
0
 10
208.863250
 20
85.250000
 42
0.001191
  0
VERTEX
  8
0
 10
208.124276
 20
89.244490
 42
0.001737
  0
VERTEX
  8
0
 10
207.452489
 20
92.760581
 42
0.000845
  0
VERTEX
  8
0
 10
206.865962
 20
95.746710
 42
0.030594
  0
VERTEX
  8
0
 10
206.688020
 20
96.424317
 42
0.641556
  0
VERTEX
  8
0
 10
206.420536
 20
96.454398
 42
0.011144
  0
VERTEX
  8
0
 10
205.467205
 20
94.788090
 42
0.013651
  0
VERTEX
  8
0
 10
204.295194
 20
92.481295
 42
0.007181
  0
VERTEX
  8
0
 10
202.959271
 20
89.556207
 42
0.000000
  0
VERTEX
  8
0
 10
199.534753
 20
81.763781
 42
0.000000
  0
VERTEX
  8
0
 10
195.949591
 20
89.610327
 42
0.000000
  0
VERTEX
  8
0
 10
192.364429
 20
97.456873
 42
0.000000
  0
SEQEND
  0
POLYLINE
  8
0
 66
1
 70
1
  0
VERTEX
  8
0
 10
60.710296
 20
95.376962
 42
0.123108
  0
VERTEX
  8
0
 10
60.019964
 20
94.226397
 42
0.198230
  0
VERTEX
  8
0
 10
60.127936
 20
93.104597
 42
0.175556
  0
VERTEX
  8
0
 10
61.028099
 20
92.289430
 42
0.097386
  0
VERTEX
  8
0
 10
62.500000
 20
92.000000
 42
-0.098988
  0
VERTEX
  8
0
 10
63.949892
 20
91.710115
 42
-0.226266
  0
VERTEX
  8
0
 10
64.676471
 20
90.900000
 42
-0.067556
  0
VERTEX
  8
0
 10
64.954758
 20
89.072835
 42
-0.004059
  0
VERTEX
  8
0
 10
65.000000
 20
83.500000
 42
0.006430
  0
VERTEX
  8
0
 10
65.057625
 20
79.019073
 42
0.037256
  0
VERTEX
  8
0
 10
65.294118
 20
76.666667
 42
0.088943
  0
VERTEX
  8
0
 10
65.748030
 20
75.431192
 42
0.266366
  0
VERTEX
  8
0
 10
66.500000
 20
75.000000
 42
0.266366
  0
VERTEX
  8
0
 10
67.251970
 20
75.431192
 42
0.088943
  0
VERTEX
  8
0
 10
67.705882
 20
76.666667
 42
0.037256
  0
VERTEX
  8
0
 10
67.942375
 20
79.019073
 42
0.006430
  0
VERTEX
  8
0
 10
68.000000
 20
83.500000
 42
-0.003972
  0
VERTEX
  8
0
 10
68.044685
 20
89.125023
 42
-0.069633
  0
VERTEX
  8
0
 10
68.325686
 20
90.924220
 42
-0.231542
  0
VERTEX
  8
0
 10
69.066080
 20
91.720513
 42
-0.091931
  0
VERTEX
  8
0
 10
70.573324
 20
92.000000
 42
0.035487
  0
VERTEX
  8
0
 10
71.796479
 20
92.086921
 42
0.131056
  0
VERTEX
  8
0
 10
72.502833
 20
92.387658
 42
0.187895
  0
VERTEX
  8
0
 10
72.823208
 20
92.926766
 42
0.088428
  0
VERTEX
  8
0
 10
72.813606
 20
93.750000
 42
0.153349
  0
VERTEX
  8
0
 10
72.348601
 20
94.616801
 42
0.110113
  0
VERTEX
  8
0
 10
71.408230
 20
95.199494
 42
0.057257
  0
VERTEX
  8
0
 10
69.766485
 20
95.568352
 42
0.013393
  0
VERTEX
  8
0
 10
66.950577
 20
95.793629
 42
0.012535
  0
VERTEX
  8
0
 10
64.780571
 20
95.854359
 42
0.017397
  0
VERTEX
  8
0
 10
62.836376
 20
95.792355
 42
0.013965
  0
VERTEX
  8
0
 10
61.253872
 20
95.642202
 42
0.167251
  0
SEQEND
  0
POLYLINE
  8
0
 66
1
 70
1
  0
VERTEX
  8
0
 10
75.000000
 20
85.500000
 42
0.004841
  0
VERTEX
  8
0
 10
75.054606
 20
79.860051
 42
0.030643
  0
VERTEX
  8
0
 10
75.285714
 20
77.000000
 42
0.072528
  0
VERTEX
  8
0
 10
75.729954
 20
75.493192
 42
0.292784
  0
VERTEX
  8
0
 10
76.500000
 20
75.000000
 42
0.188641
  0
VERTEX
  8
0
 10
77.196999
 20
75.272668
 42
0.126480
  0
VERTEX
  8
0
 10
77.666667
 20
76.000000
 42
0.063857
  0
VERTEX
  8
0
 10
77.927513
 20
77.326193
 42
0.016668
  0
VERTEX
  8
0
 10
78.000000
 20
79.500000
 42
0.000000
  0
VERTEX
  8
0
 10
78.000000
 20
84.000000
 42
0.000000
  0
VERTEX
  8
0
 10
81.942502
 20
84.000000
 42
-0.018973
  0
VERTEX
  8
0
 10
84.458021
 20
83.904510
 42
-0.179000
  0
VERTEX
  8
0
 10
85.423533
 20
83.461549
 42
-0.164537
  0
VERTEX
  8
0
 10
85.910638
 20
82.479041
 42
-0.015436
  0
VERTEX
  8
0
 10
86.192502
 20
79.758627
 42
0.021777
  0
VERTEX
  8
0
 10
86.428595
 20
77.731074
 42
0.065919
  0
VERTEX
  8
0
 10
86.826658
 20
76.402551
 42
0.105876
  0
VERTEX
  8
0
 10
87.422193
 20
75.592125
 42
0.135481
  0
VERTEX
  8
0
 10
88.250000
 20
75.185303
 42
0.264254
  0
VERTEX
  8
0
 10
89.176343
 20
75.501809
 42
0.140107
  0
VERTEX
  8
0
 10
89.716702
 20
76.630618
 42
0.038325
  0
VERTEX
  8
0
 10
89.953344
 20
79.211100
 42
0.003709
  0
VERTEX
  8
0
 10
90.000000
 20
85.500000
 42
0.003710
  0
VERTEX
  8
0
 10
89.953341
 20
91.788805
 42
0.038323
  0
VERTEX
  8
0
 10
89.716695
 20
94.369387
 42
0.140078
  0
VERTEX
  8
0
 10
89.176348
 20
95.498350
 42
0.264240
  0
VERTEX
  8
0
 10
88.250000
 20
95.815008
 42
0.128769
  0
VERTEX
  8
0
 10
87.444760
 20
95.432549
 42
0.101082
  0
VERTEX
  8
0
 10
86.842523
 20
94.672037
 42
0.068885
  0
VERTEX
  8
0
 10
86.429497
 20
93.469112
 42
0.027614
  0
VERTEX
  8
0
 10
86.189635
 20
91.741683
 42
-0.021111
  0
VERTEX
  8
0
 10
85.898638
 20
89.425345
 42
-0.172102
  0
VERTEX
  8
0
 10
85.387372
 20
88.507134
 42
-0.163352
  0
VERTEX
  8
0
 10
84.398291
 20
88.091247
 42
-0.018550
  0
VERTEX
  8
0
 10
81.939635
 20
88.000000
 42
-0.016866
  0
VERTEX
  8
0
 10
79.407997
 20
88.085421
 42
-0.183402
  0
VERTEX
  8
0
 10
78.496227
 20
88.503831
 42
-0.180190
  0
VERTEX
  8
0
 10
78.083302
 20
89.425409
 42
-0.016173
  0
VERTEX
  8
0
 10
78.000000
 20
92.000000
 42
0.020272
  0
VERTEX
  8
0
 10
77.923415
 20
93.888175
 42
0.069535
  0
VERTEX
  8
0
 10
77.656250
 20
95.083333
 42
0.128937
  0
VERTEX
  8
0
 10
77.184843
 20
95.750359
 42
0.176579
  0
VERTEX
  8
0
 10
76.500000
 20
96.000000
 42
0.292784
  0
VERTEX
  8
0
 10
75.729954
 20
95.506808
 42
0.072528
  0
VERTEX
  8
0
 10
75.285714
 20
94.000000
 42
0.030643
  0
VERTEX
  8
0
 10
75.054606
 20
91.139949
 42
0.004841
  0
SEQEND
  0
POLYLINE
  8
0
 66
1
 70
1
  0
VERTEX
  8
0
 10
95.000000
 20
85.500000
 42
0.000000
  0
VERTEX
  8
0
 10
95.000000
 20
75.000000
 42
0.000000
  0
VERTEX
  8
0
 10
100.500000
 20
75.000000
 42
0.012120
  0
VERTEX
  8
0
 10
103.247932
 20
75.066617
 42
0.054498
  0
VERTEX
  8
0
 10
104.833333
 20
75.318182
 42
0.118311
  0
VERTEX
  8
0
 10
105.683247
 20
75.784456
 42
0.211442
  0
VERTEX
  8
0
 10
106.000000
 20
76.500000
 42
0.178124
  0
VERTEX
  8
0
 10
105.747409
 20
77.186534
 42
0.128719
  0
VERTEX
  8
0
 10
105.072774
 20
77.657712
 42
0.068777
  0
VERTEX
  8
0
 10
103.860939
 20
77.923992
 42
0.019742
  0
VERTEX
  8
0
 10
101.936642
 20
78.000000
 42
-0.013333
  0
VERTEX
  8
0
 10
99.349110
 20
78.069010
 42
-0.166710
  0
VERTEX
  8
0
 10
98.453270
 20
78.430678
 42
-0.217115
  0
VERTEX
  8
0
 10
98.090697
 20
79.223104
 42
-0.024415
  0
VERTEX
  8
0
 10
98.186642
 20
81.250000
 42
-0.032999
  0
VERTEX
  8
0
 10
98.492335
 20
83.119337
 42
-0.157075
  0
VERTEX
  8
0
 10
99.041759
 20
84.036590
 42
-0.137093
  0
VERTEX
  8
0
 10
100.067229
 20
84.528196
 42
-0.022995
  0
VERTEX
  8
0
 10
102.250000
 20
84.810365
 42
0.051053
  0
VERTEX
  8
0
 10
105.347590
 20
85.388743
 42
0.354413
  0
VERTEX
  8
0
 10
106.162090
 20
86.571706
 42
0.335242
  0
VERTEX
  8
0
 10
105.176952
 20
87.683314
 42
0.049718
  0
VERTEX
  8
0
 10
102.000000
 20
88.000000
 42
-0.017388
  0
VERTEX
  8
0
 10
99.849164
 20
88.074821
 42
-0.098846
  0
VERTEX
  8
0
 10
98.750000
 20
88.375000
 42
-0.184152
  0
VERTEX
  8
0
 10
98.195784
 20
88.978414
 42
-0.094959
  0
VERTEX
  8
0
 10
98.000000
 20
90.000000
 42
-0.094959
  0
VERTEX
  8
0
 10
98.195784
 20
91.021586
 42
-0.184152
  0
VERTEX
  8
0
 10
98.750000
 20
91.625000
 42
-0.098846
  0
VERTEX
  8
0
 10
99.849164
 20
91.925179
 42
-0.017388
  0
VERTEX
  8
0
 10
102.000000
 20
92.000000
 42
0.017388
  0
VERTEX
  8
0
 10
104.150836
 20
92.074821
 42
0.098846
  0
VERTEX
  8
0
 10
105.250000
 20
92.375000
 42
0.184152
  0
VERTEX
  8
0
 10
105.804216
 20
92.978414
 42
0.094959
  0
VERTEX
  8
0
 10
106.000000
 20
94.000000
 42
0.118451
  0
VERTEX
  8
0
 10
105.746716
 20
95.054152
 42
0.189837
  0
VERTEX
  8
0
 10
105.062500
 20
95.659091
 42
0.077556
  0
VERTEX
  8
0
 10
103.640147
 20
95.938496
 42
0.009792
  0
VERTEX
  8
0
 10
100.500000
 20
96.000000
 42
0.000000
  0
VERTEX
  8
0
 10
95.000000
 20
96.000000
 42
0.000000
  0
SEQEND
  0
POLYLINE
  8
0
 66
1
 70
1
  0
VERTEX
  8
0
 10
122.000000
 20
94.000000
 42
0.114945
  0
VERTEX
  8
0
 10
120.412259
 20
91.447776
 42
0.174564
  0
VERTEX
  8
0
 10
120.458862
 20
88.861856
 42
0.139022
  0
VERTEX
  8
0
 10
122.237756
 20
86.472310
 42
0.064792
  0
VERTEX
  8
0
 10
125.608347
 20
84.519177
 42
-0.025830
  0
VERTEX
  8
0
 10
127.375302
 20
83.671239
 42
-0.090643
  0
VERTEX
  8
0
 10
128.352826
 20
82.880969
 42
-0.130822
  0
VERTEX
  8
0
 10
128.793665
 20
81.968297
 42
-0.083043
  0
VERTEX
  8
0
 10
128.822280
 20
80.781042
 42
-0.142010
  0
VERTEX
  8
0
 10
128.075791
 20
79.126112
 42
-0.158719
  0
VERTEX
  8
0
 10
126.588927
 20
78.214290
 42
-0.157065
  0
VERTEX
  8
0
 10
124.837935
 20
78.348137
 42
-0.138767
  0
VERTEX
  8
0
 10
123.391606
 20
79.479125
 42
0.063246
  0
VERTEX
  8
0
 10
122.801647
 20
80.102710
 42
0.058532
  0
VERTEX
  8
0
 10
122.059709
 20
80.578105
 42
0.062544
  0
VERTEX
  8
0
 10
121.284888
 20
80.841760
 42
0.104754
  0
VERTEX
  8
0
 10
120.599593
 20
80.837866
 42
0.077079
  0
VERTEX
  8
0
 10
119.846986
 20
80.547443
 42
0.240262
  0
VERTEX
  8
0
 10
119.559351
 20
80.105604
 42
0.125737
  0
VERTEX
  8
0
 10
119.664052
 20
79.386952
 42
0.017281
  0
VERTEX
  8
0
 10
120.299117
 20
78.000000
 42
0.166038
  0
VERTEX
  8
0
 10
122.674365
 20
75.660703
 42
0.129162
  0
VERTEX
  8
0
 10
126.256406
 20
74.965125
 42
0.130009
  0
VERTEX
  8
0
 10
129.700314
 20
76.120448
 42
0.168968
  0
VERTEX
  8
0
 10
131.710436
 20
78.743972
 42
0.056000
  0
VERTEX
  8
0
 10
132.299636
 20
81.547827
 42
0.131640
  0
VERTEX
  8
0
 10
131.947842
 20
83.640723
 42
0.122783
  0
VERTEX
  8
0
 10
130.571471
 20
85.368579
 42
0.045546
  0
VERTEX
  8
0
 10
127.923027
 20
87.039268
 42
-0.042853
  0
VERTEX
  8
0
 10
125.516520
 20
88.539316
 42
-0.114550
  0
VERTEX
  8
0
 10
124.223083
 20
90.076060
 42
-0.236891
  0
VERTEX
  8
0
 10
124.214965
 20
91.358802
 42
-0.194299
  0
VERTEX
  8
0
 10
125.250000
 20
92.281539
 42
-0.084748
  0
VERTEX
  8
0
 10
125.855618
 20
92.388738
 42
-0.039562
  0
VERTEX
  8
0
 10
126.652946
 20
92.330444
 42
-0.037709
  0
VERTEX
  8
0
 10
127.500838
 20
92.134197
 42
-0.043126
  0
VERTEX
  8
0
 10
128.270667
 20
91.818628
 42
0.075407
  0
VERTEX
  8
0
 10
130.015254
 20
91.231376
 42
0.253078
  0
VERTEX
  8
0
 10
131.121058
 20
91.599762
 42
0.292510
  0
VERTEX
  8
0
 10
131.317396
 20
92.652810
 42
0.087913
  0
VERTEX
  8
0
 10
130.410155
 20
94.099277
 42
0.103840
  0
VERTEX
  8
0
 10
128.540725
 20
95.457429
 42
0.108715
  0
VERTEX
  8
0
 10
126.313967
 20
95.919898
 42
0.104522
  0
VERTEX
  8
0
 10
124.028968
 20
95.408708
 42
0.089492
  0
SEQEND
  0
POLYLINE
  8
0
 66
1
 70
1
  0
VERTEX
  8
0
 10
134.710296
 20
95.376962
 42
0.123108
  0
VERTEX
  8
0
 10
134.019964
 20
94.226397
 42
0.198230
  0
VERTEX
  8
0
 10
134.127936
 20
93.104597
 42
0.175556
  0
VERTEX
  8
0
 10
135.028099
 20
92.289430
 42
0.097386
  0
VERTEX
  8
0
 10
136.500000
 20
92.000000
 42
-0.098988
  0
VERTEX
  8
0
 10
137.949892
 20
91.710115
 42
-0.226266
  0
VERTEX
  8
0
 10
138.676471
 20
90.900000
 42
-0.067556
  0
VERTEX
  8
0
 10
138.954758
 20
89.072835
 42
-0.004059
  0
VERTEX
  8
0
 10
139.000000
 20
83.500000
 42
0.006430
  0
VERTEX
  8
0
 10
139.057625
 20
79.019073
 42
0.037256
  0
VERTEX
  8
0
 10
139.294118
 20
76.666667
 42
0.088943
  0
VERTEX
  8
0
 10
139.748030
 20
75.431192
 42
0.266366
  0
VERTEX
  8
0
 10
140.500000
 20
75.000000
 42
0.266366
  0
VERTEX
  8
0
 10
141.251970
 20
75.431192
 42
0.088943
  0
VERTEX
  8
0
 10
141.705882
 20
76.666667
 42
0.037256
  0
VERTEX
  8
0
 10
141.942375
 20
79.019073
 42
0.006430
  0
VERTEX
  8
0
 10
142.000000
 20
83.500000
 42
-0.003972
  0
VERTEX
  8
0
 10
142.044685
 20
89.125023
 42
-0.069633
  0
VERTEX
  8
0
 10
142.325686
 20
90.924220
 42
-0.231542
  0
VERTEX
  8
0
 10
143.066080
 20
91.720513
 42
-0.091931
  0
VERTEX
  8
0
 10
144.573324
 20
92.000000
 42
0.035487
  0
VERTEX
  8
0
 10
145.796479
 20
92.086921
 42
0.131056
  0
VERTEX
  8
0
 10
146.502833
 20
92.387658
 42
0.187895
  0
VERTEX
  8
0
 10
146.823208
 20
92.926766
 42
0.088428
  0
VERTEX
  8
0
 10
146.813606
 20
93.750000
 42
0.153349
  0
VERTEX
  8
0
 10
146.348601
 20
94.616801
 42
0.110113
  0
VERTEX
  8
0
 10
145.408230
 20
95.199494
 42
0.057257
  0
VERTEX
  8
0
 10
143.766485
 20
95.568352
 42
0.013393
  0
VERTEX
  8
0
 10
140.950577
 20
95.793629
 42
0.012535
  0
VERTEX
  8
0
 10
138.780571
 20
95.854359
 42
0.017397
  0
VERTEX
  8
0
 10
136.836376
 20
95.792355
 42
0.013965
  0
VERTEX
  8
0
 10
135.253872
 20
95.642202
 42
0.167251
  0
SEQEND
  0
POLYLINE
  8
0
 66
1
 70
1
  0
VERTEX
  8
0
 10
152.353094
 20
94.073656
 42
0.088865
  0
VERTEX
  8
0
 10
149.992842
 20
91.983291
 42
0.068461
  0
VERTEX
  8
0
 10
148.244730
 20
89.013321
 42
0.068799
  0
VERTEX
  8
0
 10
147.370213
 20
85.697956
 42
0.091864
  0
VERTEX
  8
0
 10
147.564825
 20
82.597738
 42
0.142042
  0
VERTEX
  8
0
 10
150.085131
 20
78.277478
 42
0.118497
  0
VERTEX
  8
0
 10
154.700553
 20
75.606571
 42
0.116029
  0
VERTEX
  8
0
 10
160.107400
 20
75.294332
 42
0.132305
  0
VERTEX
  8
0
 10
164.794358
 20
77.480418
 42
0.124565
  0
VERTEX
  8
0
 10
167.682539
 20
81.496741
 42
0.118940
  0
VERTEX
  8
0
 10
168.378231
 20
86.476115
 42
0.120417
  0
VERTEX
  8
0
 10
166.727643
 20
91.177638
 42
0.129780
  0
VERTEX
  8
0
 10
163.128438
 20
94.433582
 42
0.048543
  0
VERTEX
  8
0
 10
160.263293
 20
95.578754
 42
0.079321
  0
VERTEX
  8
0
 10
157.673480
 20
95.903965
 42
0.079580
  0
VERTEX
  8
0
 10
155.117092
 20
95.406446
 42
0.049171
  0
SEQEND
  0
POLYLINE
  8
0
 66
1
 70
1
  0
VERTEX
  8
0
 10
163.250000
 20
89.802320
 42
-0.093391
  0
VERTEX
  8
0
 10
164.539910
 20
87.584092
 42
-0.096588
  0
VERTEX
  8
0
 10
164.913660
 20
85.075283
 42
-0.094107
  0
VERTEX
  8
0
 10
164.317743
 20
82.556908
 42
-0.083738
  0
VERTEX
  8
0
 10
162.825686
 20
80.314451
 42
-0.187459
  0
VERTEX
  8
0
 10
158.425963
 20
78.210860
 42
-0.192661
  0
VERTEX
  8
0
 10
153.822567
 20
79.661554
 42
-0.178591
  0
VERTEX
  8
0
 10
151.259451
 20
84.022083
 42
-0.168915
  0
VERTEX
  8
0
 10
152.065372
 20
89.122148
 42
-0.128462
  0
VERTEX
  8
0
 10
154.224906
 20
91.454605
 42
-0.127589
  0
VERTEX
  8
0
 10
157.254897
 20
92.440398
 42
-0.121296
  0
VERTEX
  8
0
 10
160.503650
 20
91.846958
 42
-0.109372
  0
SEQEND
  0
POLYLINE
  8
0
 66
1
 70
1
  0
VERTEX
  8
0
 10
172.734050
 20
95.400716
 42
0.175000
  0
VERTEX
  8
0
 10
172.441241
 20
94.776984
 42
0.005766
  0
VERTEX
  8
0
 10
172.215627
 20
91.993752
 42
0.010376
  0
VERTEX
  8
0
 10
172.053214
 20
88.654621
 42
0.006963
  0
VERTEX
  8
0
 10
172.000000
 20
84.833333
 42
0.004064
  0
VERTEX
  8
0
 10
172.048327
 20
78.887526
 42
0.044653
  0
VERTEX
  8
0
 10
172.299313
 20
76.517421
 42
0.152208
  0
VERTEX
  8
0
 10
172.891087
 20
75.426024
 42
0.195394
  0
VERTEX
  8
0
 10
173.939635
 20
75.000000
 42
0.104347
  0
VERTEX
  8
0
 10
174.898217
 20
75.202253
 42
0.153123
  0
VERTEX
  8
0
 10
175.541347
 20
75.766059
 42
0.092862
  0
VERTEX
  8
0
 10
175.946118
 20
76.835103
 42
0.023235
  0
VERTEX
  8
0
 10
176.189635
 20
78.693497
 42
0.000000
  0
VERTEX
  8
0
 10
176.500000
 20
82.386993
 42
0.000000
  0
VERTEX
  8
0
 10
179.000000
 20
78.700330
 42
0.028972
  0
VERTEX
  8
0
 10
180.223372
 20
77.103754
 42
0.049733
  0
VERTEX
  8
0
 10
181.437976
 20
75.950107
 42
0.062024
  0
VERTEX
  8
0
 10
182.622573
 20
75.245825
 42
0.102727
  0
VERTEX
  8
0
 10
183.756272
 20
75.006833
 42
0.047297
  0
VERTEX
  8
0
 10
185.029985
 20
75.123697
 42
0.412749
  0
VERTEX
  8
0
 10
185.320888
 20
75.547197
 42
0.107687
  0
VERTEX
  8
0
 10
184.967051
 20
76.394562
 42
0.004201
  0
VERTEX
  8
0
 10
182.995186
 20
79.165343
 42
-0.007559
  0
VERTEX
  8
0
 10
181.053784
 20
81.932480
 42
-0.108311
  0
VERTEX
  8
0
 10
180.609081
 20
83.042990
 42
-0.208964
  0
VERTEX
  8
0
 10
180.835250
 20
83.940391
 42
-0.040494
  0
VERTEX
  8
0
 10
181.988913
 20
85.204298
 42
0.093816
  0
VERTEX
  8
0
 10
183.383904
 20
87.102815
 42
0.103924
  0
VERTEX
  8
0
 10
183.923407
 20
89.312193
 42
0.108430
  0
VERTEX
  8
0
 10
183.521181
 20
91.478070
 42
0.110398
  0
VERTEX
  8
0
 10
182.250000
 20
93.260399
 42
0.091786
  0
VERTEX
  8
0
 10
180.253643
 20
94.479691
 42
0.036014
  0
VERTEX
  8
0
 10
177.153620
 20
95.415710
 42
0.032021
  0
VERTEX
  8
0
 10
174.112499
 20
95.897806
 42
0.223251
  0
SEQEND
  0
POLYLINE
  8
0
 66
1
 70
1
  0
VERTEX
  8
0
 10
179.836910
 20
89.608344
 42
-0.125577
  0
VERTEX
  8
0
 10
179.762556
 20
88.362127
 42
-0.100419
  0
VERTEX
  8
0
 10
179.104169
 20
87.184002
 42
-0.097978
  0
VERTEX
  8
0
 10
178.021330
 20
86.333694
 42
-0.112962
  0
VERTEX
  8
0
 10
176.750000
 20
86.015313
 42
-0.303471
  0
VERTEX
  8
0
 10
176.459531
 20
86.201028
 42
-0.043064
  0
VERTEX
  8
0
 10
176.220313
 20
86.907287
 42
-0.037112
  0
VERTEX
  8
0
 10
176.054246
 20
87.896546
 42
-0.023036
  0
VERTEX
  8
0
 10
176.000000
 20
89.073324
 42
-0.025158
  0
VERTEX
  8
0
 10
176.077004
 20
90.602765
 42
-0.116785
  0
VERTEX
  8
0
 10
176.364185
 20
91.432712
 42
-0.201689
  0
VERTEX
  8
0
 10
176.898599
 20
91.803934
 42
-0.100166
  0
VERTEX
  8
0
 10
177.738516
 20
91.811841
 42
-0.089636
  0
VERTEX
  8
0
 10
178.430062
 20
91.544374
 42
-0.065590
  0
VERTEX
  8
0
 10
179.072058
 20
91.026455
 42
-0.064355
  0
VERTEX
  8
0
 10
179.569448
 20
90.347754
 42
-0.078574
  0
SEQEND
  0
POLYLINE
  8
0
 66
1
 70
1
  0
VERTEX
  8
0
 10
223.000000
 20
94.000000
 42
0.072254
  0
VERTEX
  8
0
 10
223.126841
 20
93.126841
 42
0.124864
  0
VERTEX
  8
0
 10
223.500000
 20
92.500000
 42
0.124864
  0
VERTEX
  8
0
 10
224.126841
 20
92.126841
 42
0.072254
  0
VERTEX
  8
0
 10
225.000000
 20
92.000000
 42
-0.165398
  0
VERTEX
  8
0
 10
226.081504
 20
91.632181
 42
-0.172700
  0
VERTEX
  8
0
 10
226.691176
 20
90.687500
 42
-0.052938
  0
VERTEX
  8
0
 10
226.949850
 20
88.634096
 42
-0.004884
  0
VERTEX
  8
0
 10
227.000000
 20
83.500000
 42
0.004884
  0
VERTEX
  8
0
 10
227.050150
 20
78.365904
 42
0.052938
  0
VERTEX
  8
0
 10
227.308824
 20
76.312500
 42
0.172700
  0
VERTEX
  8
0
 10
227.918496
 20
75.367819
 42
0.165398
  0
VERTEX
  8
0
 10
229.000000
 20
75.000000
 42
0.165398
  0
VERTEX
  8
0
 10
230.081504
 20
75.367819
 42
0.172700
  0
VERTEX
  8
0
 10
230.691176
 20
76.312500
 42
0.052938
  0
VERTEX
  8
0
 10
230.949850
 20
78.365904
 42
0.004884
  0
VERTEX
  8
0
 10
231.000000
 20
83.500000
 42
-0.004884
  0
VERTEX
  8
0
 10
231.050150
 20
88.634096
 42
-0.052938
  0
VERTEX
  8
0
 10
231.308824
 20
90.687500
 42
-0.172700
  0
VERTEX
  8
0
 10
231.918496
 20
91.632181
 42
-0.165398
  0
VERTEX
  8
0
 10
233.000000
 20
92.000000
 42
0.072254
  0
VERTEX
  8
0
 10
233.873159
 20
92.126841
 42
0.124864
  0
VERTEX
  8
0
 10
234.500000
 20
92.500000
 42
0.124864
  0
VERTEX
  8
0
 10
234.873159
 20
93.126841
 42
0.072254
  0
VERTEX
  8
0
 10
235.000000
 20
94.000000
 42
0.126480
  0
VERTEX
  8
0
 10
234.727332
 20
95.060666
 42
0.188641
  0
VERTEX
  8
0
 10
234.000000
 20
95.666667
 42
0.072107
  0
VERTEX
  8
0
 10
232.471613
 20
95.941290
 42
0.008455
  0
VERTEX
  8
0
 10
229.000000
 20
96.000000
 42
0.008455
  0
VERTEX
  8
0
 10
225.528387
 20
95.941290
 42
0.072107
  0
VERTEX
  8
0
 10
224.000000
 20
95.666667
 42
0.188641
  0
VERTEX
  8
0
 10
223.272668
 20
95.060666
 42
0.126480
  0
SEQEND
  0
POLYLINE
  8
0
 66
1
 70
1
  0
VERTEX
  8
0
 10
242.388117
 20
95.066496
 42
0.127049
  0
VERTEX
  8
0
 10
238.422156
 20
92.016725
 42
0.116289
  0
VERTEX
  8
0
 10
236.266279
 20
87.327970
 42
0.117153
  0
VERTEX
  8
0
 10
236.439769
 20
82.198332
 42
0.130317
  0
VERTEX
  8
0
 10
238.923077
 20
77.923077
 42
0.149414
  0
VERTEX
  8
0
 10
244.273774
 20
75.077568
 42
0.143015
  0
VERTEX
  8
0
 10
250.403898
 20
75.642974
 42
0.145411
  0
VERTEX
  8
0
 10
255.195288
 20
79.399168
 42
0.155517
  0
VERTEX
  8
0
 10
257.000000
 20
85.061147
 42
0.129951
  0
VERTEX
  8
0
 10
255.711798
 20
89.933954
 42
0.113858
  0
VERTEX
  8
0
 10
252.137768
 20
93.819630
 42
0.115505
  0
VERTEX
  8
0
 10
247.268841
 20
95.710465
 42
0.136648
  0
SEQEND
  0
POLYLINE
  8
0
 66
1
 70
1
  0
VERTEX
  8
0
 10
252.995938
 20
88.009806
 42
-0.151957
  0
VERTEX
  8
0
 10
253.373756
 20
83.873653
 42
-0.148475
  0
VERTEX
  8
0
 10
251.346342
 20
80.208895
 42
-0.148887
  0
VERTEX
  8
0
 10
247.628791
 20
78.296657
 42
-0.152928
  0
VERTEX
  8
0
 10
243.520212
 20
78.808837
 42
-0.100801
  0
VERTEX
  8
0
 10
241.355384
 20
80.382113
 42
-0.096723
  0
VERTEX
  8
0
 10
239.939859
 20
82.698293
 42
-0.094872
  0
VERTEX
  8
0
 10
239.482925
 20
85.416389
 42
-0.092783
  0
VERTEX
  8
0
 10
240.055550
 20
88.134109
 42
-0.157720
  0
VERTEX
  8
0
 10
242.595047
 20
91.115298
 42
-0.141426
  0
VERTEX
  8
0
 10
246.518929
 20
92.207110
 42
-0.140109
  0
VERTEX
  8
0
 10
250.448768
 20
91.042899
 42
-0.154123
  0
SEQEND
  0
POLYLINE
  8
0
 66
1
 70
1
  0
VERTEX
  8
0
 10
117.000000
 20
40.902769
 42
0.004609
  0
VERTEX
  8
0
 10
117.054139
 20
35.029236
 42
0.029580
  0
VERTEX
  8
0
 10
117.284395
 20
32.067128
 42
0.069646
  0
VERTEX
  8
0
 10
117.726633
 20
30.504445
 42
0.297308
  0
VERTEX
  8
0
 10
118.500000
 20
30.000000
 42
0.236339
  0
VERTEX
  8
0
 10
119.232574
 20
30.366757
 42
0.106151
  0
VERTEX
  8
0
 10
119.694238
 20
31.370829
 42
0.045935
  0
VERTEX
  8
0
 10
119.938083
 20
33.270688
 42
0.008962
  0
VERTEX
  8
0
 10
120.000000
 20
36.724972
 42
0.000000
  0
VERTEX
  8
0
 10
120.000000
 20
43.449945
 42
0.000000
  0
VERTEX
  8
0
 10
127.500000
 20
36.000000
 42
0.000000
  0
VERTEX
  8
0
 10
135.000000
 20
28.550055
 42
0.000000
  0
VERTEX
  8
0
 10
135.000000
 20
39.848352
 42
0.003438
  0
VERTEX
  8
0
 10
134.953937
 20
46.547297
 42
0.036140
  0
VERTEX
  8
0
 10
134.718630
 20
49.276649
 42
0.132568
  0
VERTEX
  8
0
 10
134.180400
 20
50.475939
 42
0.274875
  0
VERTEX
  8
0
 10
133.250000
 20
50.814349
 42
0.166313
  0
VERTEX
  8
0
 10
132.365895
 20
50.311356
 42
0.100005
  0
VERTEX
  8
0
 10
131.755123
 20
49.255861
 42
0.050448
  0
VERTEX
  8
0
 10
131.330079
 20
47.393826
 42
0.011229
  0
VERTEX
  8
0
 10
131.000000
 20
44.141911
 42
0.000000
  0
VERTEX
  8
0
 10
130.500000
 20
37.801772
 42
0.000000
  0
VERTEX
  8
0
 10
123.750000
 20
44.803655
 42
0.000000
  0
VERTEX
  8
0
 10
117.000000
 20
51.805539
 42
0.000000
  0
SEQEND
  0
POLYLINE
  8
0
 66
1
 70
1
  0
VERTEX
  8
0
 10
17.734050
 20
50.400716
 42
0.175000
  0
VERTEX
  8
0
 10
17.441241
 20
49.776984
 42
0.005766
  0
VERTEX
  8
0
 10
17.215627
 20
46.993752
 42
0.010376
  0
VERTEX
  8
0
 10
17.053214
 20
43.654621
 42
0.006963
  0
VERTEX
  8
0
 10
17.000000
 20
39.833333
 42
0.004064
  0
VERTEX
  8
0
 10
17.048327
 20
33.887526
 42
0.044653
  0
VERTEX
  8
0
 10
17.299313
 20
31.517421
 42
0.152208
  0
VERTEX
  8
0
 10
17.891087
 20
30.426024
 42
0.195394
  0
VERTEX
  8
0
 10
18.939635
 20
30.000000
 42
0.104347
  0
VERTEX
  8
0
 10
19.898217
 20
30.202253
 42
0.153123
  0
VERTEX
  8
0
 10
20.541347
 20
30.766059
 42
0.092862
  0
VERTEX
  8
0
 10
20.946118
 20
31.835103
 42
0.023235
  0
VERTEX
  8
0
 10
21.189635
 20
33.693497
 42
0.000000
  0
VERTEX
  8
0
 10
21.500000
 20
37.386993
 42
0.000000
  0
VERTEX
  8
0
 10
24.000000
 20
33.700330
 42
0.028972
  0
VERTEX
  8
0
 10
25.223372
 20
32.103754
 42
0.049733
  0
VERTEX
  8
0
 10
26.437976
 20
30.950107
 42
0.062024
  0
VERTEX
  8
0
 10
27.622573
 20
30.245825
 42
0.102727
  0
VERTEX
  8
0
 10
28.756272
 20
30.006833
 42
0.047297
  0
VERTEX
  8
0
 10
30.029985
 20
30.123697
 42
0.412749
  0
VERTEX
  8
0
 10
30.320888
 20
30.547197
 42
0.107687
  0
VERTEX
  8
0
 10
29.967051
 20
31.394562
 42
0.004201
  0
VERTEX
  8
0
 10
27.995186
 20
34.165343
 42
-0.007559
  0
VERTEX
  8
0
 10
26.053784
 20
36.932480
 42
-0.108311
  0
VERTEX
  8
0
 10
25.609081
 20
38.042990
 42
-0.208964
  0
VERTEX
  8
0
 10
25.835250
 20
38.940391
 42
-0.040494
  0
VERTEX
  8
0
 10
26.988913
 20
40.204298
 42
0.093816
  0
VERTEX
  8
0
 10
28.383904
 20
42.102815
 42
0.103924
  0
VERTEX
  8
0
 10
28.923407
 20
44.312193
 42
0.108430
  0
VERTEX
  8
0
 10
28.521181
 20
46.478070
 42
0.110398
  0
VERTEX
  8
0
 10
27.250000
 20
48.260399
 42
0.091786
  0
VERTEX
  8
0
 10
25.253643
 20
49.479691
 42
0.036014
  0
VERTEX
  8
0
 10
22.153620
 20
50.415710
 42
0.032021
  0
VERTEX
  8
0
 10
19.112499
 20
50.897806
 42
0.223251
  0
SEQEND
  0
POLYLINE
  8
0
 66
1
 70
1
  0
VERTEX
  8
0
 10
24.836910
 20
44.608344
 42
-0.125577
  0
VERTEX
  8
0
 10
24.762556
 20
43.362127
 42
-0.100419
  0
VERTEX
  8
0
 10
24.104169
 20
42.184002
 42
-0.097978
  0
VERTEX
  8
0
 10
23.021330
 20
41.333694
 42
-0.112962
  0
VERTEX
  8
0
 10
21.750000
 20
41.015313
 42
-0.303471
  0
VERTEX
  8
0
 10
21.459531
 20
41.201028
 42
-0.043064
  0
VERTEX
  8
0
 10
21.220312
 20
41.907287
 42
-0.037112
  0
VERTEX
  8
0
 10
21.054246
 20
42.896546
 42
-0.023036
  0
VERTEX
  8
0
 10
21.000000
 20
44.073324
 42
-0.025158
  0
VERTEX
  8
0
 10
21.077004
 20
45.602765
 42
-0.116785
  0
VERTEX
  8
0
 10
21.364185
 20
46.432712
 42
-0.201689
  0
VERTEX
  8
0
 10
21.898599
 20
46.803934
 42
-0.100166
  0
VERTEX
  8
0
 10
22.738516
 20
46.811841
 42
-0.089636
  0
VERTEX
  8
0
 10
23.430062
 20
46.544374
 42
-0.065590
  0
VERTEX
  8
0
 10
24.072058
 20
46.026455
 42
-0.064355
  0
VERTEX
  8
0
 10
24.569448
 20
45.347754
 42
-0.078574
  0
SEQEND
  0
POLYLINE
  8
0
 66
1
 70
1
  0
VERTEX
  8
0
 10
33.711588
 20
50.378255
 42
0.175806
  0
VERTEX
  8
0
 10
33.427522
 20
49.770678
 42
0.005478
  0
VERTEX
  8
0
 10
33.209029
 20
46.987154
 42
0.010095
  0
VERTEX
  8
0
 10
33.051573
 20
43.653051
 42
0.006751
  0
VERTEX
  8
0
 10
33.000000
 20
39.833333
 42
0.000000
  0
VERTEX
  8
0
 10
33.000000
 20
30.000000
 42
0.000000
  0
VERTEX
  8
0
 10
39.000000
 20
30.000000
 42
0.010614
  0
VERTEX
  8
0
 10
42.035942
 20
30.064452
 42
0.050675
  0
VERTEX
  8
0
 10
43.750000
 20
30.312500
 42
0.113455
  0
VERTEX
  8
0
 10
44.662288
 20
30.776970
 42
0.222027
  0
VERTEX
  8
0
 10
45.000000
 20
31.500000
 42
0.176579
  0
VERTEX
  8
0
 10
44.750359
 20
32.184843
 42
0.128937
  0
VERTEX
  8
0
 10
44.083333
 20
32.656250
 42
0.069535
  0
VERTEX
  8
0
 10
42.888175
 20
32.923415
 42
0.020272
  0
VERTEX
  8
0
 10
41.000000
 20
33.000000
 42
-0.015830
  0
VERTEX
  8
0
 10
38.478972
 20
33.079836
 42
-0.165362
  0
VERTEX
  8
0
 10
37.535714
 20
33.468750
 42
-0.192545
  0
VERTEX
  8
0
 10
37.099137
 20
34.324962
 42
-0.022778
  0
VERTEX
  8
0
 10
37.000000
 20
36.500000
 42
-0.022960
  0
VERTEX
  8
0
 10
37.100227
 20
38.681534
 42
-0.195004
  0
VERTEX
  8
0
 10
37.541667
 20
39.535714
 42
-0.163518
  0
VERTEX
  8
0
 10
38.496391
 20
39.921989
 42
-0.015074
  0
VERTEX
  8
0
 10
41.083333
 20
40.000000
 42
0.044008
  0
VERTEX
  8
0
 10
44.109634
 20
40.266881
 42
0.405212
  0
VERTEX
  8
0
 10
44.810132
 20
41.238007
 42
0.305459
  0
VERTEX
  8
0
 10
43.853170
 20
42.290271
 42
0.038913
  0
VERTEX
  8
0
 10
40.672700
 20
42.810365
 42
-0.023493
  0
VERTEX
  8
0
 10
38.827554
 20
43.054004
 42
-0.093116
  0
VERTEX
  8
0
 10
37.763378
 20
43.459378
 42
-0.152779
  0
VERTEX
  8
0
 10
37.201471
 20
44.102724
 42
-0.104052
  0
VERTEX
  8
0
 10
37.000000
 20
45.060365
 42
-0.103268
  0
VERTEX
  8
0
 10
37.204891
 20
46.041821
 42
-0.180620
  0
VERTEX
  8
0
 10
37.775012
 20
46.630955
 42
-0.094346
  0
VERTEX
  8
0
 10
38.900804
 20
46.925954
 42
-0.017037
  0
VERTEX
  8
0
 10
41.073324
 20
47.000000
 42
0.015173
  0
VERTEX
  8
0
 10
43.231116
 20
47.065495
 42
0.094505
  0
VERTEX
  8
0
 10
44.298208
 20
47.336987
 42
0.212100
  0
VERTEX
  8
0
 10
44.766114
 20
47.875665
 42
0.121865
  0
VERTEX
  8
0
 10
44.813958
 20
48.750000
 42
0.146324
  0
VERTEX
  8
0
 10
44.370988
 20
49.604092
 42
0.109787
  0
VERTEX
  8
0
 10
43.482031
 20
50.190405
 42
0.060658
  0
VERTEX
  8
0
 10
41.961160
 20
50.567742
 42
0.015864
  0
VERTEX
  8
0
 10
39.452222
 20
50.794922
 42
0.013859
  0
VERTEX
  8
0
 10
37.474113
 20
50.855986
 42
0.018902
  0
VERTEX
  8
0
 10
35.691430
 20
50.794181
 42
0.015979
  0
VERTEX
  8
0
 10
34.243694
 20
50.642471
 42
0.163697
  0
SEQEND
  0
POLYLINE
  8
0
 66
1
 70
1
  0
VERTEX
  8
0
 10
50.980974
 20
41.329473
 42
0.000405
  0
VERTEX
  8
0
 10
49.239760
 20
37.563722
 42
0.000597
  0
VERTEX
  8
0
 10
47.718369
 20
34.256006
 42
0.000267
  0
VERTEX
  8
0
 10
46.424362
 20
31.429797
 42
0.011682
  0
VERTEX
  8
0
 10
46.166667
 20
30.829473
 42
0.420209
  0
VERTEX
  8
0
 10
46.512239
 20
30.041934
 42
0.178481
  0
VERTEX
  8
0
 10
47.791455
 20
30.031134
 42
0.077975
  0
VERTEX
  8
0
 10
49.675881
 20
31.061666
 42
0.122406
  0
VERTEX
  8
0
 10
50.818046
 20
32.500000
 42
-0.057951
  0
VERTEX
  8
0
 10
51.593238
 20
33.783594
 42
-0.116072
  0
VERTEX
  8
0
 10
52.508880
 20
34.524970
 42
-0.088430
  0
VERTEX
  8
0
 10
53.829920
 20
34.894994
 42
-0.024180
  0
VERTEX
  8
0
 10
56.000000
 20
35.000000
 42
-0.024180
  0
VERTEX
  8
0
 10
58.170080
 20
34.894994
 42
-0.088430
  0
VERTEX
  8
0
 10
59.491120
 20
34.524970
 42
-0.116072
  0
VERTEX
  8
0
 10
60.406762
 20
33.783594
 42
-0.057951
  0
VERTEX
  8
0
 10
61.181954
 20
32.500000
 42
0.056412
  0
VERTEX
  8
0
 10
61.755366
 20
31.543903
 42
0.055509
  0
VERTEX
  8
0
 10
62.530717
 20
30.734375
 42
0.060550
  0
VERTEX
  8
0
 10
63.381029
 20
30.183210
 42
0.114028
  0
VERTEX
  8
0
 10
64.173935
 20
30.000000
 42
0.057214
  0
VERTEX
  8
0
 10
65.177359
 20
30.115197
 42
0.311065
  0
VERTEX
  8
0
 10
65.526629
 20
30.498454
 42
0.127662
  0
VERTEX
  8
0
 10
65.435832
 20
31.263882
 42
0.009237
  0
VERTEX
  8
0
 10
64.618284
 20
33.250000
 42
0.002841
  0
VERTEX
  8
0
 10
61.275377
 20
40.844605
 42
0.006983
  0
VERTEX
  8
0
 10
58.709843
 20
46.375786
 42
0.002737
  0
VERTEX
  8
0
 10
56.616678
 20
50.667958
 42
0.285279
  0
VERTEX
  8
0
 10
56.082080
 20
51.000000
 42
0.275255
  0
VERTEX
  8
0
 10
55.736138
 20
50.793944
 42
0.002747
  0
VERTEX
  8
0
 10
54.327825
 20
48.159283
 42
0.007930
  0
VERTEX
  8
0
 10
52.743484
 20
45.036712
 42
0.004941
  0
SEQEND
  0
POLYLINE
  8
0
 66
1
 70
1
  0
VERTEX
  8
0
 10
57.393011
 20
41.418213
 42
-0.031009
  0
VERTEX
  8
0
 10
57.932297
 20
39.701693
 42
-0.158659
  0
VERTEX
  8
0
 10
57.861067
 20
38.717989
 42
-0.230417
  0
VERTEX
  8
0
 10
57.256210
 20
38.175722
 42
-0.069602
  0
VERTEX
  8
0
 10
56.000000
 20
38.000000
 42
-0.043961
  0
VERTEX
  8
0
 10
55.234387
 20
38.067444
 42
-0.063754
  0
VERTEX
  8
0
 10
54.587500
 20
38.269725
 42
-0.083526
  0
VERTEX
  8
0
 10
54.149844
 20
38.567260
 42
-0.204550
  0
VERTEX
  8
0
 10
54.000000
 20
38.918213
 42
-0.067868
  0
VERTEX
  8
0
 10
54.174637
 20
40.198882
 42
-0.046169
  0
VERTEX
  8
0
 10
54.698011
 20
41.575433
 42
-0.046028
  0
VERTEX
  8
0
 10
55.375304
 20
42.686120
 42
-0.237103
  0
VERTEX
  8
0
 10
56.000000
 20
43.000000
 42
-0.157772
  0
VERTEX
  8
0
 10
56.344626
 20
42.888479
 42
-0.055768
  0
VERTEX
  8
0
 10
56.733431
 20
42.535350
 42
-0.048552
  0
VERTEX
  8
0
 10
57.102721
 20
42.023499
 42
-0.040412
  0
SEQEND
  0
POLYLINE
  8
0
 66
1
 70
1
  0
VERTEX
  8
0
 10
71.353094
 20
49.073656
 42
0.090162
  0
VERTEX
  8
0
 10
69.003386
 20
46.981816
 42
0.065378
  0
VERTEX
  8
0
 10
67.219555
 20
43.958020
 42
0.066856
  0
VERTEX
  8
0
 10
66.310708
 20
40.660007
 42
0.107630
  0
VERTEX
  8
0
 10
66.539974
 20
37.765700
 42
0.077354
  0
VERTEX
  8
0
 10
67.982415
 20
34.763410
 42
0.071768
  0
VERTEX
  8
0
 10
70.300295
 20
32.253157
 42
0.074528
  0
VERTEX
  8
0
 10
73.140733
 20
30.576861
 42
0.096389
  0
VERTEX
  8
0
 10
76.105304
 20
30.000000
 42
0.024087
  0
VERTEX
  8
0
 10
79.378972
 20
30.157798
 42
0.081946
  0
VERTEX
  8
0
 10
81.436138
 20
30.704730
 42
0.143167
  0
VERTEX
  8
0
 10
82.575023
 20
31.679252
 42
0.145671
  0
VERTEX
  8
0
 10
83.000000
 20
33.106989
 42
0.092998
  0
VERTEX
  8
0
 10
82.774545
 20
34.308651
 42
0.217535
  0
VERTEX
  8
0
 10
82.133626
 20
34.931967
 42
0.238546
  0
VERTEX
  8
0
 10
81.293790
 20
34.826215
 42
0.106303
  0
VERTEX
  8
0
 10
80.500000
 20
34.000000
 42
-0.217135
  0
VERTEX
  8
0
 10
79.129762
 20
33.083362
 42
-0.079805
  0
VERTEX
  8
0
 10
76.746360
 20
33.076959
 42
-0.070952
  0
VERTEX
  8
0
 10
74.159668
 20
33.872171
 42
-0.094451
  0
VERTEX
  8
0
 10
72.174314
 20
35.314451
 42
-0.158374
  0
VERTEX
  8
0
 10
70.043264
 20
39.840488
 42
-0.196050
  0
VERTEX
  8
0
 10
71.236918
 20
44.304595
 42
-0.178858
  0
VERTEX
  8
0
 10
75.360346
 20
46.938035
 42
-0.136465
  0
VERTEX
  8
0
 10
80.750000
 20
46.631194
 42
0.134982
  0
VERTEX
  8
0
 10
82.326244
 20
46.536849
 42
0.328009
  0
VERTEX
  8
0
 10
83.058798
 20
47.358168
 42
0.206869
  0
VERTEX
  8
0
 10
82.610763
 20
48.739937
 42
0.089706
  0
VERTEX
  8
0
 10
81.065741
 20
49.964816
 42
0.072880
  0
VERTEX
  8
0
 10
78.819641
 20
50.774273
 42
0.073102
  0
VERTEX
  8
0
 10
76.438137
 20
50.904070
 42
0.066780
  0
VERTEX
  8
0
 10
73.940634
 20
50.332827
 42
0.047372
  0
SEQEND
  0
POLYLINE
  8
0
 66
1
 70
1
  0
VERTEX
  8
0
 10
87.000000
 20
40.500000
 42
0.004841
  0
VERTEX
  8
0
 10
87.054606
 20
34.860051
 42
0.030643
  0
VERTEX
  8
0
 10
87.285714
 20
32.000000
 42
0.072528
  0
VERTEX
  8
0
 10
87.729954
 20
30.493192
 42
0.292784
  0
VERTEX
  8
0
 10
88.500000
 20
30.000000
 42
0.188641
  0
VERTEX
  8
0
 10
89.196999
 20
30.272668
 42
0.126480
  0
VERTEX
  8
0
 10
89.666667
 20
31.000000
 42
0.063857
  0
VERTEX
  8
0
 10
89.927513
 20
32.326193
 42
0.016668
  0
VERTEX
  8
0
 10
90.000000
 20
34.500000
 42
0.000000
  0
VERTEX
  8
0
 10
90.000000
 20
39.000000
 42
0.000000
  0
VERTEX
  8
0
 10
93.942502
 20
39.000000
 42
-0.018973
  0
VERTEX
  8
0
 10
96.458021
 20
38.904510
 42
-0.179000
  0
VERTEX
  8
0
 10
97.423533
 20
38.461549
 42
-0.164537
  0
VERTEX
  8
0
 10
97.910638
 20
37.479041
 42
-0.015436
  0
VERTEX
  8
0
 10
98.192502
 20
34.758627
 42
0.021777
  0
VERTEX
  8
0
 10
98.428595
 20
32.731074
 42
0.065919
  0
VERTEX
  8
0
 10
98.826658
 20
31.402551
 42
0.105876
  0
VERTEX
  8
0
 10
99.422193
 20
30.592125
 42
0.135481
  0
VERTEX
  8
0
 10
100.250000
 20
30.185303
 42
0.264254
  0
VERTEX
  8
0
 10
101.176343
 20
30.501809
 42
0.140107
  0
VERTEX
  8
0
 10
101.716702
 20
31.630618
 42
0.038325
  0
VERTEX
  8
0
 10
101.953344
 20
34.211100
 42
0.003709
  0
VERTEX
  8
0
 10
102.000000
 20
40.500000
 42
0.003710
  0
VERTEX
  8
0
 10
101.953341
 20
46.788805
 42
0.038323
  0
VERTEX
  8
0
 10
101.716695
 20
49.369387
 42
0.140078
  0
VERTEX
  8
0
 10
101.176348
 20
50.498350
 42
0.264240
  0
VERTEX
  8
0
 10
100.250000
 20
50.815008
 42
0.128769
  0
VERTEX
  8
0
 10
99.444760
 20
50.432549
 42
0.101082
  0
VERTEX
  8
0
 10
98.842523
 20
49.672037
 42
0.068885
  0
VERTEX
  8
0
 10
98.429497
 20
48.469112
 42
0.027614
  0
VERTEX
  8
0
 10
98.189635
 20
46.741683
 42
-0.021111
  0
VERTEX
  8
0
 10
97.898638
 20
44.425345
 42
-0.172102
  0
VERTEX
  8
0
 10
97.387372
 20
43.507134
 42
-0.163352
  0
VERTEX
  8
0
 10
96.398291
 20
43.091247
 42
-0.018550
  0
VERTEX
  8
0
 10
93.939635
 20
43.000000
 42
-0.016866
  0
VERTEX
  8
0
 10
91.407997
 20
43.085421
 42
-0.183402
  0
VERTEX
  8
0
 10
90.496227
 20
43.503831
 42
-0.180190
  0
VERTEX
  8
0
 10
90.083302
 20
44.425409
 42
-0.016173
  0
VERTEX
  8
0
 10
90.000000
 20
47.000000
 42
0.020272
  0
VERTEX
  8
0
 10
89.923415
 20
48.888175
 42
0.069535
  0
VERTEX
  8
0
 10
89.656250
 20
50.083333
 42
0.128937
  0
VERTEX
  8
0
 10
89.184843
 20
50.750359
 42
0.176579
  0
VERTEX
  8
0
 10
88.500000
 20
51.000000
 42
0.292784
  0
VERTEX
  8
0
 10
87.729954
 20
50.506808
 42
0.072528
  0
VERTEX
  8
0
 10
87.285714
 20
49.000000
 42
0.030643
  0
VERTEX
  8
0
 10
87.054606
 20
46.139949
 42
0.004841
  0
SEQEND
  0
POLYLINE
  8
0
 66
1
 70
1
  0
VERTEX
  8
0
 10
139.711588
 20
50.378255
 42
0.175806
  0
VERTEX
  8
0
 10
139.427522
 20
49.770678
 42
0.005478
  0
VERTEX
  8
0
 10
139.209029
 20
46.987154
 42
0.010095
  0
VERTEX
  8
0
 10
139.051573
 20
43.653051
 42
0.006751
  0
VERTEX
  8
0
 10
139.000000
 20
39.833333
 42
0.000000
  0
VERTEX
  8
0
 10
139.000000
 20
30.000000
 42
0.000000
  0
VERTEX
  8
0
 10
145.000000
 20
30.000000
 42
0.010614
  0
VERTEX
  8
0
 10
148.035942
 20
30.064452
 42
0.050675
  0
VERTEX
  8
0
 10
149.750000
 20
30.312500
 42
0.113455
  0
VERTEX
  8
0
 10
150.662288
 20
30.776970
 42
0.222027
  0
VERTEX
  8
0
 10
151.000000
 20
31.500000
 42
0.176579
  0
VERTEX
  8
0
 10
150.750359
 20
32.184843
 42
0.128937
  0
VERTEX
  8
0
 10
150.083333
 20
32.656250
 42
0.069535
  0
VERTEX
  8
0
 10
148.888175
 20
32.923415
 42
0.020272
  0
VERTEX
  8
0
 10
147.000000
 20
33.000000
 42
-0.015830
  0
VERTEX
  8
0
 10
144.478972
 20
33.079836
 42
-0.165362
  0
VERTEX
  8
0
 10
143.535714
 20
33.468750
 42
-0.192545
  0
VERTEX
  8
0
 10
143.099137
 20
34.324962
 42
-0.022778
  0
VERTEX
  8
0
 10
143.000000
 20
36.500000
 42
-0.022960
  0
VERTEX
  8
0
 10
143.100227
 20
38.681534
 42
-0.195004
  0
VERTEX
  8
0
 10
143.541667
 20
39.535714
 42
-0.163518
  0
VERTEX
  8
0
 10
144.496391
 20
39.921989
 42
-0.015074
  0
VERTEX
  8
0
 10
147.083333
 20
40.000000
 42
0.044008
  0
VERTEX
  8
0
 10
150.109634
 20
40.266881
 42
0.405212
  0
VERTEX
  8
0
 10
150.810132
 20
41.238007
 42
0.305459
  0
VERTEX
  8
0
 10
149.853170
 20
42.290271
 42
0.038913
  0
VERTEX
  8
0
 10
146.672700
 20
42.810365
 42
-0.023493
  0
VERTEX
  8
0
 10
144.827554
 20
43.054004
 42
-0.093116
  0
VERTEX
  8
0
 10
143.763378
 20
43.459378
 42
-0.152779
  0
VERTEX
  8
0
 10
143.201471
 20
44.102724
 42
-0.104052
  0
VERTEX
  8
0
 10
143.000000
 20
45.060365
 42
-0.103268
  0
VERTEX
  8
0
 10
143.204891
 20
46.041821
 42
-0.180620
  0
VERTEX
  8
0
 10
143.775012
 20
46.630955
 42
-0.094346
  0
VERTEX
  8
0
 10
144.900804
 20
46.925954
 42
-0.017037
  0
VERTEX
  8
0
 10
147.073324
 20
47.000000
 42
0.015173
  0
VERTEX
  8
0
 10
149.231116
 20
47.065495
 42
0.094505
  0
VERTEX
  8
0
 10
150.298208
 20
47.336987
 42
0.212100
  0
VERTEX
  8
0
 10
150.766114
 20
47.875665
 42
0.121865
  0
VERTEX
  8
0
 10
150.813958
 20
48.750000
 42
0.146324
  0
VERTEX
  8
0
 10
150.370988
 20
49.604092
 42
0.109787
  0
VERTEX
  8
0
 10
149.482031
 20
50.190405
 42
0.060658
  0
VERTEX
  8
0
 10
147.961160
 20
50.567742
 42
0.015864
  0
VERTEX
  8
0
 10
145.452222
 20
50.794922
 42
0.013859
  0
VERTEX
  8
0
 10
143.474113
 20
50.855986
 42
0.018902
  0
VERTEX
  8
0
 10
141.691430
 20
50.794181
 42
0.015979
  0
VERTEX
  8
0
 10
140.243694
 20
50.642471
 42
0.163697
  0
SEQEND
  0
POLYLINE
  8
0
 66
1
 70
1
  0
VERTEX
  8
0
 10
152.390335
 20
49.351424
 42
0.005613
  0
VERTEX
  8
0
 10
155.401697
 20
41.452785
 42
0.009901
  0
VERTEX
  8
0
 10
158.089585
 20
35.010486
 42
0.004459
  0
VERTEX
  8
0
 10
160.434137
 20
29.816096
 42
0.541395
  0
VERTEX
  8
0
 10
161.037950
 20
29.727637
 42
0.075533
  0
VERTEX
  8
0
 10
161.392585
 20
30.277212
 42
0.006497
  0
VERTEX
  8
0
 10
162.059777
 20
31.815306
 42
0.008456
  0
VERTEX
  8
0
 10
162.804383
 20
33.682939
 42
0.006459
  0
VERTEX
  8
0
 10
163.557857
 20
35.750000
 42
-0.011470
  0
VERTEX
  8
0
 10
164.314224
 20
37.762098
 42
-0.017773
  0
VERTEX
  8
0
 10
165.067516
 20
39.457813
 42
-0.012363
  0
VERTEX
  8
0
 10
165.756570
 20
40.786830
 42
-0.273466
  0
VERTEX
  8
0
 10
166.117178
 20
41.000000
 42
-0.278671
  0
VERTEX
  8
0
 10
166.472811
 20
40.785102
 42
-0.012732
  0
VERTEX
  8
0
 10
167.127494
 20
39.457813
 42
-0.018113
  0
VERTEX
  8
0
 10
167.837523
 20
37.762130
 42
-0.011651
  0
VERTEX
  8
0
 10
168.542554
 20
35.750000
 42
0.007364
  0
VERTEX
  8
0
 10
169.247513
 20
33.681421
 42
0.009567
  0
VERTEX
  8
0
 10
169.957229
 20
31.809039
 42
0.007549
  0
VERTEX
  8
0
 10
170.601506
 20
30.270370
 42
0.081592
  0
VERTEX
  8
0
 10
170.966618
 20
29.706303
 42
0.538793
  0
VERTEX
  8
0
 10
171.711448
 20
29.822599
 42
0.002266
  0
VERTEX
  8
0
 10
175.732250
 20
38.754706
 42
0.004600
  0
VERTEX
  8
0
 10
179.457571
 20
47.343610
 42
0.100346
  0
VERTEX
  8
0
 10
180.000000
 20
50.019178
 42
0.287855
  0
VERTEX
  8
0
 10
179.454329
 20
50.888465
 42
0.217945
  0
VERTEX
  8
0
 10
178.301024
 20
50.912122
 42
0.110851
  0
VERTEX
  8
0
 10
176.865319
 20
49.866494
 42
0.094721
  0
VERTEX
  8
0
 10
175.914607
 20
48.250000
 42
-0.008209
  0
VERTEX
  8
0
 10
175.414512
 20
46.918099
 42
-0.003438
  0
VERTEX
  8
0
 10
174.699338
 20
45.140346
 42
-0.003400
  0
VERTEX
  8
0
 10
173.908065
 20
43.248566
 42
-0.004409
  0
VERTEX
  8
0
 10
173.155593
 20
41.525645
 42
0.000000
  0
VERTEX
  8
0
 10
171.377933
 20
37.551291
 42
0.000000
  0
VERTEX
  8
0
 10
169.020055
 20
44.230269
 42
0.010451
  0
VERTEX
  8
0
 10
168.066606
 20
46.761230
 42
0.017928
  0
VERTEX
  8
0
 10
167.153320
 20
48.822774
 42
0.012622
  0
VERTEX
  8
0
 10
166.341462
 20
50.389392
 42
0.428998
  0
VERTEX
  8
0
 10
165.976278
 20
50.485339
 42
0.144369
  0
VERTEX
  8
0
 10
165.620065
 20
50.087671
 42
0.006249
  0
VERTEX
  8
0
 10
164.829506
 20
48.369379
 42
0.010209
  0
VERTEX
  8
0
 10
163.949279
 20
46.277492
 42
0.007059
  0
VERTEX
  8
0
 10
163.035550
 20
43.877345
 42
0.000000
  0
VERTEX
  8
0
 10
160.780719
 20
37.693260
 42
0.000000
  0
VERTEX
  8
0
 10
158.112327
 20
44.088334
 42
0.016011
  0
VERTEX
  8
0
 10
156.846805
 20
46.867418
 42
0.033025
  0
VERTEX
  8
0
 10
155.649634
 20
48.932577
 42
0.042098
  0
VERTEX
  8
0
 10
154.542438
 20
50.314331
 42
0.156475
  0
VERTEX
  8
0
 10
153.576059
 20
50.843127
 42
0.041199
  0
VERTEX
  8
0
 10
152.666643
 20
50.941638
 42
0.235393
  0
VERTEX
  8
0
 10
152.239450
 20
50.742183
 42
0.222600
  0
VERTEX
  8
0
 10
152.127260
 20
50.270585
 42
0.037144
  0
SEQEND
  0
POLYLINE
  8
0
 66
1
 70
1
  0
VERTEX
  8
0
 10
193.687500
 20
50.354167
 42
0.176668
  0
VERTEX
  8
0
 10
193.412820
 20
49.764094
 42
0.005172
  0
VERTEX
  8
0
 10
193.201953
 20
46.980078
 42
0.009791
  0
VERTEX
  8
0
 10
193.049814
 20
43.651368
 42
0.006523
  0
VERTEX
  8
0
 10
193.000000
 20
39.833333
 42
0.003946
  0
VERTEX
  8
0
 10
193.047531
 20
33.810815
 42
0.046250
  0
VERTEX
  8
0
 10
193.300847
 20
31.479167
 42
0.161442
  0
VERTEX
  8
0
 10
193.910528
 20
30.416249
 42
0.184528
  0
VERTEX
  8
0
 10
195.000000
 20
30.000000
 42
0.102588
  0
VERTEX
  8
0
 10
196.035525
 20
30.214724
 42
0.188085
  0
VERTEX
  8
0
 10
196.638889
 20
30.812500
 42
0.090841
  0
VERTEX
  8
0
 10
196.930739
 20
32.020585
 42
0.013964
  0
VERTEX
  8
0
 10
197.000000
 20
34.500000
 42
0.000000
  0
VERTEX
  8
0
 10
197.000000
 20
39.000000
 42
0.000000
  0
VERTEX
  8
0
 10
201.000000
 20
39.000000
 42
0.000000
  0
VERTEX
  8
0
 10
205.000000
 20
39.000000
 42
0.000000
  0
VERTEX
  8
0
 10
205.000000
 20
34.500000
 42
0.016668
  0
VERTEX
  8
0
 10
205.072487
 20
32.326193
 42
0.063857
  0
VERTEX
  8
0
 10
205.333333
 20
31.000000
 42
0.126480
  0
VERTEX
  8
0
 10
205.803001
 20
30.272668
 42
0.188641
  0
VERTEX
  8
0
 10
206.500000
 20
30.000000
 42
0.292784
  0
VERTEX
  8
0
 10
207.270046
 20
30.493192
 42
0.072528
  0
VERTEX
  8
0
 10
207.714286
 20
32.000000
 42
0.030643
  0
VERTEX
  8
0
 10
207.945394
 20
34.860051
 42
0.004841
  0
VERTEX
  8
0
 10
208.000000
 20
40.500000
 42
0.004841
  0
VERTEX
  8
0
 10
207.945394
 20
46.139949
 42
0.030643
  0
VERTEX
  8
0
 10
207.714286
 20
49.000000
 42
0.072528
  0
VERTEX
  8
0
 10
207.270046
 20
50.506808
 42
0.292784
  0
VERTEX
  8
0
 10
206.500000
 20
51.000000
 42
0.176579
  0
VERTEX
  8
0
 10
205.815157
 20
50.750359
 42
0.128937
  0
VERTEX
  8
0
 10
205.343750
 20
50.083333
 42
0.069535
  0
VERTEX
  8
0
 10
205.076585
 20
48.888175
 42
0.020272
  0
VERTEX
  8
0
 10
205.000000
 20
47.000000
 42
-0.016173
  0
VERTEX
  8
0
 10
204.916698
 20
44.425409
 42
-0.180190
  0
VERTEX
  8
0
 10
204.503773
 20
43.503831
 42
-0.183402
  0
VERTEX
  8
0
 10
203.592003
 20
43.085421
 42
-0.016866
  0
VERTEX
  8
0
 10
201.060365
 20
43.000000
 42
-0.018506
  0
VERTEX
  8
0
 10
198.610531
 20
43.090703
 42
-0.161032
  0
VERTEX
  8
0
 10
197.617541
 20
43.502756
 42
-0.173035
  0
VERTEX
  8
0
 10
197.102627
 20
44.411617
 42
-0.022123
  0
VERTEX
  8
0
 10
196.810365
 20
46.672700
 42
0.041678
  0
VERTEX
  8
0
 10
196.426420
 20
48.941858
 42
0.113626
  0
VERTEX
  8
0
 10
195.683014
 20
50.379604
 42
0.229318
  0
VERTEX
  8
0
 10
194.723197
 20
50.804172
 42
0.189994
  0
SEQEND
  0
POLYLINE
  8
0
 66
1
 70
1
  0
VERTEX
  8
0
 10
213.000000
 20
40.500000
 42
0.000000
  0
VERTEX
  8
0
 10
213.000000
 20
30.000000
 42
0.000000
  0
VERTEX
  8
0
 10
218.500000
 20
30.000000
 42
0.012120
  0
VERTEX
  8
0
 10
221.247932
 20
30.066617
 42
0.054498
  0
VERTEX
  8
0
 10
222.833333
 20
30.318182
 42
0.118311
  0
VERTEX
  8
0
 10
223.683247
 20
30.784456
 42
0.211442
  0
VERTEX
  8
0
 10
224.000000
 20
31.500000
 42
0.178124
  0
VERTEX
  8
0
 10
223.747409
 20
32.186534
 42
0.128719
  0
VERTEX
  8
0
 10
223.072774
 20
32.657712
 42
0.068777
  0
VERTEX
  8
0
 10
221.860939
 20
32.923992
 42
0.019742
  0
VERTEX
  8
0
 10
219.936642
 20
33.000000
 42
-0.013333
  0
VERTEX
  8
0
 10
217.349110
 20
33.069010
 42
-0.166710
  0
VERTEX
  8
0
 10
216.453270
 20
33.430678
 42
-0.217115
  0
VERTEX
  8
0
 10
216.090697
 20
34.223104
 42
-0.024415
  0
VERTEX
  8
0
 10
216.186642
 20
36.250000
 42
-0.032999
  0
VERTEX
  8
0
 10
216.492335
 20
38.119337
 42
-0.157075
  0
VERTEX
  8
0
 10
217.041759
 20
39.036590
 42
-0.137093
  0
VERTEX
  8
0
 10
218.067229
 20
39.528196
 42
-0.022995
  0
VERTEX
  8
0
 10
220.250000
 20
39.810365
 42
0.051053
  0
VERTEX
  8
0
 10
223.347590
 20
40.388743
 42
0.354413
  0
VERTEX
  8
0
 10
224.162090
 20
41.571706
 42
0.335242
  0
VERTEX
  8
0
 10
223.176952
 20
42.683314
 42
0.049718
  0
VERTEX
  8
0
 10
220.000000
 20
43.000000
 42
-0.017388
  0
VERTEX
  8
0
 10
217.849164
 20
43.074821
 42
-0.098846
  0
VERTEX
  8
0
 10
216.750000
 20
43.375000
 42
-0.184152
  0
VERTEX
  8
0
 10
216.195784
 20
43.978414
 42
-0.094959
  0
VERTEX
  8
0
 10
216.000000
 20
45.000000
 42
-0.094959
  0
VERTEX
  8
0
 10
216.195784
 20
46.021586
 42
-0.184152
  0
VERTEX
  8
0
 10
216.750000
 20
46.625000
 42
-0.098846
  0
VERTEX
  8
0
 10
217.849164
 20
46.925179
 42
-0.017388
  0
VERTEX
  8
0
 10
220.000000
 20
47.000000
 42
0.017388
  0
VERTEX
  8
0
 10
222.150836
 20
47.074821
 42
0.098846
  0
VERTEX
  8
0
 10
223.250000
 20
47.375000
 42
0.184152
  0
VERTEX
  8
0
 10
223.804216
 20
47.978414
 42
0.094959
  0
VERTEX
  8
0
 10
224.000000
 20
49.000000
 42
0.118451
  0
VERTEX
  8
0
 10
223.746716
 20
50.054152
 42
0.189837
  0
VERTEX
  8
0
 10
223.062500
 20
50.659091
 42
0.077556
  0
VERTEX
  8
0
 10
221.640147
 20
50.938496
 42
0.009792
  0
VERTEX
  8
0
 10
218.500000
 20
51.000000
 42
0.000000
  0
VERTEX
  8
0
 10
213.000000
 20
51.000000
 42
0.000000
  0
SEQEND
  0
POLYLINE
  8
0
 66
1
 70
1
  0
VERTEX
  8
0
 10
228.000000
 20
40.500000
 42
0.004841
  0
VERTEX
  8
0
 10
228.054606
 20
34.860051
 42
0.030643
  0
VERTEX
  8
0
 10
228.285714
 20
32.000000
 42
0.072528
  0
VERTEX
  8
0
 10
228.729954
 20
30.493192
 42
0.292784
  0
VERTEX
  8
0
 10
229.500000
 20
30.000000
 42
0.292784
  0
VERTEX
  8
0
 10
230.270046
 20
30.493192
 42
0.072528
  0
VERTEX
  8
0
 10
230.714286
 20
32.000000
 42
0.030643
  0
VERTEX
  8
0
 10
230.945394
 20
34.860051
 42
0.004841
  0
VERTEX
  8
0
 10
231.000000
 20
40.500000
 42
0.004841
  0
VERTEX
  8
0
 10
230.945394
 20
46.139949
 42
0.030643
  0
VERTEX
  8
0
 10
230.714286
 20
49.000000
 42
0.072528
  0
VERTEX
  8
0
 10
230.270046
 20
50.506808
 42
0.292784
  0
VERTEX
  8
0
 10
229.500000
 20
51.000000
 42
0.292784
  0
VERTEX
  8
0
 10
228.729954
 20
50.506808
 42
0.072528
  0
VERTEX
  8
0
 10
228.285714
 20
49.000000
 42
0.030643
  0
VERTEX
  8
0
 10
228.054606
 20
46.139949
 42
0.004841
  0
SEQEND
  0
POLYLINE
  8
0
 66
1
 70
1
  0
VERTEX
  8
0
 10
241.388117
 20
50.019931
 42
0.128493
  0
VERTEX
  8
0
 10
237.464246
 20
47.101032
 42
0.118635
  0
VERTEX
  8
0
 10
235.324402
 20
42.549474
 42
0.117050
  0
VERTEX
  8
0
 10
235.475414
 20
37.472503
 42
0.122757
  0
VERTEX
  8
0
 10
237.901210
 20
33.105755
 42
0.135638
  0
VERTEX
  8
0
 10
242.457793
 20
30.313313
 42
0.138637
  0
VERTEX
  8
0
 10
247.760545
 20
30.288620
 42
0.140042
  0
VERTEX
  8
0
 10
252.252840
 20
33.037529
 42
0.139320
  0
VERTEX
  8
0
 10
254.626070
 20
37.750000
 42
0.000000
  0
VERTEX
  8
0
 10
255.250000
 20
41.000000
 42
0.000000
  0
VERTEX
  8
0
 10
250.625000
 20
41.000000
 42
0.015941
  0
VERTEX
  8
0
 10
248.379608
 20
40.928393
 42
0.062547
  0
VERTEX
  8
0
 10
247.020833
 20
40.668919
 42
0.125646
  0
VERTEX
  8
0
 10
246.278328
 20
40.199672
 42
0.191598
  0
VERTEX
  8
0
 10
246.000000
 20
39.500000
 42
0.140575
  0
VERTEX
  8
0
 10
246.177821
 20
38.880020
 42
0.118484
  0
VERTEX
  8
0
 10
246.666667
 20
38.400000
 42
0.088208
  0
VERTEX
  8
0
 10
247.456621
 20
38.098630
 42
0.047160
  0
VERTEX
  8
0
 10
248.500000
 20
38.000000
 42
-0.052501
  0
VERTEX
  8
0
 10
250.258677
 20
37.814824
 42
-0.299213
  0
VERTEX
  8
0
 10
250.887426
 20
37.178632
 42
-0.227140
  0
VERTEX
  8
0
 10
250.633038
 20
36.176754
 42
-0.034983
  0
VERTEX
  8
0
 10
249.171259
 20
34.654988
 42
-0.186251
  0
VERTEX
  8
0
 10
245.206031
 20
33.129405
 42
-0.175630
  0
VERTEX
  8
0
 10
241.124668
 20
34.613267
 42
-0.160282
  0
VERTEX
  8
0
 10
238.694336
 20
38.519943
 42
-0.159161
  0
VERTEX
  8
0
 10
239.049278
 20
43.118969
 42
-0.062743
  0
VERTEX
  8
0
 10
239.728080
 20
44.309979
 42
-0.048640
  0
VERTEX
  8
0
 10
240.736004
 20
45.412630
 42
-0.047437
  0
VERTEX
  8
0
 10
241.968726
 20
46.327083
 42
-0.052050
  0
VERTEX
  8
0
 10
243.315109
 20
46.960003
 42
-0.032212
  0
VERTEX
  8
0
 10
245.081575
 20
47.450839
 42
-0.090189
  0
VERTEX
  8
0
 10
246.360923
 20
47.485046
 42
-0.089598
  0
VERTEX
  8
0
 10
247.575283
 20
47.066545
 42
-0.031520
  0
VERTEX
  8
0
 10
249.129392
 20
46.062457
 42
0.018841
  0
VERTEX
  8
0
 10
250.610572
 20
45.051387
 42
0.099942
  0
VERTEX
  8
0
 10
251.523843
 20
44.705480
 42
0.173967
  0
VERTEX
  8
0
 10
252.238730
 20
44.836787
 42
0.088211
  0
VERTEX
  8
0
 10
252.946357
 20
45.435364
 42
0.109573
  0
VERTEX
  8
0
 10
253.344032
 20
46.209690
 42
0.170508
  0
VERTEX
  8
0
 10
253.283481
 20
46.950162
 42
0.098474
  0
VERTEX
  8
0
 10
252.696705
 20
47.779645
 42
0.023077
  0
VERTEX
  8
0
 10
251.402779
 20
48.897814
 42
0.068943
  0
VERTEX
  8
0
 10
249.187388
 20
50.192423
 42
0.070013
  0
VERTEX
  8
0
 10
246.715045
 20
50.827353
 42
0.067351
  0
VERTEX
  8
0
 10
244.079977
 20
50.766958
 42
0.056704
  0
SEQEND
  0
POLYLINE
  8
0
 66
1
 70
1
  0
VERTEX
  8
0
 10
258.687500
 20
50.354167
 42
0.176668
  0
VERTEX
  8
0
 10
258.412820
 20
49.764094
 42
0.005172
  0
VERTEX
  8
0
 10
258.201953
 20
46.980078
 42
0.009791
  0
VERTEX
  8
0
 10
258.049814
 20
43.651368
 42
0.006523
  0
VERTEX
  8
0
 10
258.000000
 20
39.833333
 42
0.003946
  0
VERTEX
  8
0
 10
258.047531
 20
33.810815
 42
0.046250
  0
VERTEX
  8
0
 10
258.300847
 20
31.479167
 42
0.161442
  0
VERTEX
  8
0
 10
258.910528
 20
30.416249
 42
0.184528
  0
VERTEX
  8
0
 10
260.000000
 20
30.000000
 42
0.102588
  0
VERTEX
  8
0
 10
261.035525
 20
30.214724
 42
0.188085
  0
VERTEX
  8
0
 10
261.638889
 20
30.812500
 42
0.090841
  0
VERTEX
  8
0
 10
261.930739
 20
32.020585
 42
0.013964
  0
VERTEX
  8
0
 10
262.000000
 20
34.500000
 42
0.000000
  0
VERTEX
  8
0
 10
262.000000
 20
39.000000
 42
0.000000
  0
VERTEX
  8
0
 10
266.000000
 20
39.000000
 42
0.000000
  0
VERTEX
  8
0
 10
270.000000
 20
39.000000
 42
0.000000
  0
VERTEX
  8
0
 10
270.000000
 20
34.500000
 42
0.016668
  0
VERTEX
  8
0
 10
270.072487
 20
32.326193
 42
0.063857
  0
VERTEX
  8
0
 10
270.333333
 20
31.000000
 42
0.126480
  0
VERTEX
  8
0
 10
270.803001
 20
30.272668
 42
0.188641
  0
VERTEX
  8
0
 10
271.500000
 20
30.000000
 42
0.292784
  0
VERTEX
  8
0
 10
272.270046
 20
30.493192
 42
0.072528
  0
VERTEX
  8
0
 10
272.714286
 20
32.000000
 42
0.030643
  0
VERTEX
  8
0
 10
272.945394
 20
34.860051
 42
0.004841
  0
VERTEX
  8
0
 10
273.000000
 20
40.500000
 42
0.004841
  0
VERTEX
  8
0
 10
272.945394
 20
46.139949
 42
0.030643
  0
VERTEX
  8
0
 10
272.714286
 20
49.000000
 42
0.072528
  0
VERTEX
  8
0
 10
272.270046
 20
50.506808
 42
0.292784
  0
VERTEX
  8
0
 10
271.500000
 20
51.000000
 42
0.176579
  0
VERTEX
  8
0
 10
270.815157
 20
50.750359
 42
0.128937
  0
VERTEX
  8
0
 10
270.343750
 20
50.083333
 42
0.069535
  0
VERTEX
  8
0
 10
270.076585
 20
48.888175
 42
0.020272
  0
VERTEX
  8
0
 10
270.000000
 20
47.000000
 42
-0.016173
  0
VERTEX
  8
0
 10
269.916698
 20
44.425409
 42
-0.180190
  0
VERTEX
  8
0
 10
269.503773
 20
43.503831
 42
-0.183402
  0
VERTEX
  8
0
 10
268.592003
 20
43.085421
 42
-0.016866
  0
VERTEX
  8
0
 10
266.060365
 20
43.000000
 42
-0.018506
  0
VERTEX
  8
0
 10
263.610531
 20
43.090703
 42
-0.161032
  0
VERTEX
  8
0
 10
262.617541
 20
43.502756
 42
-0.173035
  0
VERTEX
  8
0
 10
262.102627
 20
44.411617
 42
-0.022123
  0
VERTEX
  8
0
 10
261.810365
 20
46.672700
 42
0.041678
  0
VERTEX
  8
0
 10
261.426420
 20
48.941858
 42
0.113626
  0
VERTEX
  8
0
 10
260.683014
 20
50.379604
 42
0.229318
  0
VERTEX
  8
0
 10
259.723197
 20
50.804172
 42
0.189994
  0
SEQEND
  0
POLYLINE
  8
0
 66
1
 70
1
  0
VERTEX
  8
0
 10
276.710296
 20
50.376962
 42
0.123108
  0
VERTEX
  8
0
 10
276.019964
 20
49.226397
 42
0.198230
  0
VERTEX
  8
0
 10
276.127936
 20
48.104597
 42
0.175556
  0
VERTEX
  8
0
 10
277.028099
 20
47.289430
 42
0.097386
  0
VERTEX
  8
0
 10
278.500000
 20
47.000000
 42
-0.098988
  0
VERTEX
  8
0
 10
279.949892
 20
46.710115
 42
-0.226266
  0
VERTEX
  8
0
 10
280.676471
 20
45.900000
 42
-0.067556
  0
VERTEX
  8
0
 10
280.954758
 20
44.072835
 42
-0.004059
  0
VERTEX
  8
0
 10
281.000000
 20
38.500000
 42
0.006430
  0
VERTEX
  8
0
 10
281.057625
 20
34.019073
 42
0.037256
  0
VERTEX
  8
0
 10
281.294118
 20
31.666667
 42
0.088943
  0
VERTEX
  8
0
 10
281.748030
 20
30.431192
 42
0.266366
  0
VERTEX
  8
0
 10
282.500000
 20
30.000000
 42
0.266366
  0
VERTEX
  8
0
 10
283.251970
 20
30.431192
 42
0.088943
  0
VERTEX
  8
0
 10
283.705882
 20
31.666667
 42
0.037256
  0
VERTEX
  8
0
 10
283.942375
 20
34.019073
 42
0.006430
  0
VERTEX
  8
0
 10
284.000000
 20
38.500000
 42
-0.003972
  0
VERTEX
  8
0
 10
284.044685
 20
44.125023
 42
-0.069633
  0
VERTEX
  8
0
 10
284.325686
 20
45.924220
 42
-0.231542
  0
VERTEX
  8
0
 10
285.066080
 20
46.720513
 42
-0.091931
  0
VERTEX
  8
0
 10
286.573324
 20
47.000000
 42
0.035487
  0
VERTEX
  8
0
 10
287.796479
 20
47.086921
 42
0.131056
  0
VERTEX
  8
0
 10
288.502833
 20
47.387658
 42
0.187895
  0
VERTEX
  8
0
 10
288.823208
 20
47.926766
 42
0.088428
  0
VERTEX
  8
0
 10
288.813606
 20
48.750000
 42
0.153349
  0
VERTEX
  8
0
 10
288.348601
 20
49.616801
 42
0.110113
  0
VERTEX
  8
0
 10
287.408230
 20
50.199494
 42
0.057257
  0
VERTEX
  8
0
 10
285.766485
 20
50.568352
 42
0.013393
  0
VERTEX
  8
0
 10
282.950577
 20
50.793629
 42
0.012535
  0
VERTEX
  8
0
 10
280.780571
 20
50.854359
 42
0.017397
  0
VERTEX
  8
0
 10
278.836376
 20
50.792355
 42
0.013965
  0
VERTEX
  8
0
 10
277.253872
 20
50.642202
 42
0.167251
  0
SEQEND
  0
POLYLINE
  8
0
 66
1
 70
1
  0
VERTEX
  8
0
 10
293.000000
 20
49.000000
 42
0.114945
  0
VERTEX
  8
0
 10
291.412259
 20
46.447776
 42
0.174564
  0
VERTEX
  8
0
 10
291.458862
 20
43.861856
 42
0.139022
  0
VERTEX
  8
0
 10
293.237756
 20
41.472310
 42
0.064792
  0
VERTEX
  8
0
 10
296.608347
 20
39.519177
 42
-0.025830
  0
VERTEX
  8
0
 10
298.375302
 20
38.671239
 42
-0.090643
  0
VERTEX
  8
0
 10
299.352826
 20
37.880969
 42
-0.130822
  0
VERTEX
  8
0
 10
299.793665
 20
36.968297
 42
-0.083043
  0
VERTEX
  8
0
 10
299.822280
 20
35.781042
 42
-0.142010
  0
VERTEX
  8
0
 10
299.075791
 20
34.126112
 42
-0.158719
  0
VERTEX
  8
0
 10
297.588927
 20
33.214290
 42
-0.157065
  0
VERTEX
  8
0
 10
295.837935
 20
33.348137
 42
-0.138767
  0
VERTEX
  8
0
 10
294.391606
 20
34.479125
 42
0.063246
  0
VERTEX
  8
0
 10
293.801647
 20
35.102710
 42
0.058532
  0
VERTEX
  8
0
 10
293.059709
 20
35.578105
 42
0.062544
  0
VERTEX
  8
0
 10
292.284888
 20
35.841760
 42
0.104754
  0
VERTEX
  8
0
 10
291.599593
 20
35.837866
 42
0.077079
  0
VERTEX
  8
0
 10
290.846986
 20
35.547443
 42
0.240262
  0
VERTEX
  8
0
 10
290.559351
 20
35.105604
 42
0.125737
  0
VERTEX
  8
0
 10
290.664052
 20
34.386952
 42
0.017281
  0
VERTEX
  8
0
 10
291.299117
 20
33.000000
 42
0.166038
  0
VERTEX
  8
0
 10
293.674365
 20
30.660703
 42
0.129162
  0
VERTEX
  8
0
 10
297.256406
 20
29.965125
 42
0.130009
  0
VERTEX
  8
0
 10
300.700314
 20
31.120448
 42
0.168968
  0
VERTEX
  8
0
 10
302.710436
 20
33.743972
 42
0.056000
  0
VERTEX
  8
0
 10
303.299636
 20
36.547827
 42
0.131640
  0
VERTEX
  8
0
 10
302.947842
 20
38.640723
 42
0.122783
  0
VERTEX
  8
0
 10
301.571471
 20
40.368579
 42
0.045546
  0
VERTEX
  8
0
 10
298.923027
 20
42.039268
 42
-0.042853
  0
VERTEX
  8
0
 10
296.516520
 20
43.539316
 42
-0.114550
  0
VERTEX
  8
0
 10
295.223083
 20
45.076060
 42
-0.236891
  0
VERTEX
  8
0
 10
295.214965
 20
46.358802
 42
-0.194299
  0
VERTEX
  8
0
 10
296.250000
 20
47.281539
 42
-0.084748
  0
VERTEX
  8
0
 10
296.855618
 20
47.388738
 42
-0.039562
  0
VERTEX
  8
0
 10
297.652946
 20
47.330444
 42
-0.037709
  0
VERTEX
  8
0
 10
298.500838
 20
47.134197
 42
-0.043126
  0
VERTEX
  8
0
 10
299.270667
 20
46.818628
 42
0.075407
  0
VERTEX
  8
0
 10
301.015254
 20
46.231376
 42
0.253078
  0
VERTEX
  8
0
 10
302.121058
 20
46.599762
 42
0.292510
  0
VERTEX
  8
0
 10
302.317396
 20
47.652810
 42
0.087913
  0
VERTEX
  8
0
 10
301.410155
 20
49.099277
 42
0.103840
  0
VERTEX
  8
0
 10
299.540725
 20
50.457429
 42
0.108715
  0
VERTEX
  8
0
 10
297.313967
 20
50.919898
 42
0.104522
  0
VERTEX
  8
0
 10
295.028968
 20
50.408708
 42
0.089492
  0
SEQEND
  0
ENDSEC
  0
EOF
