  0
SECTION
  2
HEADER
  9
$ACADVER
  1
AC1006
  9
$EXTMIN
 10
0.000000
 20
0.000000
 30
0.000000
  9
$EXTMAX
 10
320.000000
 20
318.000000
 30
0.000000
  0
ENDSEC
  0
SECTION
  2
ENTITIES
  0
POLYLINE
  8
0
 66
1
 70
1
  0
VERTEX
  8
0
 10
263.000000
 20
264.500000
 42
0.000000
  0
VERTEX
  8
0
 10
263.000000
 20
250.000000
 42
0.000000
  0
VERTEX
  8
0
 10
265.452283
 20
250.000000
 42
0.083297
  0
VERTEX
  8
0
 10
266.846007
 20
250.233808
 42
0.208930
  0
VERTEX
  8
0
 10
267.588271
 20
250.917513
 42
0.084395
  0
VERTEX
  8
0
 10
267.960726
 20
252.400161
 42
0.007532
  0
VERTEX
  8
0
 10
268.202283
 20
256.250000
 42
-0.008641
  0
VERTEX
  8
0
 10
268.433779
 20
259.812993
 42
-0.067636
  0
VERTEX
  8
0
 10
268.791013
 20
261.431535
 42
-0.172273
  0
VERTEX
  8
0
 10
269.436302
 20
262.207843
 42
-0.134834
  0
VERTEX
  8
0
 10
270.500000
 20
262.500000
 42
-0.134834
  0
VERTEX
  8
0
 10
271.563698
 20
262.207843
 42
-0.172273
  0
VERTEX
  8
0
 10
272.208987
 20
261.431535
 42
-0.067636
  0
VERTEX
  8
0
 10
272.566221
 20
259.812993
 42
-0.008641
  0
VERTEX
  8
0
 10
272.797717
 20
256.250000
 42
0.007532
  0
VERTEX
  8
0
 10
273.039274
 20
252.400161
 42
0.084395
  0
VERTEX
  8
0
 10
273.411729
 20
250.917513
 42
0.208930
  0
VERTEX
  8
0
 10
274.153993
 20
250.233808
 42
0.083297
  0
VERTEX
  8
0
 10
275.547717
 20
250.000000
 42
0.084438
  0
VERTEX
  8
0
 10
276.953480
 20
250.239105
 42
0.225556
  0
VERTEX
  8
0
 10
277.657617
 20
250.936573
 42
0.081356
  0
VERTEX
  8
0
 10
277.942960
 20
252.468827
 42
0.006008
  0
VERTEX
  8
0
 10
277.984687
 20
256.750000
 42
0.010026
  0
VERTEX
  8
0
 10
277.925182
 20
259.415482
 42
0.013220
  0
VERTEX
  8
0
 10
277.758058
 20
261.840399
 42
0.010654
  0
VERTEX
  8
0
 10
277.524022
 20
263.839232
 42
0.113197
  0
VERTEX
  8
0
 10
277.234687
 20
264.600296
 42
0.094646
  0
VERTEX
  8
0
 10
275.949534
 20
265.906016
 42
0.059078
  0
VERTEX
  8
0
 10
274.046367
 20
266.912816
 42
0.059233
  0
VERTEX
  8
0
 10
271.968010
 20
267.444042
 42
0.097227
  0
VERTEX
  8
0
 10
270.161673
 20
267.332028
 42
-0.094089
  0
VERTEX
  8
0
 10
268.949741
 20
267.249302
 42
-0.276756
  0
VERTEX
  8
0
 10
268.315248
 20
267.741195
 42
-0.086861
  0
VERTEX
  8
0
 10
268.047118
 20
269.077332
 42
-0.006190
  0
VERTEX
  8
0
 10
268.000000
 20
272.883369
 42
0.007093
  0
VERTEX
  8
0
 10
267.945435
 20
276.729496
 42
0.090151
  0
VERTEX
  8
0
 10
267.647820
 20
278.138337
 42
0.225526
  0
VERTEX
  8
0
 10
266.937250
 20
278.786062
 42
0.074018
  0
VERTEX
  8
0
 10
265.500000
 20
279.000000
 42
0.000000
  0
VERTEX
  8
0
 10
263.000000
 20
279.000000
 42
0.000000
  0
SEQEND
  0
POLYLINE
  8
0
 66
1
 70
1
  0
VERTEX
  8
0
 10
22.000000
 20
263.500000
 42
0.000000
  0
VERTEX
  8
0
 10
22.000000
 20
250.000000
 42
0.000000
  0
VERTEX
  8
0
 10
27.750000
 20
250.003738
 42
0.048969
  0
VERTEX
  8
0
 10
32.639533
 20
250.486969
 42
0.077879
  0
VERTEX
  8
0
 10
36.578160
 20
251.932778
 42
0.087460
  0
VERTEX
  8
0
 10
39.568973
 20
254.359914
 42
0.079872
  0
VERTEX
  8
0
 10
41.663110
 20
257.736133
 42
0.123703
  0
VERTEX
  8
0
 10
42.731071
 20
264.820437
 42
0.143289
  0
VERTEX
  8
0
 10
40.201138
 20
271.133087
 42
0.131158
  0
VERTEX
  8
0
 10
34.429837
 20
275.467477
 42
0.096127
  0
VERTEX
  8
0
 10
26.532119
 20
277.000000
 42
0.000000
  0
VERTEX
  8
0
 10
22.000000
 20
277.000000
 42
0.000000
  0
SEQEND
  0
POLYLINE
  8
0
 66
1
 70
1
  0
VERTEX
  8
0
 10
33.840612
 20
270.399086
 42
-0.076737
  0
VERTEX
  8
0
 10
35.894156
 20
268.430863
 42
-0.088584
  0
VERTEX
  8
0
 10
37.136991
 20
266.024413
 42
-0.086317
  0
VERTEX
  8
0
 10
37.489080
 20
263.284752
 42
-0.068703
  0
VERTEX
  8
0
 10
36.949928
 20
260.348281
 42
-0.050122
  0
VERTEX
  8
0
 10
35.944935
 20
258.091361
 42
-0.095183
  0
VERTEX
  8
0
 10
34.654993
 20
256.587224
 42
-0.080934
  0
VERTEX
  8
0
 10
32.751763
 20
255.521140
 42
-0.028617
  0
VERTEX
  8
0
 10
29.750000
 20
254.619280
 42
0.000000
  0
VERTEX
  8
0
 10
27.000000
 20
253.961896
 42
0.000000
  0
VERTEX
  8
0
 10
27.000000
 20
262.980948
 42
-0.003988
  0
VERTEX
  8
0
 10
27.045954
 20
268.742292
 42
-0.057914
  0
VERTEX
  8
0
 10
27.313130
 20
270.759981
 42
-0.203532
  0
VERTEX
  8
0
 10
27.994713
 20
271.658555
 42
-0.130810
  0
VERTEX
  8
0
 10
29.277494
 20
272.000000
 42
-0.055077
  0
VERTEX
  8
0
 10
30.314665
 20
271.885403
 42
-0.029342
  0
VERTEX
  8
0
 10
31.557376
 20
271.529732
 42
-0.028822
  0
VERTEX
  8
0
 10
32.798759
 20
271.012111
 42
-0.039604
  0
SEQEND
  0
POLYLINE
  8
0
 66
1
 70
1
  0
VERTEX
  8
0
 10
89.670274
 20
276.250000
 42
0.128828
  0
VERTEX
  8
0
 10
89.516684
 20
275.719820
 42
0.009275
  0
VERTEX
  8
0
 10
89.505611
 20
274.178125
 42
0.012526
  0
VERTEX
  8
0
 10
89.573470
 20
272.315635
 42
0.009124
  0
VERTEX
  8
0
 10
89.738486
 20
270.250000
 42
0.013087
  0
VERTEX
  8
0
 10
90.083962
 20
267.481327
 42
0.069283
  0
VERTEX
  8
0
 10
90.517991
 20
266.019711
 42
0.146594
  0
VERTEX
  8
0
 10
91.166987
 20
265.276934
 42
0.141320
  0
VERTEX
  8
0
 10
92.127229
 20
265.000000
 42
0.092699
  0
VERTEX
  8
0
 10
93.009247
 20
265.164941
 42
0.157201
  0
VERTEX
  8
0
 10
93.587150
 20
265.633790
 42
0.110871
  0
VERTEX
  8
0
 10
93.905870
 20
266.489568
 42
0.033932
  0
VERTEX
  8
0
 10
94.000000
 20
267.875000
 42
-0.016795
  0
VERTEX
  8
0
 10
94.044549
 20
269.200840
 42
-0.009154
  0
VERTEX
  8
0
 10
94.183594
 20
270.823438
 42
-0.009113
  0
VERTEX
  8
0
 10
94.385443
 20
272.469487
 42
-0.014289
  0
VERTEX
  8
0
 10
94.625000
 20
273.875000
 42
0.019170
  0
VERTEX
  8
0
 10
94.920491
 20
275.717030
 42
0.170763
  0
VERTEX
  8
0
 10
94.746007
 20
276.506429
 42
0.222723
  0
VERTEX
  8
0
 10
94.142648
 20
276.898894
 42
0.034616
  0
VERTEX
  8
0
 10
92.684017
 20
277.000000
 42
0.027095
  0
VERTEX
  8
0
 10
91.668825
 20
276.944947
 42
0.033901
  0
VERTEX
  8
0
 10
90.740262
 20
276.779688
 42
0.036105
  0
VERTEX
  8
0
 10
90.007383
 20
276.540000
 42
0.162486
  0
SEQEND
  0
POLYLINE
  8
0
 66
1
 70
1
  0
VERTEX
  8
0
 10
100.000000
 20
270.000000
 42
-0.031626
  0
VERTEX
  8
0
 10
99.927234
 20
268.850749
 42
-0.048861
  0
VERTEX
  8
0
 10
99.706250
 20
267.881250
 42
-0.062710
  0
VERTEX
  8
0
 10
99.384262
 20
267.209557
 42
-0.254951
  0
VERTEX
  8
0
 10
99.000000
 20
267.000000
 42
0.191087
  0
VERTEX
  8
0
 10
98.618118
 20
266.848523
 42
0.088204
  0
VERTEX
  8
0
 10
98.293750
 20
266.412500
 42
0.068025
  0
VERTEX
  8
0
 10
98.073693
 20
265.765418
 42
0.048028
  0
VERTEX
  8
0
 10
98.000000
 20
265.000000
 42
0.048028
  0
VERTEX
  8
0
 10
98.073693
 20
264.234582
 42
0.068025
  0
VERTEX
  8
0
 10
98.293750
 20
263.587500
 42
0.088204
  0
VERTEX
  8
0
 10
98.618118
 20
263.151477
 42
0.191087
  0
VERTEX
  8
0
 10
99.000000
 20
263.000000
 42
-0.345347
  0
VERTEX
  8
0
 10
99.400526
 20
262.685898
 42
-0.022017
  0
VERTEX
  8
0
 10
99.711538
 20
261.125000
 42
-0.024301
  0
VERTEX
  8
0
 10
99.929639
 20
259.036573
 42
-0.013867
  0
VERTEX
  8
0
 10
100.000000
 20
256.500000
 42
0.006367
  0
VERTEX
  8
0
 10
100.052512
 20
252.376461
 42
0.085635
  0
VERTEX
  8
0
 10
100.346154
 20
250.900000
 42
0.226921
  0
VERTEX
  8
0
 10
101.059174
 20
250.225912
 42
0.077921
  0
VERTEX
  8
0
 10
102.500000
 20
250.000000
 42
0.077921
  0
VERTEX
  8
0
 10
103.940826
 20
250.225912
 42
0.226921
  0
VERTEX
  8
0
 10
104.653846
 20
250.900000
 42
0.085635
  0
VERTEX
  8
0
 10
104.947488
 20
252.376461
 42
0.006367
  0
VERTEX
  8
0
 10
105.000000
 20
256.500000
 42
-0.009420
  0
VERTEX
  8
0
 10
105.062640
 20
259.824386
 42
-0.047315
  0
VERTEX
  8
0
 10
105.307692
 20
261.666667
 42
-0.108427
  0
VERTEX
  8
0
 10
105.770252
 20
262.642085
 42
-0.232029
  0
VERTEX
  8
0
 10
106.500000
 20
263.000000
 42
0.130775
  0
VERTEX
  8
0
 10
107.075754
 20
263.153209
 42
0.102140
  0
VERTEX
  8
0
 10
107.562500
 20
263.583333
 42
0.088920
  0
VERTEX
  8
0
 10
107.888136
 20
264.230589
 42
0.072314
  0
VERTEX
  8
0
 10
108.000000
 20
265.000000
 42
0.072314
  0
VERTEX
  8
0
 10
107.888136
 20
265.769411
 42
0.088920
  0
VERTEX
  8
0
 10
107.562500
 20
266.416667
 42
0.102140
  0
VERTEX
  8
0
 10
107.075754
 20
266.846791
 42
0.130775
  0
VERTEX
  8
0
 10
106.500000
 20
267.000000
 42
-0.152103
  0
VERTEX
  8
0
 10
105.851045
 20
267.202091
 42
-0.126510
  0
VERTEX
  8
0
 10
105.375000
 20
267.750000
 42
-0.082504
  0
VERTEX
  8
0
 10
105.088963
 20
268.677925
 42
-0.033607
  0
VERTEX
  8
0
 10
105.000000
 20
270.000000
 42
0.030103
  0
VERTEX
  8
0
 10
104.902765
 20
271.613599
 42
0.144586
  0
VERTEX
  8
0
 10
104.541667
 20
272.450000
 42
0.173074
  0
VERTEX
  8
0
 10
103.824437
 20
272.873428
 42
0.047675
  0
VERTEX
  8
0
 10
102.500000
 20
273.000000
 42
0.047675
  0
VERTEX
  8
0
 10
101.175563
 20
272.873428
 42
0.173074
  0
VERTEX
  8
0
 10
100.458333
 20
272.450000
 42
0.144586
  0
VERTEX
  8
0
 10
100.097235
 20
271.613599
 42
0.030103
  0
SEQEND
  0
POLYLINE
  8
0
 66
1
 70
1
  0
VERTEX
  8
0
 10
138.000000
 20
270.000000
 42
-0.031626
  0
VERTEX
  8
0
 10
137.927234
 20
268.850749
 42
-0.048861
  0
VERTEX
  8
0
 10
137.706250
 20
267.881250
 42
-0.062710
  0
VERTEX
  8
0
 10
137.384262
 20
267.209557
 42
-0.254951
  0
VERTEX
  8
0
 10
137.000000
 20
267.000000
 42
0.191087
  0
VERTEX
  8
0
 10
136.618118
 20
266.848523
 42
0.088204
  0
VERTEX
  8
0
 10
136.293750
 20
266.412500
 42
0.068025
  0
VERTEX
  8
0
 10
136.073693
 20
265.765418
 42
0.048028
  0
VERTEX
  8
0
 10
136.000000
 20
265.000000
 42
0.048028
  0
VERTEX
  8
0
 10
136.073693
 20
264.234582
 42
0.068025
  0
VERTEX
  8
0
 10
136.293750
 20
263.587500
 42
0.088204
  0
VERTEX
  8
0
 10
136.618118
 20
263.151477
 42
0.191087
  0
VERTEX
  8
0
 10
137.000000
 20
263.000000
 42
-0.345347
  0
VERTEX
  8
0
 10
137.400526
 20
262.685898
 42
-0.022017
  0
VERTEX
  8
0
 10
137.711538
 20
261.125000
 42
-0.024301
  0
VERTEX
  8
0
 10
137.929639
 20
259.036573
 42
-0.013867
  0
VERTEX
  8
0
 10
138.000000
 20
256.500000
 42
0.006367
  0
VERTEX
  8
0
 10
138.052512
 20
252.376461
 42
0.085635
  0
VERTEX
  8
0
 10
138.346154
 20
250.900000
 42
0.226921
  0
VERTEX
  8
0
 10
139.059174
 20
250.225912
 42
0.077921
  0
VERTEX
  8
0
 10
140.500000
 20
250.000000
 42
0.077921
  0
VERTEX
  8
0
 10
141.940826
 20
250.225912
 42
0.226921
  0
VERTEX
  8
0
 10
142.653846
 20
250.900000
 42
0.085635
  0
VERTEX
  8
0
 10
142.947488
 20
252.376461
 42
0.006367
  0
VERTEX
  8
0
 10
143.000000
 20
256.500000
 42
-0.009420
  0
VERTEX
  8
0
 10
143.062640
 20
259.824386
 42
-0.047315
  0
VERTEX
  8
0
 10
143.307692
 20
261.666667
 42
-0.108427
  0
VERTEX
  8
0
 10
143.770252
 20
262.642085
 42
-0.232029
  0
VERTEX
  8
0
 10
144.500000
 20
263.000000
 42
0.130775
  0
VERTEX
  8
0
 10
145.075754
 20
263.153209
 42
0.102140
  0
VERTEX
  8
0
 10
145.562500
 20
263.583333
 42
0.088920
  0
VERTEX
  8
0
 10
145.888136
 20
264.230589
 42
0.072314
  0
VERTEX
  8
0
 10
146.000000
 20
265.000000
 42
0.072314
  0
VERTEX
  8
0
 10
145.888136
 20
265.769411
 42
0.088920
  0
VERTEX
  8
0
 10
145.562500
 20
266.416667
 42
0.102140
  0
VERTEX
  8
0
 10
145.075754
 20
266.846791
 42
0.130775
  0
VERTEX
  8
0
 10
144.500000
 20
267.000000
 42
-0.152103
  0
VERTEX
  8
0
 10
143.851045
 20
267.202091
 42
-0.126510
  0
VERTEX
  8
0
 10
143.375000
 20
267.750000
 42
-0.082504
  0
VERTEX
  8
0
 10
143.088963
 20
268.677925
 42
-0.033607
  0
VERTEX
  8
0
 10
143.000000
 20
270.000000
 42
0.030103
  0
VERTEX
  8
0
 10
142.902765
 20
271.613599
 42
0.144586
  0
VERTEX
  8
0
 10
142.541667
 20
272.450000
 42
0.173074
  0
VERTEX
  8
0
 10
141.824437
 20
272.873428
 42
0.047675
  0
VERTEX
  8
0
 10
140.500000
 20
273.000000
 42
0.047675
  0
VERTEX
  8
0
 10
139.175563
 20
272.873428
 42
0.173074
  0
VERTEX
  8
0
 10
138.458333
 20
272.450000
 42
0.144586
  0
VERTEX
  8
0
 10
138.097235
 20
271.613599
 42
0.030103
  0
SEQEND
  0
POLYLINE
  8
0
 66
1
 70
1
  0
VERTEX
  8
0
 10
213.000000
 20
270.000000
 42
-0.031626
  0
VERTEX
  8
0
 10
212.927234
 20
268.850749
 42
-0.048861
  0
VERTEX
  8
0
 10
212.706250
 20
267.881250
 42
-0.062710
  0
VERTEX
  8
0
 10
212.384262
 20
267.209557
 42
-0.254951
  0
VERTEX
  8
0
 10
212.000000
 20
267.000000
 42
0.191087
  0
VERTEX
  8
0
 10
211.618118
 20
266.848523
 42
0.088204
  0
VERTEX
  8
0
 10
211.293750
 20
266.412500
 42
0.068025
  0
VERTEX
  8
0
 10
211.073693
 20
265.765418
 42
0.048028
  0
VERTEX
  8
0
 10
211.000000
 20
265.000000
 42
0.048028
  0
VERTEX
  8
0
 10
211.073693
 20
264.234582
 42
0.068025
  0
VERTEX
  8
0
 10
211.293750
 20
263.587500
 42
0.088204
  0
VERTEX
  8
0
 10
211.618118
 20
263.151477
 42
0.191087
  0
VERTEX
  8
0
 10
212.000000
 20
263.000000
 42
-0.345347
  0
VERTEX
  8
0
 10
212.400526
 20
262.685898
 42
-0.022017
  0
VERTEX
  8
0
 10
212.711538
 20
261.125000
 42
-0.024301
  0
VERTEX
  8
0
 10
212.929639
 20
259.036573
 42
-0.013867
  0
VERTEX
  8
0
 10
213.000000
 20
256.500000
 42
0.006367
  0
VERTEX
  8
0
 10
213.052512
 20
252.376461
 42
0.085635
  0
VERTEX
  8
0
 10
213.346154
 20
250.900000
 42
0.226921
  0
VERTEX
  8
0
 10
214.059174
 20
250.225912
 42
0.077921
  0
VERTEX
  8
0
 10
215.500000
 20
250.000000
 42
0.077921
  0
VERTEX
  8
0
 10
216.940826
 20
250.225912
 42
0.226921
  0
VERTEX
  8
0
 10
217.653846
 20
250.900000
 42
0.085635
  0
VERTEX
  8
0
 10
217.947488
 20
252.376461
 42
0.006367
  0
VERTEX
  8
0
 10
218.000000
 20
256.500000
 42
-0.009420
  0
VERTEX
  8
0
 10
218.062640
 20
259.824386
 42
-0.047315
  0
VERTEX
  8
0
 10
218.307692
 20
261.666667
 42
-0.108427
  0
VERTEX
  8
0
 10
218.770252
 20
262.642085
 42
-0.232029
  0
VERTEX
  8
0
 10
219.500000
 20
263.000000
 42
0.130775
  0
VERTEX
  8
0
 10
220.075754
 20
263.153209
 42
0.102140
  0
VERTEX
  8
0
 10
220.562500
 20
263.583333
 42
0.088920
  0
VERTEX
  8
0
 10
220.888136
 20
264.230589
 42
0.072314
  0
VERTEX
  8
0
 10
221.000000
 20
265.000000
 42
0.072314
  0
VERTEX
  8
0
 10
220.888136
 20
265.769411
 42
0.088920
  0
VERTEX
  8
0
 10
220.562500
 20
266.416667
 42
0.102140
  0
VERTEX
  8
0
 10
220.075754
 20
266.846791
 42
0.130775
  0
VERTEX
  8
0
 10
219.500000
 20
267.000000
 42
-0.152103
  0
VERTEX
  8
0
 10
218.851045
 20
267.202091
 42
-0.126510
  0
VERTEX
  8
0
 10
218.375000
 20
267.750000
 42
-0.082504
  0
VERTEX
  8
0
 10
218.088963
 20
268.677925
 42
-0.033607
  0
VERTEX
  8
0
 10
218.000000
 20
270.000000
 42
0.030103
  0
VERTEX
  8
0
 10
217.902765
 20
271.613599
 42
0.144586
  0
VERTEX
  8
0
 10
217.541667
 20
272.450000
 42
0.173074
  0
VERTEX
  8
0
 10
216.824437
 20
272.873428
 42
0.047675
  0
VERTEX
  8
0
 10
215.500000
 20
273.000000
 42
0.047675
  0
VERTEX
  8
0
 10
214.175563
 20
272.873428
 42
0.173074
  0
VERTEX
  8
0
 10
213.458333
 20
272.450000
 42
0.144586
  0
VERTEX
  8
0
 10
213.097235
 20
271.613599
 42
0.030103
  0
SEQEND
  0
POLYLINE
  8
0
 66
1
 70
1
  0
VERTEX
  8
0
 10
252.000000
 20
270.000000
 42
-0.031626
  0
VERTEX
  8
0
 10
251.927234
 20
268.850749
 42
-0.048861
  0
VERTEX
  8
0
 10
251.706250
 20
267.881250
 42
-0.062710
  0
VERTEX
  8
0
 10
251.384262
 20
267.209557
 42
-0.254951
  0
VERTEX
  8
0
 10
251.000000
 20
267.000000
 42
0.191087
  0
VERTEX
  8
0
 10
250.618118
 20
266.848523
 42
0.088204
  0
VERTEX
  8
0
 10
250.293750
 20
266.412500
 42
0.068025
  0
VERTEX
  8
0
 10
250.073693
 20
265.765418
 42
0.048028
  0
VERTEX
  8
0
 10
250.000000
 20
265.000000
 42
0.048028
  0
VERTEX
  8
0
 10
250.073693
 20
264.234582
 42
0.068025
  0
VERTEX
  8
0
 10
250.293750
 20
263.587500
 42
0.088204
  0
VERTEX
  8
0
 10
250.618118
 20
263.151477
 42
0.191087
  0
VERTEX
  8
0
 10
251.000000
 20
263.000000
 42
-0.345347
  0
VERTEX
  8
0
 10
251.400526
 20
262.685898
 42
-0.022017
  0
VERTEX
  8
0
 10
251.711538
 20
261.125000
 42
-0.024301
  0
VERTEX
  8
0
 10
251.929639
 20
259.036573
 42
-0.013867
  0
VERTEX
  8
0
 10
252.000000
 20
256.500000
 42
0.006367
  0
VERTEX
  8
0
 10
252.052512
 20
252.376461
 42
0.085635
  0
VERTEX
  8
0
 10
252.346154
 20
250.900000
 42
0.226921
  0
VERTEX
  8
0
 10
253.059174
 20
250.225912
 42
0.077921
  0
VERTEX
  8
0
 10
254.500000
 20
250.000000
 42
0.077921
  0
VERTEX
  8
0
 10
255.940826
 20
250.225912
 42
0.226921
  0
VERTEX
  8
0
 10
256.653846
 20
250.900000
 42
0.085635
  0
VERTEX
  8
0
 10
256.947488
 20
252.376461
 42
0.006367
  0
VERTEX
  8
0
 10
257.000000
 20
256.500000
 42
-0.009420
  0
VERTEX
  8
0
 10
257.062640
 20
259.824386
 42
-0.047315
  0
VERTEX
  8
0
 10
257.307692
 20
261.666667
 42
-0.108427
  0
VERTEX
  8
0
 10
257.770252
 20
262.642085
 42
-0.232029
  0
VERTEX
  8
0
 10
258.500000
 20
263.000000
 42
0.130775
  0
VERTEX
  8
0
 10
259.075754
 20
263.153209
 42
0.102140
  0
VERTEX
  8
0
 10
259.562500
 20
263.583333
 42
0.088920
  0
VERTEX
  8
0
 10
259.888136
 20
264.230589
 42
0.072314
  0
VERTEX
  8
0
 10
260.000000
 20
265.000000
 42
0.072314
  0
VERTEX
  8
0
 10
259.888136
 20
265.769411
 42
0.088920
  0
VERTEX
  8
0
 10
259.562500
 20
266.416667
 42
0.102140
  0
VERTEX
  8
0
 10
259.075754
 20
266.846791
 42
0.130775
  0
VERTEX
  8
0
 10
258.500000
 20
267.000000
 42
-0.152103
  0
VERTEX
  8
0
 10
257.851045
 20
267.202091
 42
-0.126510
  0
VERTEX
  8
0
 10
257.375000
 20
267.750000
 42
-0.082504
  0
VERTEX
  8
0
 10
257.088963
 20
268.677925
 42
-0.033607
  0
VERTEX
  8
0
 10
257.000000
 20
270.000000
 42
0.030103
  0
VERTEX
  8
0
 10
256.902765
 20
271.613599
 42
0.144586
  0
VERTEX
  8
0
 10
256.541667
 20
272.450000
 42
0.173074
  0
VERTEX
  8
0
 10
255.824437
 20
272.873428
 42
0.047675
  0
VERTEX
  8
0
 10
254.500000
 20
273.000000
 42
0.047675
  0
VERTEX
  8
0
 10
253.175563
 20
272.873428
 42
0.173074
  0
VERTEX
  8
0
 10
252.458333
 20
272.450000
 42
0.144586
  0
VERTEX
  8
0
 10
252.097235
 20
271.613599
 42
0.030103
  0
SEQEND
  0
POLYLINE
  8
0
 66
1
 70
1
  0
VERTEX
  8
0
 10
51.475761
 20
266.579805
 42
0.084070
  0
VERTEX
  8
0
 10
49.424623
 20
265.259630
 42
0.060341
  0
VERTEX
  8
0
 10
47.643247
 20
263.189769
 42
0.060612
  0
VERTEX
  8
0
 10
46.415354
 20
260.766618
 42
0.087206
  0
VERTEX
  8
0
 10
46.000000
 20
258.403287
 42
0.063079
  0
VERTEX
  8
0
 10
46.097289
 20
257.635186
 42
0.018784
  0
VERTEX
  8
0
 10
46.435516
 20
256.499876
 42
0.018518
  0
VERTEX
  8
0
 10
46.915107
 20
255.241556
 42
0.019022
  0
VERTEX
  8
0
 10
47.482608
 20
254.033632
 42
0.157982
  0
VERTEX
  8
0
 10
50.996482
 20
250.556298
 42
0.136136
  0
VERTEX
  8
0
 10
56.111434
 20
249.539724
 42
0.136756
  0
VERTEX
  8
0
 10
61.001803
 20
251.304061
 42
0.159829
  0
VERTEX
  8
0
 10
63.920523
 20
255.259183
 42
0.139240
  0
VERTEX
  8
0
 10
64.145001
 20
260.591518
 42
0.150633
  0
VERTEX
  8
0
 10
61.505567
 20
265.058877
 42
0.149901
  0
VERTEX
  8
0
 10
56.797057
 20
267.278689
 42
0.137634
  0
SEQEND
  0
POLYLINE
  8
0
 66
1
 70
1
  0
VERTEX
  8
0
 10
59.067697
 20
260.873507
 42
-0.119233
  0
VERTEX
  8
0
 10
59.656399
 20
258.606321
 42
-0.117984
  0
VERTEX
  8
0
 10
59.147522
 20
256.311046
 42
-0.127810
  0
VERTEX
  8
0
 10
57.705087
 20
254.623685
 42
-0.153502
  0
VERTEX
  8
0
 10
55.721439
 20
254.000000
 42
-0.080396
  0
VERTEX
  8
0
 10
53.785013
 20
254.313389
 42
-0.110571
  0
VERTEX
  8
0
 10
52.278655
 20
255.218685
 42
-0.113893
  0
VERTEX
  8
0
 10
51.331510
 20
256.656176
 42
-0.089183
  0
VERTEX
  8
0
 10
51.000000
 20
258.500000
 42
-0.161443
  0
VERTEX
  8
0
 10
51.901888
 20
261.220416
 42
-0.162515
  0
VERTEX
  8
0
 10
54.248070
 20
262.854410
 42
-0.169899
  0
VERTEX
  8
0
 10
57.024134
 20
262.714216
 42
-0.174839
  0
SEQEND
  0
POLYLINE
  8
0
 66
1
 70
1
  0
VERTEX
  8
0
 10
74.250000
 20
267.253707
 42
0.000000
  0
VERTEX
  8
0
 10
70.000000
 20
266.885004
 42
0.000000
  0
VERTEX
  8
0
 10
70.000000
 20
258.442502
 42
0.004164
  0
VERTEX
  8
0
 10
70.045776
 20
252.946478
 42
0.066606
  0
VERTEX
  8
0
 10
70.322617
 20
251.110678
 42
0.222701
  0
VERTEX
  8
0
 10
71.039430
 20
250.294944
 42
0.103266
  0
VERTEX
  8
0
 10
72.452283
 20
250.000000
 42
0.083297
  0
VERTEX
  8
0
 10
73.846007
 20
250.233808
 42
0.208930
  0
VERTEX
  8
0
 10
74.588271
 20
250.917513
 42
0.084395
  0
VERTEX
  8
0
 10
74.960726
 20
252.400161
 42
0.007532
  0
VERTEX
  8
0
 10
75.202283
 20
256.250000
 42
-0.008641
  0
VERTEX
  8
0
 10
75.433779
 20
259.812993
 42
-0.067636
  0
VERTEX
  8
0
 10
75.791013
 20
261.431535
 42
-0.172273
  0
VERTEX
  8
0
 10
76.436302
 20
262.207843
 42
-0.134834
  0
VERTEX
  8
0
 10
77.500000
 20
262.500000
 42
-0.134834
  0
VERTEX
  8
0
 10
78.563698
 20
262.207843
 42
-0.172273
  0
VERTEX
  8
0
 10
79.208987
 20
261.431535
 42
-0.067636
  0
VERTEX
  8
0
 10
79.566221
 20
259.812993
 42
-0.008641
  0
VERTEX
  8
0
 10
79.797717
 20
256.250000
 42
0.007532
  0
VERTEX
  8
0
 10
80.039274
 20
252.400161
 42
0.084395
  0
VERTEX
  8
0
 10
80.411729
 20
250.917513
 42
0.208930
  0
VERTEX
  8
0
 10
81.153993
 20
250.233808
 42
0.083297
  0
VERTEX
  8
0
 10
82.547717
 20
250.000000
 42
0.085278
  0
VERTEX
  8
0
 10
83.953544
 20
250.241529
 42
0.224882
  0
VERTEX
  8
0
 10
84.659960
 20
250.944136
 42
0.080654
  0
VERTEX
  8
0
 10
84.948635
 20
252.488937
 42
0.005945
  0
VERTEX
  8
0
 10
85.000000
 20
256.808870
 42
0.035160
  0
VERTEX
  8
0
 10
84.573775
 20
262.862644
 42
0.166312
  0
VERTEX
  8
0
 10
83.020343
 20
265.919363
 42
0.175891
  0
VERTEX
  8
0
 10
79.978331
 20
267.288004
 42
0.040297
  0
SEQEND
  0
POLYLINE
  8
0
 66
1
 70
1
  0
VERTEX
  8
0
 10
154.000000
 20
266.698849
 42
0.174089
  0
VERTEX
  8
0
 10
150.094589
 20
262.590393
 42
0.152297
  0
VERTEX
  8
0
 10
149.422975
 20
256.676025
 42
0.161595
  0
VERTEX
  8
0
 10
152.219284
 20
251.672408
 42
0.193876
  0
VERTEX
  8
0
 10
157.236577
 20
249.796715
 42
-0.001278
  0
VERTEX
  8
0
 10
158.721263
 20
249.830403
 42
-0.000753
  0
VERTEX
  8
0
 10
160.496057
 20
249.863461
 42
-0.000753
  0
VERTEX
  8
0
 10
162.269581
 20
249.891154
 42
-0.001287
  0
VERTEX
  8
0
 10
163.750000
 20
249.908230
 42
0.000000
  0
VERTEX
  8
0
 10
167.000000
 20
249.937349
 42
0.000000
  0
VERTEX
  8
0
 10
167.000000
 20
258.500000
 42
0.000000
  0
VERTEX
  8
0
 10
167.000000
 20
267.062651
 42
0.000000
  0
VERTEX
  8
0
 10
163.750000
 20
266.863251
 42
-0.020215
  0
VERTEX
  8
0
 10
162.359108
 20
266.834242
 42
-0.016333
  0
VERTEX
  8
0
 10
160.867188
 20
266.912242
 42
-0.016637
  0
VERTEX
  8
0
 10
159.493670
 20
267.075308
 42
-0.040289
  0
VERTEX
  8
0
 10
158.500000
 20
267.310038
 42
0.073877
  0
VERTEX
  8
0
 10
157.553646
 20
267.467640
 42
0.038151
  0
VERTEX
  8
0
 10
156.353125
 20
267.397054
 42
0.036887
  0
VERTEX
  8
0
 10
155.104116
 20
267.132489
 42
0.045915
  0
SEQEND
  0
POLYLINE
  8
0
 66
1
 70
1
  0
VERTEX
  8
0
 10
160.954319
 20
261.555042
 42
-0.175594
  0
VERTEX
  8
0
 10
161.925178
 20
258.854192
 42
-0.149250
  0
VERTEX
  8
0
 10
161.028427
 20
255.943643
 42
-0.170601
  0
VERTEX
  8
0
 10
158.778204
 20
254.276421
 42
-0.218284
  0
VERTEX
  8
0
 10
156.250000
 20
254.607242
 42
-0.163882
  0
VERTEX
  8
0
 10
154.499584
 20
256.745542
 42
-0.142624
  0
VERTEX
  8
0
 10
154.273841
 20
259.642445
 42
-0.153620
  0
VERTEX
  8
0
 10
155.626422
 20
262.058130
 42
-0.191157
  0
VERTEX
  8
0
 10
158.000000
 20
263.000000
 42
-0.069280
  0
VERTEX
  8
0
 10
158.759836
 20
262.894209
 42
-0.044582
  0
VERTEX
  8
0
 10
159.591814
 20
262.575544
 42
-0.044127
  0
VERTEX
  8
0
 10
160.366182
 20
262.108110
 42
-0.061776
  0
SEQEND
  0
POLYLINE
  8
0
 66
1
 70
1
  0
VERTEX
  8
0
 10
197.250000
 20
267.253707
 42
0.000000
  0
VERTEX
  8
0
 10
193.000000
 20
266.885004
 42
0.000000
  0
VERTEX
  8
0
 10
193.000000
 20
258.442502
 42
0.004164
  0
VERTEX
  8
0
 10
193.045776
 20
252.946478
 42
0.066606
  0
VERTEX
  8
0
 10
193.322617
 20
251.110678
 42
0.222701
  0
VERTEX
  8
0
 10
194.039430
 20
250.294944
 42
0.103266
  0
VERTEX
  8
0
 10
195.452283
 20
250.000000
 42
0.083297
  0
VERTEX
  8
0
 10
196.846007
 20
250.233808
 42
0.208930
  0
VERTEX
  8
0
 10
197.588271
 20
250.917513
 42
0.084395
  0
VERTEX
  8
0
 10
197.960726
 20
252.400161
 42
0.007532
  0
VERTEX
  8
0
 10
198.202283
 20
256.250000
 42
-0.008641
  0
VERTEX
  8
0
 10
198.433779
 20
259.812993
 42
-0.067636
  0
VERTEX
  8
0
 10
198.791013
 20
261.431535
 42
-0.172273
  0
VERTEX
  8
0
 10
199.436302
 20
262.207843
 42
-0.134834
  0
VERTEX
  8
0
 10
200.500000
 20
262.500000
 42
-0.134834
  0
VERTEX
  8
0
 10
201.563698
 20
262.207843
 42
-0.172273
  0
VERTEX
  8
0
 10
202.208987
 20
261.431535
 42
-0.067636
  0
VERTEX
  8
0
 10
202.566221
 20
259.812993
 42
-0.008641
  0
VERTEX
  8
0
 10
202.797717
 20
256.250000
 42
0.007532
  0
VERTEX
  8
0
 10
203.039274
 20
252.400161
 42
0.084395
  0
VERTEX
  8
0
 10
203.411729
 20
250.917513
 42
0.208930
  0
VERTEX
  8
0
 10
204.153993
 20
250.233808
 42
0.083297
  0
VERTEX
  8
0
 10
205.547717
 20
250.000000
 42
0.085278
  0
VERTEX
  8
0
 10
206.953544
 20
250.241529
 42
0.224882
  0
VERTEX
  8
0
 10
207.659960
 20
250.944136
 42
0.080654
  0
VERTEX
  8
0
 10
207.948635
 20
252.488937
 42
0.005945
  0
VERTEX
  8
0
 10
208.000000
 20
256.808870
 42
0.035160
  0
VERTEX
  8
0
 10
207.573775
 20
262.862644
 42
0.166312
  0
VERTEX
  8
0
 10
206.020343
 20
265.919363
 42
0.175891
  0
VERTEX
  8
0
 10
202.978331
 20
267.288004
 42
0.040297
  0
SEQEND
  0
POLYLINE
  8
0
 66
1
 70
1
  0
VERTEX
  8
0
 10
289.354429
 20
267.295620
 42
0.176658
  0
VERTEX
  8
0
 10
285.798470
 20
265.176950
 42
0.114373
  0
VERTEX
  8
0
 10
283.666780
 20
260.830798
 42
0.108357
  0
VERTEX
  8
0
 10
283.604406
 20
255.789714
 42
0.146510
  0
VERTEX
  8
0
 10
285.755051
 20
251.800505
 42
0.111958
  0
VERTEX
  8
0
 10
288.500552
 20
250.069981
 42
0.085663
  0
VERTEX
  8
0
 10
292.009790
 20
249.472961
 42
0.085720
  0
VERTEX
  8
0
 10
295.513945
 20
250.086801
 42
0.112356
  0
VERTEX
  8
0
 10
298.244949
 20
251.830399
 42
0.011778
  0
VERTEX
  8
0
 10
299.657318
 20
253.330579
 42
0.163349
  0
VERTEX
  8
0
 10
299.948563
 20
254.004613
 42
0.232071
  0
VERTEX
  8
0
 10
299.715777
 20
254.601168
 42
0.025920
  0
VERTEX
  8
0
 10
298.558870
 20
255.557672
 42
-0.008072
  0
VERTEX
  8
0
 10
297.449233
 20
256.410316
 42
-0.183999
  0
VERTEX
  8
0
 10
297.247770
 20
256.749823
 42
-0.436326
  0
VERTEX
  8
0
 10
297.405101
 20
256.956257
 42
-0.024186
  0
VERTEX
  8
0
 10
298.308870
 20
257.000000
 42
0.271963
  0
VERTEX
  8
0
 10
299.574017
 20
257.743109
 42
0.147145
  0
VERTEX
  8
0
 10
299.974677
 20
259.565245
 42
0.093174
  0
VERTEX
  8
0
 10
299.310712
 20
262.045520
 42
0.072740
  0
VERTEX
  8
0
 10
297.750000
 20
264.363423
 42
0.050993
  0
VERTEX
  8
0
 10
295.878165
 20
266.042181
 42
0.073422
  0
VERTEX
  8
0
 10
293.910042
 20
267.073303
 42
0.075055
  0
VERTEX
  8
0
 10
291.761450
 20
267.478022
 42
0.056053
  0
SEQEND
  0
POLYLINE
  8
0
 66
1
 70
1
  0
VERTEX
  8
0
 10
294.000000
 20
262.000000
 42
-0.230178
  0
VERTEX
  8
0
 10
293.813779
 20
261.616918
 42
-0.073461
  0
VERTEX
  8
0
 10
293.248289
 20
261.293750
 42
-0.055981
  0
VERTEX
  8
0
 10
292.420991
 20
261.073066
 42
-0.037227
  0
VERTEX
  8
0
 10
291.440983
 20
261.000000
 42
-0.035659
  0
VERTEX
  8
0
 10
290.479336
 20
261.068671
 42
-0.083483
  0
VERTEX
  8
0
 10
289.794783
 20
261.287316
 42
-0.165100
  0
VERTEX
  8
0
 10
289.478234
 20
261.615199
 42
-0.253782
  0
VERTEX
  8
0
 10
289.500000
 20
262.000000
 42
-0.111412
  0
VERTEX
  8
0
 10
289.876024
 20
262.383556
 42
-0.050262
  0
VERTEX
  8
0
 10
290.506650
 20
262.706250
 42
-0.046318
  0
VERTEX
  8
0
 10
291.270704
 20
262.925923
 42
-0.046881
  0
VERTEX
  8
0
 10
292.059017
 20
263.000000
 42
-0.049547
  0
VERTEX
  8
0
 10
292.801778
 20
262.926216
 42
-0.069539
  0
VERTEX
  8
0
 10
293.429836
 20
262.706250
 42
-0.089706
  0
VERTEX
  8
0
 10
293.852535
 20
262.381787
 42
-0.186414
  0
SEQEND
  0
POLYLINE
  8
0
 66
1
 70
1
  0
VERTEX
  8
0
 10
295.000000
 20
255.500000
 42
-0.059806
  0
VERTEX
  8
0
 10
294.394287
 20
254.925909
 42
-0.043899
  0
VERTEX
  8
0
 10
293.605233
 20
254.440625
 42
-0.044601
  0
VERTEX
  8
0
 10
292.763110
 20
254.109626
 42
-0.071461
  0
VERTEX
  8
0
 10
292.000000
 20
254.000000
 42
-0.071461
  0
VERTEX
  8
0
 10
291.236890
 20
254.109626
 42
-0.044601
  0
VERTEX
  8
0
 10
290.394767
 20
254.440625
 42
-0.043899
  0
VERTEX
  8
0
 10
289.605713
 20
254.925909
 42
-0.059806
  0
VERTEX
  8
0
 10
289.000000
 20
255.500000
 42
-0.084627
  0
VERTEX
  8
0
 10
288.547024
 20
256.284082
 42
-0.382744
  0
VERTEX
  8
0
 10
288.725061
 20
256.734975
 42
-0.107644
  0
VERTEX
  8
0
 10
289.602955
 20
256.958377
 42
-0.008681
  0
VERTEX
  8
0
 10
292.000000
 20
257.000000
 42
-0.008681
  0
VERTEX
  8
0
 10
294.397045
 20
256.958377
 42
-0.107644
  0
VERTEX
  8
0
 10
295.274939
 20
256.734975
 42
-0.382744
  0
VERTEX
  8
0
 10
295.452976
 20
256.284082
 42
-0.084627
  0
SEQEND
  0
POLYLINE
  8
0
 66
1
 70
1
  0
VERTEX
  8
0
 10
172.000000
 20
260.072580
 42
0.009933
  0
VERTEX
  8
0
 10
172.081150
 20
255.987980
 42
0.061345
  0
VERTEX
  8
0
 10
172.419884
 20
253.918815
 42
0.102338
  0
VERTEX
  8
0
 10
173.179694
 20
252.490085
 42
0.052936
  0
VERTEX
  8
0
 10
174.634859
 20
251.072580
 42
0.069391
  0
VERTEX
  8
0
 10
177.230461
 20
249.558887
 42
0.107390
  0
VERTEX
  8
0
 10
179.775993
 20
249.107665
 42
0.110539
  0
VERTEX
  8
0
 10
182.226546
 20
249.756170
 42
0.076778
  0
VERTEX
  8
0
 10
184.545455
 20
251.454545
 42
0.050512
  0
VERTEX
  8
0
 10
185.839486
 20
253.040246
 42
0.079484
  0
VERTEX
  8
0
 10
186.562500
 20
254.638258
 42
0.053942
  0
VERTEX
  8
0
 10
186.907236
 20
256.795394
 42
0.012674
  0
VERTEX
  8
0
 10
187.000000
 20
260.454545
 42
0.006365
  0
VERTEX
  8
0
 10
186.947421
 20
264.585030
 42
0.083445
  0
VERTEX
  8
0
 10
186.656336
 20
266.082718
 42
0.224499
  0
VERTEX
  8
0
 10
185.951603
 20
266.766970
 42
0.082431
  0
VERTEX
  8
0
 10
184.547717
 20
267.000000
 42
0.083297
  0
VERTEX
  8
0
 10
183.153993
 20
266.766192
 42
0.208930
  0
VERTEX
  8
0
 10
182.411729
 20
266.082487
 42
0.084395
  0
VERTEX
  8
0
 10
182.039274
 20
264.599839
 42
0.007532
  0
VERTEX
  8
0
 10
181.797717
 20
260.750000
 42
-0.008641
  0
VERTEX
  8
0
 10
181.566221
 20
257.187007
 42
-0.067636
  0
VERTEX
  8
0
 10
181.208987
 20
255.568465
 42
-0.172273
  0
VERTEX
  8
0
 10
180.563698
 20
254.792157
 42
-0.134834
  0
VERTEX
  8
0
 10
179.500000
 20
254.500000
 42
-0.134834
  0
VERTEX
  8
0
 10
178.436302
 20
254.792157
 42
-0.172273
  0
VERTEX
  8
0
 10
177.791013
 20
255.568465
 42
-0.067636
  0
VERTEX
  8
0
 10
177.433779
 20
257.187007
 42
-0.008641
  0
VERTEX
  8
0
 10
177.202283
 20
260.750000
 42
0.007532
  0
VERTEX
  8
0
 10
176.960726
 20
264.599839
 42
0.084395
  0
VERTEX
  8
0
 10
176.588271
 20
266.082487
 42
0.208930
  0
VERTEX
  8
0
 10
175.846007
 20
266.766192
 42
0.083297
  0
VERTEX
  8
0
 10
174.452283
 20
267.000000
 42
0.086567
  0
VERTEX
  8
0
 10
173.045682
 20
266.754631
 42
0.224974
  0
VERTEX
  8
0
 10
172.338499
 20
266.043778
 42
0.079453
  0
VERTEX
  8
0
 10
172.050854
 20
264.477798
 42
0.005772
  0
SEQEND
  0
POLYLINE
  8
0
 66
1
 70
1
  0
VERTEX
  8
0
 10
252.508086
 20
232.629571
 42
0.169295
  0
VERTEX
  8
0
 10
250.993207
 20
230.434244
 42
0.034886
  0
VERTEX
  8
0
 10
250.050463
 20
225.756191
 42
0.030072
  0
VERTEX
  8
0
 10
249.616988
 20
219.483115
 42
0.016674
  0
VERTEX
  8
0
 10
249.804864
 20
211.809877
 42
0.005406
  0
VERTEX
  8
0
 10
250.140089
 20
206.933528
 42
0.066968
  0
VERTEX
  8
0
 10
250.532466
 20
205.120961
 42
0.198965
  0
VERTEX
  8
0
 10
251.281707
 20
204.299946
 42
0.110009
  0
VERTEX
  8
0
 10
252.628485
 20
204.000000
 42
0.089317
  0
VERTEX
  8
0
 10
253.969538
 20
204.241484
 42
0.219589
  0
VERTEX
  8
0
 10
254.658788
 20
204.935216
 42
0.081058
  0
VERTEX
  8
0
 10
254.946675
 20
206.447792
 42
0.006579
  0
VERTEX
  8
0
 10
255.000000
 20
210.500000
 42
0.000000
  0
VERTEX
  8
0
 10
255.000000
 20
217.000000
 42
0.000000
  0
VERTEX
  8
0
 10
258.000000
 20
217.000000
 42
0.000000
  0
VERTEX
  8
0
 10
261.000000
 20
217.000000
 42
0.000000
  0
VERTEX
  8
0
 10
261.000000
 20
210.500000
 42
0.006367
  0
VERTEX
  8
0
 10
261.052512
 20
206.376461
 42
0.085635
  0
VERTEX
  8
0
 10
261.346154
 20
204.900000
 42
0.226921
  0
VERTEX
  8
0
 10
262.059174
 20
204.225912
 42
0.077921
  0
VERTEX
  8
0
 10
263.500000
 20
204.000000
 42
0.077921
  0
VERTEX
  8
0
 10
264.940826
 20
204.225912
 42
0.226921
  0
VERTEX
  8
0
 10
265.653846
 20
204.900000
 42
0.085635
  0
VERTEX
  8
0
 10
265.947488
 20
206.376461
 42
0.006367
  0
VERTEX
  8
0
 10
266.000000
 20
210.500000
 42
-0.009420
  0
VERTEX
  8
0
 10
266.062640
 20
213.824386
 42
-0.047315
  0
VERTEX
  8
0
 10
266.307692
 20
215.666667
 42
-0.108427
  0
VERTEX
  8
0
 10
266.770252
 20
216.642085
 42
-0.232029
  0
VERTEX
  8
0
 10
267.500000
 20
217.000000
 42
0.130775
  0
VERTEX
  8
0
 10
268.075754
 20
217.153209
 42
0.102140
  0
VERTEX
  8
0
 10
268.562500
 20
217.583333
 42
0.088920
  0
VERTEX
  8
0
 10
268.888136
 20
218.230589
 42
0.072314
  0
VERTEX
  8
0
 10
269.000000
 20
219.000000
 42
0.072314
  0
VERTEX
  8
0
 10
268.888136
 20
219.769411
 42
0.088920
  0
VERTEX
  8
0
 10
268.562500
 20
220.416667
 42
0.102140
  0
VERTEX
  8
0
 10
268.075754
 20
220.846791
 42
0.130775
  0
VERTEX
  8
0
 10
267.500000
 20
221.000000
 42
-0.152103
  0
VERTEX
  8
0
 10
266.851045
 20
221.202091
 42
-0.126510
  0
VERTEX
  8
0
 10
266.375000
 20
221.750000
 42
-0.082504
  0
VERTEX
  8
0
 10
266.088963
 20
222.677925
 42
-0.033607
  0
VERTEX
  8
0
 10
266.000000
 20
224.000000
 42
0.030103
  0
VERTEX
  8
0
 10
265.902765
 20
225.613599
 42
0.144586
  0
VERTEX
  8
0
 10
265.541667
 20
226.450000
 42
0.173074
  0
VERTEX
  8
0
 10
264.824437
 20
226.873428
 42
0.047675
  0
VERTEX
  8
0
 10
263.500000
 20
227.000000
 42
0.047675
  0
VERTEX
  8
0
 10
262.175563
 20
226.873428
 42
0.173074
  0
VERTEX
  8
0
 10
261.458333
 20
226.450000
 42
0.144586
  0
VERTEX
  8
0
 10
261.097235
 20
225.613599
 42
0.030103
  0
VERTEX
  8
0
 10
261.000000
 20
224.000000
 42
-0.030723
  0
VERTEX
  8
0
 10
260.896154
 20
222.311537
 42
-0.167168
  0
VERTEX
  8
0
 10
260.500000
 20
221.500000
 42
-0.167168
  0
VERTEX
  8
0
 10
259.688463
 20
221.103846
 42
-0.030723
  0
VERTEX
  8
0
 10
258.000000
 20
221.000000
 42
-0.034448
  0
VERTEX
  8
0
 10
256.217530
 20
221.122951
 42
-0.203568
  0
VERTEX
  8
0
 10
255.432188
 20
221.593053
 42
-0.143651
  0
VERTEX
  8
0
 10
255.074643
 20
222.589807
 42
-0.014767
  0
VERTEX
  8
0
 10
255.000000
 20
225.116631
 42
-0.012611
  0
VERTEX
  8
0
 10
255.059291
 20
227.466950
 42
-0.114853
  0
VERTEX
  8
0
 10
255.339696
 20
228.445228
 42
-0.255739
  0
VERTEX
  8
0
 10
255.926446
 20
228.814890
 42
-0.079474
  0
VERTEX
  8
0
 10
257.000000
 20
228.710251
 42
0.052527
  0
VERTEX
  8
0
 10
258.000485
 20
228.558202
 42
0.195463
  0
VERTEX
  8
0
 10
258.589415
 20
228.766657
 42
0.173070
  0
VERTEX
  8
0
 10
258.909409
 20
229.349904
 42
0.039784
  0
VERTEX
  8
0
 10
259.000000
 20
230.486631
 42
0.103662
  0
VERTEX
  8
0
 10
258.710829
 20
231.866415
 42
0.106181
  0
VERTEX
  8
0
 10
257.893095
 20
233.000435
 42
0.100483
  0
VERTEX
  8
0
 10
256.639191
 20
233.742194
 42
0.083669
  0
VERTEX
  8
0
 10
255.109342
 20
234.000000
 42
0.102493
  0
VERTEX
  8
0
 10
254.715289
 20
233.918367
 42
0.019087
  0
VERTEX
  8
0
 10
254.045301
 20
233.597436
 42
0.019733
  0
VERTEX
  8
0
 10
253.278940
 20
233.154216
 42
0.016893
  0
SEQEND
  0
POLYLINE
  8
0
 66
1
 70
1
  0
VERTEX
  8
0
 10
206.000000
 20
218.500000
 42
0.000000
  0
VERTEX
  8
0
 10
206.000000
 20
204.000000
 42
0.000000
  0
VERTEX
  8
0
 10
208.500000
 20
204.000000
 42
0.000000
  0
VERTEX
  8
0
 10
211.000000
 20
204.000000
 42
0.000000
  0
VERTEX
  8
0
 10
211.000000
 20
218.500000
 42
0.000000
  0
VERTEX
  8
0
 10
211.000000
 20
233.000000
 42
0.000000
  0
VERTEX
  8
0
 10
208.500000
 20
233.000000
 42
0.000000
  0
VERTEX
  8
0
 10
206.000000
 20
233.000000
 42
0.000000
  0
SEQEND
  0
POLYLINE
  8
0
 66
1
 70
1
  0
VERTEX
  8
0
 10
196.719798
 20
228.712188
 42
0.120611
  0
VERTEX
  8
0
 10
196.536413
 20
227.268465
 42
0.143901
  0
VERTEX
  8
0
 10
197.068240
 20
226.009017
 42
0.145787
  0
VERTEX
  8
0
 10
198.189986
 20
225.248381
 42
0.124787
  0
VERTEX
  8
0
 10
199.619827
 20
225.165302
 42
0.177494
  0
VERTEX
  8
0
 10
201.015016
 20
226.004623
 42
0.184589
  0
VERTEX
  8
0
 10
201.508795
 20
227.531293
 42
0.178609
  0
VERTEX
  8
0
 10
200.862388
 20
229.036033
 42
0.169042
  0
VERTEX
  8
0
 10
199.377278
 20
229.802872
 42
0.064100
  0
VERTEX
  8
0
 10
198.525815
 20
229.814538
 42
0.068892
  0
VERTEX
  8
0
 10
197.721020
 20
229.607418
 42
0.077285
  0
VERTEX
  8
0
 10
197.083471
 20
229.222020
 42
0.127282
  0
SEQEND
  0
POLYLINE
  8
0
 66
1
 70
1
  0
VERTEX
  8
0
 10
62.000000
 20
224.000000
 42
-0.031626
  0
VERTEX
  8
0
 10
61.927234
 20
222.850749
 42
-0.048861
  0
VERTEX
  8
0
 10
61.706250
 20
221.881250
 42
-0.062710
  0
VERTEX
  8
0
 10
61.384262
 20
221.209557
 42
-0.254951
  0
VERTEX
  8
0
 10
61.000000
 20
221.000000
 42
0.191087
  0
VERTEX
  8
0
 10
60.618118
 20
220.848523
 42
0.088204
  0
VERTEX
  8
0
 10
60.293750
 20
220.412500
 42
0.068025
  0
VERTEX
  8
0
 10
60.073693
 20
219.765418
 42
0.048028
  0
VERTEX
  8
0
 10
60.000000
 20
219.000000
 42
0.048028
  0
VERTEX
  8
0
 10
60.073693
 20
218.234582
 42
0.068025
  0
VERTEX
  8
0
 10
60.293750
 20
217.587500
 42
0.088204
  0
VERTEX
  8
0
 10
60.618118
 20
217.151477
 42
0.191087
  0
VERTEX
  8
0
 10
61.000000
 20
217.000000
 42
-0.345347
  0
VERTEX
  8
0
 10
61.400526
 20
216.685898
 42
-0.022017
  0
VERTEX
  8
0
 10
61.711538
 20
215.125000
 42
-0.024301
  0
VERTEX
  8
0
 10
61.929639
 20
213.036573
 42
-0.013867
  0
VERTEX
  8
0
 10
62.000000
 20
210.500000
 42
0.006367
  0
VERTEX
  8
0
 10
62.052512
 20
206.376461
 42
0.085635
  0
VERTEX
  8
0
 10
62.346154
 20
204.900000
 42
0.226921
  0
VERTEX
  8
0
 10
63.059174
 20
204.225912
 42
0.077921
  0
VERTEX
  8
0
 10
64.500000
 20
204.000000
 42
0.077921
  0
VERTEX
  8
0
 10
65.940826
 20
204.225912
 42
0.226921
  0
VERTEX
  8
0
 10
66.653846
 20
204.900000
 42
0.085635
  0
VERTEX
  8
0
 10
66.947488
 20
206.376461
 42
0.006367
  0
VERTEX
  8
0
 10
67.000000
 20
210.500000
 42
-0.009420
  0
VERTEX
  8
0
 10
67.062640
 20
213.824386
 42
-0.047315
  0
VERTEX
  8
0
 10
67.307692
 20
215.666667
 42
-0.108427
  0
VERTEX
  8
0
 10
67.770252
 20
216.642085
 42
-0.232029
  0
VERTEX
  8
0
 10
68.500000
 20
217.000000
 42
0.130775
  0
VERTEX
  8
0
 10
69.075754
 20
217.153209
 42
0.102140
  0
VERTEX
  8
0
 10
69.562500
 20
217.583333
 42
0.088920
  0
VERTEX
  8
0
 10
69.888136
 20
218.230589
 42
0.072314
  0
VERTEX
  8
0
 10
70.000000
 20
219.000000
 42
0.072314
  0
VERTEX
  8
0
 10
69.888136
 20
219.769411
 42
0.088920
  0
VERTEX
  8
0
 10
69.562500
 20
220.416667
 42
0.102140
  0
VERTEX
  8
0
 10
69.075754
 20
220.846791
 42
0.130775
  0
VERTEX
  8
0
 10
68.500000
 20
221.000000
 42
-0.152103
  0
VERTEX
  8
0
 10
67.851045
 20
221.202091
 42
-0.126510
  0
VERTEX
  8
0
 10
67.375000
 20
221.750000
 42
-0.082504
  0
VERTEX
  8
0
 10
67.088963
 20
222.677925
 42
-0.033607
  0
VERTEX
  8
0
 10
67.000000
 20
224.000000
 42
0.030103
  0
VERTEX
  8
0
 10
66.902765
 20
225.613599
 42
0.144586
  0
VERTEX
  8
0
 10
66.541667
 20
226.450000
 42
0.173074
  0
VERTEX
  8
0
 10
65.824437
 20
226.873428
 42
0.047675
  0
VERTEX
  8
0
 10
64.500000
 20
227.000000
 42
0.047675
  0
VERTEX
  8
0
 10
63.175563
 20
226.873428
 42
0.173074
  0
VERTEX
  8
0
 10
62.458333
 20
226.450000
 42
0.144586
  0
VERTEX
  8
0
 10
62.097235
 20
225.613599
 42
0.030103
  0
SEQEND
  0
POLYLINE
  8
0
 66
1
 70
1
  0
VERTEX
  8
0
 10
188.000000
 20
224.000000
 42
-0.031626
  0
VERTEX
  8
0
 10
187.927234
 20
222.850749
 42
-0.048861
  0
VERTEX
  8
0
 10
187.706250
 20
221.881250
 42
-0.062710
  0
VERTEX
  8
0
 10
187.384262
 20
221.209557
 42
-0.254951
  0
VERTEX
  8
0
 10
187.000000
 20
221.000000
 42
0.191087
  0
VERTEX
  8
0
 10
186.618118
 20
220.848523
 42
0.088204
  0
VERTEX
  8
0
 10
186.293750
 20
220.412500
 42
0.068025
  0
VERTEX
  8
0
 10
186.073693
 20
219.765418
 42
0.048028
  0
VERTEX
  8
0
 10
186.000000
 20
219.000000
 42
0.048028
  0
VERTEX
  8
0
 10
186.073693
 20
218.234582
 42
0.068025
  0
VERTEX
  8
0
 10
186.293750
 20
217.587500
 42
0.088204
  0
VERTEX
  8
0
 10
186.618118
 20
217.151477
 42
0.191087
  0
VERTEX
  8
0
 10
187.000000
 20
217.000000
 42
-0.345347
  0
VERTEX
  8
0
 10
187.400526
 20
216.685898
 42
-0.022017
  0
VERTEX
  8
0
 10
187.711538
 20
215.125000
 42
-0.024301
  0
VERTEX
  8
0
 10
187.929639
 20
213.036573
 42
-0.013867
  0
VERTEX
  8
0
 10
188.000000
 20
210.500000
 42
0.006367
  0
VERTEX
  8
0
 10
188.052512
 20
206.376461
 42
0.085635
  0
VERTEX
  8
0
 10
188.346154
 20
204.900000
 42
0.226921
  0
VERTEX
  8
0
 10
189.059174
 20
204.225912
 42
0.077921
  0
VERTEX
  8
0
 10
190.500000
 20
204.000000
 42
0.077921
  0
VERTEX
  8
0
 10
191.940826
 20
204.225912
 42
0.226921
  0
VERTEX
  8
0
 10
192.653846
 20
204.900000
 42
0.085635
  0
VERTEX
  8
0
 10
192.947488
 20
206.376461
 42
0.006367
  0
VERTEX
  8
0
 10
193.000000
 20
210.500000
 42
-0.009420
  0
VERTEX
  8
0
 10
193.062640
 20
213.824386
 42
-0.047315
  0
VERTEX
  8
0
 10
193.307692
 20
215.666667
 42
-0.108427
  0
VERTEX
  8
0
 10
193.770252
 20
216.642085
 42
-0.232029
  0
VERTEX
  8
0
 10
194.500000
 20
217.000000
 42
0.130775
  0
VERTEX
  8
0
 10
195.075754
 20
217.153209
 42
0.102140
  0
VERTEX
  8
0
 10
195.562500
 20
217.583333
 42
0.088920
  0
VERTEX
  8
0
 10
195.888136
 20
218.230589
 42
0.072314
  0
VERTEX
  8
0
 10
196.000000
 20
219.000000
 42
0.072314
  0
VERTEX
  8
0
 10
195.888136
 20
219.769411
 42
0.088920
  0
VERTEX
  8
0
 10
195.562500
 20
220.416667
 42
0.102140
  0
VERTEX
  8
0
 10
195.075754
 20
220.846791
 42
0.130775
  0
VERTEX
  8
0
 10
194.500000
 20
221.000000
 42
-0.152103
  0
VERTEX
  8
0
 10
193.851045
 20
221.202091
 42
-0.126510
  0
VERTEX
  8
0
 10
193.375000
 20
221.750000
 42
-0.082504
  0
VERTEX
  8
0
 10
193.088963
 20
222.677925
 42
-0.033607
  0
VERTEX
  8
0
 10
193.000000
 20
224.000000
 42
0.030103
  0
VERTEX
  8
0
 10
192.902765
 20
225.613599
 42
0.144586
  0
VERTEX
  8
0
 10
192.541667
 20
226.450000
 42
0.173074
  0
VERTEX
  8
0
 10
191.824437
 20
226.873428
 42
0.047675
  0
VERTEX
  8
0
 10
190.500000
 20
227.000000
 42
0.047675
  0
VERTEX
  8
0
 10
189.175563
 20
226.873428
 42
0.173074
  0
VERTEX
  8
0
 10
188.458333
 20
226.450000
 42
0.144586
  0
VERTEX
  8
0
 10
188.097235
 20
225.613599
 42
0.030103
  0
SEQEND
  0
POLYLINE
  8
0
 66
1
 70
1
  0
VERTEX
  8
0
 10
25.000000
 20
220.698849
 42
0.093477
  0
VERTEX
  8
0
 10
22.787421
 20
219.008380
 42
0.077231
  0
VERTEX
  8
0
 10
21.163954
 20
216.518572
 42
0.074696
  0
VERTEX
  8
0
 10
20.333622
 20
213.570523
 42
0.077875
  0
VERTEX
  8
0
 10
20.424224
 20
210.552229
 42
0.102400
  0
VERTEX
  8
0
 10
21.858063
 20
207.059414
 42
0.105265
  0
VERTEX
  8
0
 10
24.549641
 20
204.462944
 42
0.116276
  0
VERTEX
  8
0
 10
27.836173
 20
203.351365
 42
0.147565
  0
VERTEX
  8
0
 10
30.962227
 20
203.979785
 42
-0.022974
  0
VERTEX
  8
0
 10
32.083388
 20
204.515099
 42
-0.198290
  0
VERTEX
  8
0
 10
32.626200
 20
204.519451
 42
-0.263410
  0
VERTEX
  8
0
 10
32.922086
 20
204.147655
 42
-0.039289
  0
VERTEX
  8
0
 10
33.000000
 20
203.157628
 42
-0.180074
  0
VERTEX
  8
0
 10
32.115254
 20
200.780664
 42
-0.161894
  0
VERTEX
  8
0
 10
29.848917
 20
199.430959
 42
-0.167844
  0
VERTEX
  8
0
 10
27.287752
 20
199.730569
 42
-0.191114
  0
VERTEX
  8
0
 10
25.623766
 20
201.538067
 42
0.181996
  0
VERTEX
  8
0
 10
24.621302
 20
202.666256
 42
0.141634
  0
VERTEX
  8
0
 10
23.001268
 20
202.999528
 42
0.157575
  0
VERTEX
  8
0
 10
21.572176
 20
202.410273
 42
0.220243
  0
VERTEX
  8
0
 10
21.000000
 20
201.174314
 42
0.150842
  0
VERTEX
  8
0
 10
21.644275
 20
199.087309
 42
0.074672
  0
VERTEX
  8
0
 10
23.548402
 20
197.034827
 42
0.070598
  0
VERTEX
  8
0
 10
26.119100
 20
195.518764
 42
0.098286
  0
VERTEX
  8
0
 10
28.732664
 20
195.000000
 42
0.090790
  0
VERTEX
  8
0
 10
33.354386
 20
195.846187
 42
0.175882
  0
VERTEX
  8
0
 10
36.164883
 20
198.263698
 42
0.105936
  0
VERTEX
  8
0
 10
37.614763
 20
202.931915
 42
0.022518
  0
VERTEX
  8
0
 10
38.000000
 20
211.481666
 42
0.000000
  0
VERTEX
  8
0
 10
38.000000
 20
221.062651
 42
0.000000
  0
VERTEX
  8
0
 10
34.750000
 20
220.863251
 42
-0.020215
  0
VERTEX
  8
0
 10
33.359108
 20
220.834242
 42
-0.016333
  0
VERTEX
  8
0
 10
31.867188
 20
220.912242
 42
-0.016637
  0
VERTEX
  8
0
 10
30.493670
 20
221.075308
 42
-0.040289
  0
VERTEX
  8
0
 10
29.500000
 20
221.310038
 42
0.073877
  0
VERTEX
  8
0
 10
28.553646
 20
221.467640
 42
0.038151
  0
VERTEX
  8
0
 10
27.353125
 20
221.397054
 42
0.036887
  0
VERTEX
  8
0
 10
26.104116
 20
221.132489
 42
0.045915
  0
SEQEND
  0
POLYLINE
  8
0
 66
1
 70
1
  0
VERTEX
  8
0
 10
31.954319
 20
215.555042
 42
-0.175594
  0
VERTEX
  8
0
 10
32.925178
 20
212.854192
 42
-0.149250
  0
VERTEX
  8
0
 10
32.028427
 20
209.943643
 42
-0.170601
  0
VERTEX
  8
0
 10
29.778204
 20
208.276421
 42
-0.218284
  0
VERTEX
  8
0
 10
27.250000
 20
208.607242
 42
-0.163882
  0
VERTEX
  8
0
 10
25.499584
 20
210.745542
 42
-0.142624
  0
VERTEX
  8
0
 10
25.273841
 20
213.642445
 42
-0.153620
  0
VERTEX
  8
0
 10
26.626422
 20
216.058130
 42
-0.191157
  0
VERTEX
  8
0
 10
29.000000
 20
217.000000
 42
-0.069280
  0
VERTEX
  8
0
 10
29.759836
 20
216.894209
 42
-0.044582
  0
VERTEX
  8
0
 10
30.591814
 20
216.575544
 42
-0.044127
  0
VERTEX
  8
0
 10
31.366182
 20
216.108110
 42
-0.061776
  0
SEQEND
  0
POLYLINE
  8
0
 66
1
 70
1
  0
VERTEX
  8
0
 10
45.000000
 20
220.698849
 42
0.174089
  0
VERTEX
  8
0
 10
41.094589
 20
216.590393
 42
0.152297
  0
VERTEX
  8
0
 10
40.422975
 20
210.676025
 42
0.161595
  0
VERTEX
  8
0
 10
43.219284
 20
205.672408
 42
0.193876
  0
VERTEX
  8
0
 10
48.236577
 20
203.796715
 42
-0.001278
  0
VERTEX
  8
0
 10
49.721263
 20
203.830403
 42
-0.000753
  0
VERTEX
  8
0
 10
51.496057
 20
203.863461
 42
-0.000753
  0
VERTEX
  8
0
 10
53.269581
 20
203.891154
 42
-0.001287
  0
VERTEX
  8
0
 10
54.750000
 20
203.908230
 42
0.000000
  0
VERTEX
  8
0
 10
58.000000
 20
203.937349
 42
0.000000
  0
VERTEX
  8
0
 10
58.000000
 20
212.500000
 42
0.000000
  0
VERTEX
  8
0
 10
58.000000
 20
221.062651
 42
0.000000
  0
VERTEX
  8
0
 10
54.750000
 20
220.863251
 42
-0.020215
  0
VERTEX
  8
0
 10
53.359108
 20
220.834242
 42
-0.016333
  0
VERTEX
  8
0
 10
51.867188
 20
220.912242
 42
-0.016637
  0
VERTEX
  8
0
 10
50.493670
 20
221.075308
 42
-0.040289
  0
VERTEX
  8
0
 10
49.500000
 20
221.310038
 42
0.073877
  0
VERTEX
  8
0
 10
48.553646
 20
221.467640
 42
0.038151
  0
VERTEX
  8
0
 10
47.353125
 20
221.397054
 42
0.036887
  0
VERTEX
  8
0
 10
46.104116
 20
221.132489
 42
0.045915
  0
SEQEND
  0
POLYLINE
  8
0
 66
1
 70
1
  0
VERTEX
  8
0
 10
51.954319
 20
215.555042
 42
-0.175594
  0
VERTEX
  8
0
 10
52.925178
 20
212.854192
 42
-0.149250
  0
VERTEX
  8
0
 10
52.028427
 20
209.943643
 42
-0.170601
  0
VERTEX
  8
0
 10
49.778204
 20
208.276421
 42
-0.218284
  0
VERTEX
  8
0
 10
47.250000
 20
208.607242
 42
-0.163882
  0
VERTEX
  8
0
 10
45.499584
 20
210.745542
 42
-0.142624
  0
VERTEX
  8
0
 10
45.273841
 20
213.642445
 42
-0.153620
  0
VERTEX
  8
0
 10
46.626422
 20
216.058130
 42
-0.191157
  0
VERTEX
  8
0
 10
49.000000
 20
217.000000
 42
-0.069280
  0
VERTEX
  8
0
 10
49.759836
 20
216.894209
 42
-0.044582
  0
VERTEX
  8
0
 10
50.591814
 20
216.575544
 42
-0.044127
  0
VERTEX
  8
0
 10
51.366182
 20
216.108110
 42
-0.061776
  0
SEQEND
  0
POLYLINE
  8
0
 66
1
 70
1
  0
VERTEX
  8
0
 10
76.475761
 20
220.579805
 42
0.084070
  0
VERTEX
  8
0
 10
74.424623
 20
219.259630
 42
0.060341
  0
VERTEX
  8
0
 10
72.643247
 20
217.189769
 42
0.060612
  0
VERTEX
  8
0
 10
71.415354
 20
214.766618
 42
0.087206
  0
VERTEX
  8
0
 10
71.000000
 20
212.403287
 42
0.063079
  0
VERTEX
  8
0
 10
71.097289
 20
211.635186
 42
0.018784
  0
VERTEX
  8
0
 10
71.435516
 20
210.499876
 42
0.018518
  0
VERTEX
  8
0
 10
71.915107
 20
209.241556
 42
0.019022
  0
VERTEX
  8
0
 10
72.482608
 20
208.033632
 42
0.157982
  0
VERTEX
  8
0
 10
75.996482
 20
204.556298
 42
0.136136
  0
VERTEX
  8
0
 10
81.111434
 20
203.539724
 42
0.136756
  0
VERTEX
  8
0
 10
86.001803
 20
205.304061
 42
0.159829
  0
VERTEX
  8
0
 10
88.920523
 20
209.259183
 42
0.139240
  0
VERTEX
  8
0
 10
89.145001
 20
214.591518
 42
0.150633
  0
VERTEX
  8
0
 10
86.505567
 20
219.058877
 42
0.149901
  0
VERTEX
  8
0
 10
81.797057
 20
221.278689
 42
0.137634
  0
SEQEND
  0
POLYLINE
  8
0
 66
1
 70
1
  0
VERTEX
  8
0
 10
84.067697
 20
214.873507
 42
-0.119233
  0
VERTEX
  8
0
 10
84.656399
 20
212.606321
 42
-0.117984
  0
VERTEX
  8
0
 10
84.147522
 20
210.311046
 42
-0.127810
  0
VERTEX
  8
0
 10
82.705087
 20
208.623685
 42
-0.153502
  0
VERTEX
  8
0
 10
80.721439
 20
208.000000
 42
-0.080396
  0
VERTEX
  8
0
 10
78.785013
 20
208.313389
 42
-0.110571
  0
VERTEX
  8
0
 10
77.278655
 20
209.218685
 42
-0.113893
  0
VERTEX
  8
0
 10
76.331510
 20
210.656176
 42
-0.089183
  0
VERTEX
  8
0
 10
76.000000
 20
212.500000
 42
-0.161443
  0
VERTEX
  8
0
 10
76.901888
 20
215.220416
 42
-0.162515
  0
VERTEX
  8
0
 10
79.248070
 20
216.854410
 42
-0.169899
  0
VERTEX
  8
0
 10
82.024134
 20
216.714216
 42
-0.174839
  0
SEQEND
  0
POLYLINE
  8
0
 66
1
 70
1
  0
VERTEX
  8
0
 10
96.750000
 20
221.271532
 42
0.000000
  0
VERTEX
  8
0
 10
93.000000
 20
220.879269
 42
0.000000
  0
VERTEX
  8
0
 10
93.000000
 20
212.439635
 42
0.004167
  0
VERTEX
  8
0
 10
93.045784
 20
206.945676
 42
0.066627
  0
VERTEX
  8
0
 10
93.322642
 20
205.110386
 42
0.222711
  0
VERTEX
  8
0
 10
94.039437
 20
204.294850
 42
0.103234
  0
VERTEX
  8
0
 10
95.452283
 20
204.000000
 42
0.083297
  0
VERTEX
  8
0
 10
96.846007
 20
204.233808
 42
0.208930
  0
VERTEX
  8
0
 10
97.588271
 20
204.917513
 42
0.084395
  0
VERTEX
  8
0
 10
97.960726
 20
206.400161
 42
0.007532
  0
VERTEX
  8
0
 10
98.202283
 20
210.250000
 42
-0.007413
  0
VERTEX
  8
0
 10
98.437327
 20
214.010384
 42
-0.078772
  0
VERTEX
  8
0
 10
98.792668
 20
215.498022
 42
-0.217233
  0
VERTEX
  8
0
 10
99.478666
 20
216.138749
 42
-0.107159
  0
VERTEX
  8
0
 10
100.689743
 20
216.272466
 42
0.171887
  0
VERTEX
  8
0
 10
102.369103
 20
216.677939
 42
0.144035
  0
VERTEX
  8
0
 10
103.566213
 20
218.078219
 42
0.157347
  0
VERTEX
  8
0
 10
103.755742
 20
219.808538
 42
0.203486
  0
VERTEX
  8
0
 10
102.857012
 20
221.109533
 42
0.022735
  0
VERTEX
  8
0
 10
102.300810
 20
221.427489
 42
0.027521
  0
VERTEX
  8
0
 10
101.751747
 20
221.671914
 42
0.027934
  0
VERTEX
  8
0
 10
101.277495
 20
221.822756
 42
0.138032
  0
VERTEX
  8
0
 10
101.000000
 20
221.816584
 42
-0.040104
  0
VERTEX
  8
0
 10
100.654178
 20
221.740557
 42
-0.002172
  0
VERTEX
  8
0
 10
99.545312
 20
221.593449
 42
-0.003376
  0
VERTEX
  8
0
 10
98.222888
 20
221.432919
 42
-0.002456
  0
SEQEND
  0
POLYLINE
  8
0
 66
1
 70
1
  0
VERTEX
  8
0
 10
173.250000
 20
221.253707
 42
0.000000
  0
VERTEX
  8
0
 10
169.000000
 20
220.885004
 42
0.000000
  0
VERTEX
  8
0
 10
169.000000
 20
212.442502
 42
0.004164
  0
VERTEX
  8
0
 10
169.045776
 20
206.946478
 42
0.066606
  0
VERTEX
  8
0
 10
169.322617
 20
205.110678
 42
0.222701
  0
VERTEX
  8
0
 10
170.039430
 20
204.294944
 42
0.103266
  0
VERTEX
  8
0
 10
171.452283
 20
204.000000
 42
0.083297
  0
VERTEX
  8
0
 10
172.846007
 20
204.233808
 42
0.208930
  0
VERTEX
  8
0
 10
173.588271
 20
204.917513
 42
0.084395
  0
VERTEX
  8
0
 10
173.960726
 20
206.400161
 42
0.007532
  0
VERTEX
  8
0
 10
174.202283
 20
210.250000
 42
-0.008641
  0
VERTEX
  8
0
 10
174.433779
 20
213.812993
 42
-0.067636
  0
VERTEX
  8
0
 10
174.791013
 20
215.431535
 42
-0.172273
  0
VERTEX
  8
0
 10
175.436302
 20
216.207843
 42
-0.134834
  0
VERTEX
  8
0
 10
176.500000
 20
216.500000
 42
-0.134834
  0
VERTEX
  8
0
 10
177.563698
 20
216.207843
 42
-0.172273
  0
VERTEX
  8
0
 10
178.208987
 20
215.431535
 42
-0.067636
  0
VERTEX
  8
0
 10
178.566221
 20
213.812993
 42
-0.008641
  0
VERTEX
  8
0
 10
178.797717
 20
210.250000
 42
0.007532
  0
VERTEX
  8
0
 10
179.039274
 20
206.400161
 42
0.084395
  0
VERTEX
  8
0
 10
179.411729
 20
204.917513
 42
0.208930
  0
VERTEX
  8
0
 10
180.153993
 20
204.233808
 42
0.083297
  0
VERTEX
  8
0
 10
181.547717
 20
204.000000
 42
0.085278
  0
VERTEX
  8
0
 10
182.953544
 20
204.241529
 42
0.224882
  0
VERTEX
  8
0
 10
183.659960
 20
204.944136
 42
0.080654
  0
VERTEX
  8
0
 10
183.948635
 20
206.488937
 42
0.005945
  0
VERTEX
  8
0
 10
184.000000
 20
210.808870
 42
0.035160
  0
VERTEX
  8
0
 10
183.573775
 20
216.862644
 42
0.166312
  0
VERTEX
  8
0
 10
182.020343
 20
219.919363
 42
0.175891
  0
VERTEX
  8
0
 10
178.978331
 20
221.288004
 42
0.040297
  0
SEQEND
  0
POLYLINE
  8
0
 66
1
 70
1
  0
VERTEX
  8
0
 10
233.000000
 20
220.698849
 42
0.174089
  0
VERTEX
  8
0
 10
229.094589
 20
216.590393
 42
0.152297
  0
VERTEX
  8
0
 10
228.422975
 20
210.676025
 42
0.161595
  0
VERTEX
  8
0
 10
231.219284
 20
205.672408
 42
0.193876
  0
VERTEX
  8
0
 10
236.236577
 20
203.796715
 42
-0.001278
  0
VERTEX
  8
0
 10
237.721263
 20
203.830403
 42
-0.000753
  0
VERTEX
  8
0
 10
239.496057
 20
203.863461
 42
-0.000753
  0
VERTEX
  8
0
 10
241.269581
 20
203.891154
 42
-0.001287
  0
VERTEX
  8
0
 10
242.750000
 20
203.908230
 42
0.000000
  0
VERTEX
  8
0
 10
246.000000
 20
203.937349
 42
0.000000
  0
VERTEX
  8
0
 10
246.000000
 20
212.500000
 42
0.000000
  0
VERTEX
  8
0
 10
246.000000
 20
221.062651
 42
0.000000
  0
VERTEX
  8
0
 10
242.750000
 20
220.863251
 42
-0.020215
  0
VERTEX
  8
0
 10
241.359108
 20
220.834242
 42
-0.016333
  0
VERTEX
  8
0
 10
239.867188
 20
220.912242
 42
-0.016637
  0
VERTEX
  8
0
 10
238.493670
 20
221.075308
 42
-0.040289
  0
VERTEX
  8
0
 10
237.500000
 20
221.310038
 42
0.073877
  0
VERTEX
  8
0
 10
236.553646
 20
221.467640
 42
0.038151
  0
VERTEX
  8
0
 10
235.353125
 20
221.397054
 42
0.036887
  0
VERTEX
  8
0
 10
234.104116
 20
221.132489
 42
0.045915
  0
SEQEND
  0
POLYLINE
  8
0
 66
1
 70
1
  0
VERTEX
  8
0
 10
239.954319
 20
215.555042
 42
-0.175594
  0
VERTEX
  8
0
 10
240.925178
 20
212.854192
 42
-0.149250
  0
VERTEX
  8
0
 10
240.028427
 20
209.943643
 42
-0.170601
  0
VERTEX
  8
0
 10
237.778204
 20
208.276421
 42
-0.218284
  0
VERTEX
  8
0
 10
235.250000
 20
208.607242
 42
-0.163882
  0
VERTEX
  8
0
 10
233.499584
 20
210.745542
 42
-0.142624
  0
VERTEX
  8
0
 10
233.273841
 20
213.642445
 42
-0.153620
  0
VERTEX
  8
0
 10
234.626422
 20
216.058130
 42
-0.191157
  0
VERTEX
  8
0
 10
237.000000
 20
217.000000
 42
-0.069280
  0
VERTEX
  8
0
 10
237.759836
 20
216.894209
 42
-0.044582
  0
VERTEX
  8
0
 10
238.591814
 20
216.575544
 42
-0.044127
  0
VERTEX
  8
0
 10
239.366182
 20
216.108110
 42
-0.061776
  0
SEQEND
  0
POLYLINE
  8
0
 66
1
 70
1
  0
VERTEX
  8
0
 10
276.354429
 20
221.295620
 42
0.176658
  0
VERTEX
  8
0
 10
272.798470
 20
219.176950
 42
0.114373
  0
VERTEX
  8
0
 10
270.666780
 20
214.830798
 42
0.108357
  0
VERTEX
  8
0
 10
270.604406
 20
209.789714
 42
0.146510
  0
VERTEX
  8
0
 10
272.755051
 20
205.800505
 42
0.111958
  0
VERTEX
  8
0
 10
275.500552
 20
204.069981
 42
0.085663
  0
VERTEX
  8
0
 10
279.009790
 20
203.472961
 42
0.085720
  0
VERTEX
  8
0
 10
282.513945
 20
204.086801
 42
0.112356
  0
VERTEX
  8
0
 10
285.244949
 20
205.830399
 42
0.011778
  0
VERTEX
  8
0
 10
286.657318
 20
207.330579
 42
0.163349
  0
VERTEX
  8
0
 10
286.948563
 20
208.004613
 42
0.232071
  0
VERTEX
  8
0
 10
286.715777
 20
208.601168
 42
0.025920
  0
VERTEX
  8
0
 10
285.558870
 20
209.557672
 42
-0.008072
  0
VERTEX
  8
0
 10
284.449233
 20
210.410316
 42
-0.183999
  0
VERTEX
  8
0
 10
284.247770
 20
210.749823
 42
-0.436326
  0
VERTEX
  8
0
 10
284.405101
 20
210.956257
 42
-0.024186
  0
VERTEX
  8
0
 10
285.308870
 20
211.000000
 42
0.271963
  0
VERTEX
  8
0
 10
286.574017
 20
211.743109
 42
0.147145
  0
VERTEX
  8
0
 10
286.974677
 20
213.565245
 42
0.093174
  0
VERTEX
  8
0
 10
286.310712
 20
216.045520
 42
0.072740
  0
VERTEX
  8
0
 10
284.750000
 20
218.363423
 42
0.050993
  0
VERTEX
  8
0
 10
282.878165
 20
220.042181
 42
0.073422
  0
VERTEX
  8
0
 10
280.910042
 20
221.073303
 42
0.075055
  0
VERTEX
  8
0
 10
278.761450
 20
221.478022
 42
0.056053
  0
SEQEND
  0
POLYLINE
  8
0
 66
1
 70
1
  0
VERTEX
  8
0
 10
281.000000
 20
216.000000
 42
-0.230178
  0
VERTEX
  8
0
 10
280.813779
 20
215.616918
 42
-0.073461
  0
VERTEX
  8
0
 10
280.248289
 20
215.293750
 42
-0.055981
  0
VERTEX
  8
0
 10
279.420991
 20
215.073066
 42
-0.037227
  0
VERTEX
  8
0
 10
278.440983
 20
215.000000
 42
-0.035659
  0
VERTEX
  8
0
 10
277.479336
 20
215.068671
 42
-0.083483
  0
VERTEX
  8
0
 10
276.794783
 20
215.287316
 42
-0.165100
  0
VERTEX
  8
0
 10
276.478234
 20
215.615199
 42
-0.253782
  0
VERTEX
  8
0
 10
276.500000
 20
216.000000
 42
-0.111412
  0
VERTEX
  8
0
 10
276.876024
 20
216.383556
 42
-0.050262
  0
VERTEX
  8
0
 10
277.506650
 20
216.706250
 42
-0.046318
  0
VERTEX
  8
0
 10
278.270704
 20
216.925923
 42
-0.046881
  0
VERTEX
  8
0
 10
279.059017
 20
217.000000
 42
-0.049547
  0
VERTEX
  8
0
 10
279.801778
 20
216.926216
 42
-0.069539
  0
VERTEX
  8
0
 10
280.429836
 20
216.706250
 42
-0.089706
  0
VERTEX
  8
0
 10
280.852535
 20
216.381787
 42
-0.186414
  0
SEQEND
  0
POLYLINE
  8
0
 66
1
 70
1
  0
VERTEX
  8
0
 10
282.000000
 20
209.500000
 42
-0.059806
  0
VERTEX
  8
0
 10
281.394287
 20
208.925909
 42
-0.043899
  0
VERTEX
  8
0
 10
280.605233
 20
208.440625
 42
-0.044601
  0
VERTEX
  8
0
 10
279.763110
 20
208.109626
 42
-0.071461
  0
VERTEX
  8
0
 10
279.000000
 20
208.000000
 42
-0.071461
  0
VERTEX
  8
0
 10
278.236890
 20
208.109626
 42
-0.044601
  0
VERTEX
  8
0
 10
277.394767
 20
208.440625
 42
-0.043899
  0
VERTEX
  8
0
 10
276.605713
 20
208.925909
 42
-0.059806
  0
VERTEX
  8
0
 10
276.000000
 20
209.500000
 42
-0.084627
  0
VERTEX
  8
0
 10
275.547024
 20
210.284082
 42
-0.382744
  0
VERTEX
  8
0
 10
275.725061
 20
210.734975
 42
-0.107644
  0
VERTEX
  8
0
 10
276.602955
 20
210.958377
 42
-0.008681
  0
VERTEX
  8
0
 10
279.000000
 20
211.000000
 42
-0.008681
  0
VERTEX
  8
0
 10
281.397045
 20
210.958377
 42
-0.107644
  0
VERTEX
  8
0
 10
282.274939
 20
210.734975
 42
-0.382744
  0
VERTEX
  8
0
 10
282.452976
 20
210.284082
 42
-0.084627
  0
SEQEND
  0
POLYLINE
  8
0
 66
1
 70
1
  0
VERTEX
  8
0
 10
293.750000
 20
221.271532
 42
0.000000
  0
VERTEX
  8
0
 10
290.000000
 20
220.879269
 42
0.000000
  0
VERTEX
  8
0
 10
290.000000
 20
212.439635
 42
0.004167
  0
VERTEX
  8
0
 10
290.045784
 20
206.945676
 42
0.066627
  0
VERTEX
  8
0
 10
290.322642
 20
205.110386
 42
0.222711
  0
VERTEX
  8
0
 10
291.039437
 20
204.294850
 42
0.103234
  0
VERTEX
  8
0
 10
292.452283
 20
204.000000
 42
0.083297
  0
VERTEX
  8
0
 10
293.846007
 20
204.233808
 42
0.208930
  0
VERTEX
  8
0
 10
294.588271
 20
204.917513
 42
0.084395
  0
VERTEX
  8
0
 10
294.960726
 20
206.400161
 42
0.007532
  0
VERTEX
  8
0
 10
295.202283
 20
210.250000
 42
-0.007413
  0
VERTEX
  8
0
 10
295.437327
 20
214.010384
 42
-0.078772
  0
VERTEX
  8
0
 10
295.792668
 20
215.498022
 42
-0.217233
  0
VERTEX
  8
0
 10
296.478666
 20
216.138749
 42
-0.107159
  0
VERTEX
  8
0
 10
297.689743
 20
216.272466
 42
0.171887
  0
VERTEX
  8
0
 10
299.369103
 20
216.677939
 42
0.144035
  0
VERTEX
  8
0
 10
300.566213
 20
218.078219
 42
0.157347
  0
VERTEX
  8
0
 10
300.755742
 20
219.808538
 42
0.203486
  0
VERTEX
  8
0
 10
299.857012
 20
221.109533
 42
0.022735
  0
VERTEX
  8
0
 10
299.300810
 20
221.427489
 42
0.027521
  0
VERTEX
  8
0
 10
298.751747
 20
221.671914
 42
0.027934
  0
VERTEX
  8
0
 10
298.277495
 20
221.822756
 42
0.138032
  0
VERTEX
  8
0
 10
298.000000
 20
221.816584
 42
-0.040104
  0
VERTEX
  8
0
 10
297.654178
 20
221.740557
 42
-0.002172
  0
VERTEX
  8
0
 10
296.545313
 20
221.593449
 42
-0.003376
  0
VERTEX
  8
0
 10
295.222888
 20
221.432919
 42
-0.002456
  0
SEQEND
  0
POLYLINE
  8
0
 66
1
 70
1
  0
VERTEX
  8
0
 10
150.000000
 20
214.072580
 42
0.009933
  0
VERTEX
  8
0
 10
150.081150
 20
209.987980
 42
0.061345
  0
VERTEX
  8
0
 10
150.419884
 20
207.918815
 42
0.102338
  0
VERTEX
  8
0
 10
151.179694
 20
206.490085
 42
0.052936
  0
VERTEX
  8
0
 10
152.634859
 20
205.072580
 42
0.069391
  0
VERTEX
  8
0
 10
155.230461
 20
203.558887
 42
0.107390
  0
VERTEX
  8
0
 10
157.775993
 20
203.107665
 42
0.110539
  0
VERTEX
  8
0
 10
160.226546
 20
203.756170
 42
0.076778
  0
VERTEX
  8
0
 10
162.545455
 20
205.454545
 42
0.050512
  0
VERTEX
  8
0
 10
163.839486
 20
207.040246
 42
0.079484
  0
VERTEX
  8
0
 10
164.562500
 20
208.638258
 42
0.053942
  0
VERTEX
  8
0
 10
164.907236
 20
210.795394
 42
0.012674
  0
VERTEX
  8
0
 10
165.000000
 20
214.454545
 42
0.006365
  0
VERTEX
  8
0
 10
164.947421
 20
218.585030
 42
0.083445
  0
VERTEX
  8
0
 10
164.656336
 20
220.082718
 42
0.224499
  0
VERTEX
  8
0
 10
163.951603
 20
220.766970
 42
0.082431
  0
VERTEX
  8
0
 10
162.547717
 20
221.000000
 42
0.083297
  0
VERTEX
  8
0
 10
161.153993
 20
220.766192
 42
0.208930
  0
VERTEX
  8
0
 10
160.411729
 20
220.082487
 42
0.084395
  0
VERTEX
  8
0
 10
160.039274
 20
218.599839
 42
0.007532
  0
VERTEX
  8
0
 10
159.797717
 20
214.750000
 42
-0.008641
  0
VERTEX
  8
0
 10
159.566221
 20
211.187007
 42
-0.067636
  0
VERTEX
  8
0
 10
159.208987
 20
209.568465
 42
-0.172273
  0
VERTEX
  8
0
 10
158.563698
 20
208.792157
 42
-0.134834
  0
VERTEX
  8
0
 10
157.500000
 20
208.500000
 42
-0.134834
  0
VERTEX
  8
0
 10
156.436302
 20
208.792157
 42
-0.172273
  0
VERTEX
  8
0
 10
155.791013
 20
209.568465
 42
-0.067636
  0
VERTEX
  8
0
 10
155.433779
 20
211.187007
 42
-0.008641
  0
VERTEX
  8
0
 10
155.202283
 20
214.750000
 42
0.007532
  0
VERTEX
  8
0
 10
154.960726
 20
218.599839
 42
0.084395
  0
VERTEX
  8
0
 10
154.588271
 20
220.082487
 42
0.208930
  0
VERTEX
  8
0
 10
153.846007
 20
220.766192
 42
0.083297
  0
VERTEX
  8
0
 10
152.452283
 20
221.000000
 42
0.086567
  0
VERTEX
  8
0
 10
151.045682
 20
220.754631
 42
0.224974
  0
VERTEX
  8
0
 10
150.338499
 20
220.043778
 42
0.079453
  0
VERTEX
  8
0
 10
150.050854
 20
218.477798
 42
0.005772
  0
SEQEND
  0
POLYLINE
  8
0
 66
1
 70
1
  0
VERTEX
  8
0
 10
197.000000
 20
212.500000
 42
0.004059
  0
VERTEX
  8
0
 10
197.045242
 20
206.927165
 42
0.067556
  0
VERTEX
  8
0
 10
197.323529
 20
205.100000
 42
0.226266
  0
VERTEX
  8
0
 10
198.050108
 20
204.289885
 42
0.098988
  0
VERTEX
  8
0
 10
199.500000
 20
204.000000
 42
0.098988
  0
VERTEX
  8
0
 10
200.949892
 20
204.289885
 42
0.226266
  0
VERTEX
  8
0
 10
201.676471
 20
205.100000
 42
0.067556
  0
VERTEX
  8
0
 10
201.954758
 20
206.927165
 42
0.004059
  0
VERTEX
  8
0
 10
202.000000
 20
212.500000
 42
0.004059
  0
VERTEX
  8
0
 10
201.954758
 20
218.072835
 42
0.067556
  0
VERTEX
  8
0
 10
201.676471
 20
219.900000
 42
0.226266
  0
VERTEX
  8
0
 10
200.949892
 20
220.710115
 42
0.098988
  0
VERTEX
  8
0
 10
199.500000
 20
221.000000
 42
0.098988
  0
VERTEX
  8
0
 10
198.050108
 20
220.710115
 42
0.226266
  0
VERTEX
  8
0
 10
197.323529
 20
219.900000
 42
0.067556
  0
VERTEX
  8
0
 10
197.045242
 20
218.072835
 42
0.004059
  0
SEQEND
  0
POLYLINE
  8
0
 66
1
 70
1
  0
VERTEX
  8
0
 10
105.701236
 20
208.367903
 42
0.144755
  0
VERTEX
  8
0
 10
105.154209
 20
207.361523
 42
0.063505
  0
VERTEX
  8
0
 10
105.026392
 20
205.834957
 42
0.064455
  0
VERTEX
  8
0
 10
105.281454
 20
204.367015
 42
0.181054
  0
VERTEX
  8
0
 10
105.909758
 20
203.555773
 42
0.162181
  0
VERTEX
  8
0
 10
107.250429
 20
203.239017
 42
0.134774
  0
VERTEX
  8
0
 10
108.629784
 20
203.754251
 42
0.129194
  0
VERTEX
  8
0
 10
109.593009
 20
204.925096
 42
0.144455
  0
VERTEX
  8
0
 10
109.802872
 20
206.367062
 42
0.122609
  0
VERTEX
  8
0
 10
109.253231
 20
207.718015
 42
0.122239
  0
VERTEX
  8
0
 10
108.133836
 20
208.655378
 42
0.138366
  0
VERTEX
  8
0
 10
106.815837
 20
208.893670
 42
0.174046
  0
SEQEND
  0
POLYLINE
  8
0
 66
1
 70
1
  0
VERTEX
  8
0
 10
115.701236
 20
208.367903
 42
0.144755
  0
VERTEX
  8
0
 10
115.154209
 20
207.361523
 42
0.063505
  0
VERTEX
  8
0
 10
115.026392
 20
205.834957
 42
0.064455
  0
VERTEX
  8
0
 10
115.281454
 20
204.367015
 42
0.181054
  0
VERTEX
  8
0
 10
115.909758
 20
203.555773
 42
0.162181
  0
VERTEX
  8
0
 10
117.250429
 20
203.239017
 42
0.134774
  0
VERTEX
  8
0
 10
118.629784
 20
203.754251
 42
0.129194
  0
VERTEX
  8
0
 10
119.593009
 20
204.925096
 42
0.144455
  0
VERTEX
  8
0
 10
119.802872
 20
206.367062
 42
0.122609
  0
VERTEX
  8
0
 10
119.253231
 20
207.718015
 42
0.122239
  0
VERTEX
  8
0
 10
118.133836
 20
208.655378
 42
0.138366
  0
VERTEX
  8
0
 10
116.815837
 20
208.893670
 42
0.174046
  0
SEQEND
  0
POLYLINE
  8
0
 66
1
 70
1
  0
VERTEX
  8
0
 10
126.701236
 20
208.367903
 42
0.144755
  0
VERTEX
  8
0
 10
126.154209
 20
207.361523
 42
0.063505
  0
VERTEX
  8
0
 10
126.026392
 20
205.834957
 42
0.064455
  0
VERTEX
  8
0
 10
126.281454
 20
204.367015
 42
0.181054
  0
VERTEX
  8
0
 10
126.909758
 20
203.555773
 42
0.162181
  0
VERTEX
  8
0
 10
128.250429
 20
203.239017
 42
0.134774
  0
VERTEX
  8
0
 10
129.629784
 20
203.754251
 42
0.129194
  0
VERTEX
  8
0
 10
130.593009
 20
204.925096
 42
0.144455
  0
VERTEX
  8
0
 10
130.802872
 20
206.367062
 42
0.122609
  0
VERTEX
  8
0
 10
130.253231
 20
207.718015
 42
0.122239
  0
VERTEX
  8
0
 10
129.133836
 20
208.655378
 42
0.138366
  0
VERTEX
  8
0
 10
127.815837
 20
208.893670
 42
0.174046
  0
SEQEND
  0
POLYLINE
  8
0
 66
1
 70
1
  0
VERTEX
  8
0
 10
294.000000
 20
180.524751
 42
0.000000
  0
VERTEX
  8
0
 10
294.000000
 20
174.049502
 42
0.000000
  0
VERTEX
  8
0
 10
291.407716
 20
175.035086
 42
0.159823
  0
VERTEX
  8
0
 10
287.464763
 20
175.217993
 42
0.135618
  0
VERTEX
  8
0
 10
283.873823
 20
173.064491
 42
0.121688
  0
VERTEX
  8
0
 10
281.633597
 20
169.141116
 42
0.116037
  0
VERTEX
  8
0
 10
281.424224
 20
164.552229
 42
0.072723
  0
VERTEX
  8
0
 10
282.407698
 20
161.686919
 42
0.095789
  0
VERTEX
  8
0
 10
284.112760
 20
159.520641
 42
0.099760
  0
VERTEX
  8
0
 10
286.442788
 20
158.204696
 42
0.085331
  0
VERTEX
  8
0
 10
289.236577
 20
157.796715
 42
-0.001278
  0
VERTEX
  8
0
 10
290.721263
 20
157.830403
 42
-0.000753
  0
VERTEX
  8
0
 10
292.496057
 20
157.863461
 42
-0.000753
  0
VERTEX
  8
0
 10
294.269581
 20
157.891154
 42
-0.001287
  0
VERTEX
  8
0
 10
295.750000
 20
157.908230
 42
0.000000
  0
VERTEX
  8
0
 10
299.000000
 20
157.937349
 42
0.000000
  0
VERTEX
  8
0
 10
299.000000
 20
172.468674
 42
0.000000
  0
VERTEX
  8
0
 10
299.000000
 20
187.000000
 42
0.000000
  0
VERTEX
  8
0
 10
296.500000
 20
187.000000
 42
0.077667
  0
VERTEX
  8
0
 10
295.059378
 20
186.774865
 42
0.226850
  0
VERTEX
  8
0
 10
294.346521
 20
186.102475
 42
0.085914
  0
VERTEX
  8
0
 10
294.052635
 20
184.630374
 42
0.006410
  0
SEQEND
  0
POLYLINE
  8
0
 66
1
 70
1
  0
VERTEX
  8
0
 10
292.954319
 20
169.555042
 42
-0.175594
  0
VERTEX
  8
0
 10
293.925178
 20
166.854192
 42
-0.149250
  0
VERTEX
  8
0
 10
293.028427
 20
163.943643
 42
-0.170601
  0
VERTEX
  8
0
 10
290.778204
 20
162.276421
 42
-0.218284
  0
VERTEX
  8
0
 10
288.250000
 20
162.607242
 42
-0.163882
  0
VERTEX
  8
0
 10
286.499584
 20
164.745542
 42
-0.142624
  0
VERTEX
  8
0
 10
286.273841
 20
167.642445
 42
-0.153620
  0
VERTEX
  8
0
 10
287.626422
 20
170.058130
 42
-0.191157
  0
VERTEX
  8
0
 10
290.000000
 20
171.000000
 42
-0.069280
  0
VERTEX
  8
0
 10
290.759836
 20
170.894209
 42
-0.044582
  0
VERTEX
  8
0
 10
291.591814
 20
170.575544
 42
-0.044127
  0
VERTEX
  8
0
 10
292.366182
 20
170.108110
 42
-0.061776
  0
SEQEND
  0
POLYLINE
  8
0
 66
1
 70
1
  0
VERTEX
  8
0
 10
86.670274
 20
184.250000
 42
0.128828
  0
VERTEX
  8
0
 10
86.516684
 20
183.719820
 42
0.009275
  0
VERTEX
  8
0
 10
86.505611
 20
182.178125
 42
0.012526
  0
VERTEX
  8
0
 10
86.573470
 20
180.315635
 42
0.009124
  0
VERTEX
  8
0
 10
86.738486
 20
178.250000
 42
0.013087
  0
VERTEX
  8
0
 10
87.083962
 20
175.481327
 42
0.069283
  0
VERTEX
  8
0
 10
87.517991
 20
174.019711
 42
0.146594
  0
VERTEX
  8
0
 10
88.166987
 20
173.276934
 42
0.141320
  0
VERTEX
  8
0
 10
89.127229
 20
173.000000
 42
0.092699
  0
VERTEX
  8
0
 10
90.009247
 20
173.164941
 42
0.157201
  0
VERTEX
  8
0
 10
90.587150
 20
173.633790
 42
0.110871
  0
VERTEX
  8
0
 10
90.905870
 20
174.489568
 42
0.033932
  0
VERTEX
  8
0
 10
91.000000
 20
175.875000
 42
-0.016795
  0
VERTEX
  8
0
 10
91.044549
 20
177.200840
 42
-0.009154
  0
VERTEX
  8
0
 10
91.183594
 20
178.823438
 42
-0.009113
  0
VERTEX
  8
0
 10
91.385443
 20
180.469487
 42
-0.014289
  0
VERTEX
  8
0
 10
91.625000
 20
181.875000
 42
0.019170
  0
VERTEX
  8
0
 10
91.920491
 20
183.717030
 42
0.170763
  0
VERTEX
  8
0
 10
91.746007
 20
184.506429
 42
0.222723
  0
VERTEX
  8
0
 10
91.142648
 20
184.898894
 42
0.034616
  0
VERTEX
  8
0
 10
89.684017
 20
185.000000
 42
0.027095
  0
VERTEX
  8
0
 10
88.668825
 20
184.944947
 42
0.033901
  0
VERTEX
  8
0
 10
87.740262
 20
184.779687
 42
0.036105
  0
VERTEX
  8
0
 10
87.007383
 20
184.540000
 42
0.162486
  0
SEQEND
  0
POLYLINE
  8
0
 66
1
 70
1
  0
VERTEX
  8
0
 10
46.475761
 20
174.579805
 42
0.084070
  0
VERTEX
  8
0
 10
44.424623
 20
173.259630
 42
0.060341
  0
VERTEX
  8
0
 10
42.643247
 20
171.189769
 42
0.060612
  0
VERTEX
  8
0
 10
41.415354
 20
168.766618
 42
0.087206
  0
VERTEX
  8
0
 10
41.000000
 20
166.403287
 42
0.063079
  0
VERTEX
  8
0
 10
41.097289
 20
165.635186
 42
0.018784
  0
VERTEX
  8
0
 10
41.435516
 20
164.499876
 42
0.018518
  0
VERTEX
  8
0
 10
41.915107
 20
163.241556
 42
0.019022
  0
VERTEX
  8
0
 10
42.482608
 20
162.033632
 42
0.157982
  0
VERTEX
  8
0
 10
45.996482
 20
158.556298
 42
0.136136
  0
VERTEX
  8
0
 10
51.111434
 20
157.539724
 42
0.136756
  0
VERTEX
  8
0
 10
56.001803
 20
159.304061
 42
0.159829
  0
VERTEX
  8
0
 10
58.920523
 20
163.259183
 42
0.139240
  0
VERTEX
  8
0
 10
59.145001
 20
168.591518
 42
0.150633
  0
VERTEX
  8
0
 10
56.505567
 20
173.058877
 42
0.149901
  0
VERTEX
  8
0
 10
51.797057
 20
175.278689
 42
0.137634
  0
SEQEND
  0
POLYLINE
  8
0
 66
1
 70
1
  0
VERTEX
  8
0
 10
54.067697
 20
168.873507
 42
-0.119233
  0
VERTEX
  8
0
 10
54.656399
 20
166.606321
 42
-0.117984
  0
VERTEX
  8
0
 10
54.147522
 20
164.311046
 42
-0.127810
  0
VERTEX
  8
0
 10
52.705087
 20
162.623685
 42
-0.153502
  0
VERTEX
  8
0
 10
50.721439
 20
162.000000
 42
-0.080396
  0
VERTEX
  8
0
 10
48.785013
 20
162.313389
 42
-0.110571
  0
VERTEX
  8
0
 10
47.278655
 20
163.218685
 42
-0.113893
  0
VERTEX
  8
0
 10
46.331510
 20
164.656176
 42
-0.089183
  0
VERTEX
  8
0
 10
46.000000
 20
166.500000
 42
-0.161443
  0
VERTEX
  8
0
 10
46.901888
 20
169.220416
 42
-0.162515
  0
VERTEX
  8
0
 10
49.248070
 20
170.854410
 42
-0.169899
  0
VERTEX
  8
0
 10
52.024134
 20
170.714216
 42
-0.174839
  0
SEQEND
  0
POLYLINE
  8
0
 66
1
 70
1
  0
VERTEX
  8
0
 10
123.354429
 20
175.295620
 42
0.176658
  0
VERTEX
  8
0
 10
119.798470
 20
173.176950
 42
0.114373
  0
VERTEX
  8
0
 10
117.666780
 20
168.830798
 42
0.108357
  0
VERTEX
  8
0
 10
117.604406
 20
163.789714
 42
0.146510
  0
VERTEX
  8
0
 10
119.755051
 20
159.800505
 42
0.111958
  0
VERTEX
  8
0
 10
122.500552
 20
158.069981
 42
0.085663
  0
VERTEX
  8
0
 10
126.009790
 20
157.472961
 42
0.085720
  0
VERTEX
  8
0
 10
129.513945
 20
158.086801
 42
0.112356
  0
VERTEX
  8
0
 10
132.244949
 20
159.830399
 42
0.011778
  0
VERTEX
  8
0
 10
133.657318
 20
161.330579
 42
0.163349
  0
VERTEX
  8
0
 10
133.948563
 20
162.004613
 42
0.232071
  0
VERTEX
  8
0
 10
133.715777
 20
162.601168
 42
0.025920
  0
VERTEX
  8
0
 10
132.558870
 20
163.557672
 42
-0.008072
  0
VERTEX
  8
0
 10
131.449233
 20
164.410316
 42
-0.183999
  0
VERTEX
  8
0
 10
131.247770
 20
164.749823
 42
-0.436326
  0
VERTEX
  8
0
 10
131.405101
 20
164.956257
 42
-0.024186
  0
VERTEX
  8
0
 10
132.308870
 20
165.000000
 42
0.271963
  0
VERTEX
  8
0
 10
133.574017
 20
165.743109
 42
0.147145
  0
VERTEX
  8
0
 10
133.974677
 20
167.565245
 42
0.093174
  0
VERTEX
  8
0
 10
133.310712
 20
170.045520
 42
0.072740
  0
VERTEX
  8
0
 10
131.750000
 20
172.363423
 42
0.050993
  0
VERTEX
  8
0
 10
129.878165
 20
174.042181
 42
0.073422
  0
VERTEX
  8
0
 10
127.910042
 20
175.073303
 42
0.075055
  0
VERTEX
  8
0
 10
125.761450
 20
175.478022
 42
0.056053
  0
SEQEND
  0
POLYLINE
  8
0
 66
1
 70
1
  0
VERTEX
  8
0
 10
128.000000
 20
170.000000
 42
-0.230178
  0
VERTEX
  8
0
 10
127.813779
 20
169.616918
 42
-0.073461
  0
VERTEX
  8
0
 10
127.248289
 20
169.293750
 42
-0.055981
  0
VERTEX
  8
0
 10
126.420991
 20
169.073066
 42
-0.037227
  0
VERTEX
  8
0
 10
125.440983
 20
169.000000
 42
-0.035659
  0
VERTEX
  8
0
 10
124.479336
 20
169.068671
 42
-0.083483
  0
VERTEX
  8
0
 10
123.794783
 20
169.287316
 42
-0.165100
  0
VERTEX
  8
0
 10
123.478234
 20
169.615199
 42
-0.253782
  0
VERTEX
  8
0
 10
123.500000
 20
170.000000
 42
-0.111412
  0
VERTEX
  8
0
 10
123.876024
 20
170.383556
 42
-0.050262
  0
VERTEX
  8
0
 10
124.506650
 20
170.706250
 42
-0.046318
  0
VERTEX
  8
0
 10
125.270704
 20
170.925923
 42
-0.046881
  0
VERTEX
  8
0
 10
126.059017
 20
171.000000
 42
-0.049547
  0
VERTEX
  8
0
 10
126.801778
 20
170.926216
 42
-0.069539
  0
VERTEX
  8
0
 10
127.429836
 20
170.706250
 42
-0.089706
  0
VERTEX
  8
0
 10
127.852535
 20
170.381787
 42
-0.186414
  0
SEQEND
  0
POLYLINE
  8
0
 66
1
 70
1
  0
VERTEX
  8
0
 10
129.000000
 20
163.500000
 42
-0.059806
  0
VERTEX
  8
0
 10
128.394287
 20
162.925909
 42
-0.043899
  0
VERTEX
  8
0
 10
127.605233
 20
162.440625
 42
-0.044601
  0
VERTEX
  8
0
 10
126.763110
 20
162.109626
 42
-0.071461
  0
VERTEX
  8
0
 10
126.000000
 20
162.000000
 42
-0.071461
  0
VERTEX
  8
0
 10
125.236890
 20
162.109626
 42
-0.044601
  0
VERTEX
  8
0
 10
124.394767
 20
162.440625
 42
-0.043899
  0
VERTEX
  8
0
 10
123.605713
 20
162.925909
 42
-0.059806
  0
VERTEX
  8
0
 10
123.000000
 20
163.500000
 42
-0.084627
  0
VERTEX
  8
0
 10
122.547024
 20
164.284082
 42
-0.382744
  0
VERTEX
  8
0
 10
122.725061
 20
164.734975
 42
-0.107644
  0
VERTEX
  8
0
 10
123.602955
 20
164.958377
 42
-0.008681
  0
VERTEX
  8
0
 10
126.000000
 20
165.000000
 42
-0.008681
  0
VERTEX
  8
0
 10
128.397045
 20
164.958377
 42
-0.107644
  0
VERTEX
  8
0
 10
129.274939
 20
164.734975
 42
-0.382744
  0
VERTEX
  8
0
 10
129.452976
 20
164.284082
 42
-0.084627
  0
SEQEND
  0
POLYLINE
  8
0
 66
1
 70
1
  0
VERTEX
  8
0
 10
173.272276
 20
175.150320
 42
0.094650
  0
VERTEX
  8
0
 10
169.522683
 20
173.232582
 42
0.118389
  0
VERTEX
  8
0
 10
167.091703
 20
170.186799
 42
0.120695
  0
VERTEX
  8
0
 10
166.336560
 20
166.417072
 42
0.100952
  0
VERTEX
  8
0
 10
167.323899
 20
162.446966
 42
0.142399
  0
VERTEX
  8
0
 10
170.509278
 20
158.872231
 42
0.123996
  0
VERTEX
  8
0
 10
175.293099
 20
157.322398
 42
0.165479
  0
VERTEX
  8
0
 10
179.325576
 20
158.401233
 42
0.250394
  0
VERTEX
  8
0
 10
181.000000
 20
161.535184
 42
0.047075
  0
VERTEX
  8
0
 10
180.847135
 20
163.155206
 42
0.230923
  0
VERTEX
  8
0
 10
180.312148
 20
163.870679
 42
0.263114
  0
VERTEX
  8
0
 10
179.479836
 20
163.837609
 42
0.057844
  0
VERTEX
  8
0
 10
178.315335
 20
162.915335
 42
-0.159073
  0
VERTEX
  8
0
 10
176.890434
 20
162.191721
 42
-0.085448
  0
VERTEX
  8
0
 10
174.898609
 20
162.223769
 42
-0.082034
  0
VERTEX
  8
0
 10
172.951510
 20
162.935112
 42
-0.124898
  0
VERTEX
  8
0
 10
171.656229
 20
164.172341
 42
-0.154595
  0
VERTEX
  8
0
 10
171.118410
 20
166.252157
 42
-0.112987
  0
VERTEX
  8
0
 10
171.779109
 20
168.560804
 42
-0.113142
  0
VERTEX
  8
0
 10
173.377189
 20
170.349840
 42
-0.155329
  0
VERTEX
  8
0
 10
175.419544
 20
171.000000
 42
-0.037317
  0
VERTEX
  8
0
 10
176.407428
 20
170.926168
 42
-0.041198
  0
VERTEX
  8
0
 10
177.340177
 20
170.706250
 42
-0.045219
  0
VERTEX
  8
0
 10
178.092094
 20
170.384552
 42
-0.131392
  0
VERTEX
  8
0
 10
178.500000
 20
170.000000
 42
0.109296
  0
VERTEX
  8
0
 10
179.347355
 20
169.128412
 42
0.290110
  0
VERTEX
  8
0
 10
180.178536
 20
169.114239
 42
0.195302
  0
VERTEX
  8
0
 10
180.801521
 20
169.955563
 42
0.062992
  0
VERTEX
  8
0
 10
181.000000
 20
171.524751
 42
0.062389
  0
VERTEX
  8
0
 10
180.848372
 20
172.735206
 42
0.096101
  0
VERTEX
  8
0
 10
180.399436
 20
173.686718
 42
0.091668
  0
VERTEX
  8
0
 10
179.608948
 20
174.431318
 42
0.052390
  0
VERTEX
  8
0
 10
178.434900
 20
175.024751
 42
0.005410
  0
VERTEX
  8
0
 10
177.438404
 20
175.391328
 42
0.008361
  0
VERTEX
  8
0
 10
176.568984
 20
175.684240
 42
0.003606
  0
VERTEX
  8
0
 10
175.826945
 20
175.914616
 42
0.199655
  0
VERTEX
  8
0
 10
175.684900
 20
175.900320
 42
-0.047068
  0
VERTEX
  8
0
 10
175.545453
 20
175.841302
 42
-0.001227
  0
VERTEX
  8
0
 10
174.899921
 20
175.638889
 42
-0.002581
  0
VERTEX
  8
0
 10
174.139291
 20
175.406736
 42
-0.001760
  0
SEQEND
  0
POLYLINE
  8
0
 66
1
 70
1
  0
VERTEX
  8
0
 10
190.750000
 20
175.271532
 42
0.000000
  0
VERTEX
  8
0
 10
187.000000
 20
174.879269
 42
0.000000
  0
VERTEX
  8
0
 10
187.000000
 20
166.439635
 42
0.004167
  0
VERTEX
  8
0
 10
187.045784
 20
160.945676
 42
0.066627
  0
VERTEX
  8
0
 10
187.322642
 20
159.110386
 42
0.222711
  0
VERTEX
  8
0
 10
188.039437
 20
158.294850
 42
0.103234
  0
VERTEX
  8
0
 10
189.452283
 20
158.000000
 42
0.083297
  0
VERTEX
  8
0
 10
190.846007
 20
158.233808
 42
0.208930
  0
VERTEX
  8
0
 10
191.588271
 20
158.917513
 42
0.084395
  0
VERTEX
  8
0
 10
191.960726
 20
160.400161
 42
0.007532
  0
VERTEX
  8
0
 10
192.202283
 20
164.250000
 42
-0.007413
  0
VERTEX
  8
0
 10
192.437327
 20
168.010384
 42
-0.078772
  0
VERTEX
  8
0
 10
192.792668
 20
169.498022
 42
-0.217233
  0
VERTEX
  8
0
 10
193.478666
 20
170.138749
 42
-0.107159
  0
VERTEX
  8
0
 10
194.689743
 20
170.272466
 42
0.171887
  0
VERTEX
  8
0
 10
196.369103
 20
170.677939
 42
0.144035
  0
VERTEX
  8
0
 10
197.566213
 20
172.078219
 42
0.157347
  0
VERTEX
  8
0
 10
197.755742
 20
173.808538
 42
0.203486
  0
VERTEX
  8
0
 10
196.857012
 20
175.109533
 42
0.022735
  0
VERTEX
  8
0
 10
196.300810
 20
175.427489
 42
0.027521
  0
VERTEX
  8
0
 10
195.751747
 20
175.671914
 42
0.027934
  0
VERTEX
  8
0
 10
195.277495
 20
175.822756
 42
0.138032
  0
VERTEX
  8
0
 10
195.000000
 20
175.816584
 42
-0.040104
  0
VERTEX
  8
0
 10
194.654178
 20
175.740557
 42
-0.002172
  0
VERTEX
  8
0
 10
193.545312
 20
175.593449
 42
-0.003376
  0
VERTEX
  8
0
 10
192.222888
 20
175.432919
 42
-0.002456
  0
SEQEND
  0
POLYLINE
  8
0
 66
1
 70
1
  0
VERTEX
  8
0
 10
206.475761
 20
174.579805
 42
0.084070
  0
VERTEX
  8
0
 10
204.424623
 20
173.259630
 42
0.060341
  0
VERTEX
  8
0
 10
202.643247
 20
171.189769
 42
0.060612
  0
VERTEX
  8
0
 10
201.415354
 20
168.766618
 42
0.087206
  0
VERTEX
  8
0
 10
201.000000
 20
166.403287
 42
0.063079
  0
VERTEX
  8
0
 10
201.097289
 20
165.635186
 42
0.018784
  0
VERTEX
  8
0
 10
201.435516
 20
164.499876
 42
0.018518
  0
VERTEX
  8
0
 10
201.915107
 20
163.241556
 42
0.019022
  0
VERTEX
  8
0
 10
202.482608
 20
162.033632
 42
0.157982
  0
VERTEX
  8
0
 10
205.996482
 20
158.556298
 42
0.136136
  0
VERTEX
  8
0
 10
211.111434
 20
157.539724
 42
0.136756
  0
VERTEX
  8
0
 10
216.001803
 20
159.304061
 42
0.159829
  0
VERTEX
  8
0
 10
218.920523
 20
163.259183
 42
0.139240
  0
VERTEX
  8
0
 10
219.145001
 20
168.591518
 42
0.150633
  0
VERTEX
  8
0
 10
216.505567
 20
173.058877
 42
0.149901
  0
VERTEX
  8
0
 10
211.797057
 20
175.278689
 42
0.137634
  0
SEQEND
  0
POLYLINE
  8
0
 66
1
 70
1
  0
VERTEX
  8
0
 10
214.067697
 20
168.873507
 42
-0.119233
  0
VERTEX
  8
0
 10
214.656399
 20
166.606321
 42
-0.117984
  0
VERTEX
  8
0
 10
214.147522
 20
164.311046
 42
-0.127810
  0
VERTEX
  8
0
 10
212.705087
 20
162.623685
 42
-0.153502
  0
VERTEX
  8
0
 10
210.721439
 20
162.000000
 42
-0.080396
  0
VERTEX
  8
0
 10
208.785013
 20
162.313389
 42
-0.110571
  0
VERTEX
  8
0
 10
207.278655
 20
163.218685
 42
-0.113893
  0
VERTEX
  8
0
 10
206.331510
 20
164.656176
 42
-0.089183
  0
VERTEX
  8
0
 10
206.000000
 20
166.500000
 42
-0.161443
  0
VERTEX
  8
0
 10
206.901888
 20
169.220416
 42
-0.162515
  0
VERTEX
  8
0
 10
209.248070
 20
170.854410
 42
-0.169899
  0
VERTEX
  8
0
 10
212.024134
 20
170.714216
 42
-0.174839
  0
SEQEND
  0
POLYLINE
  8
0
 66
1
 70
1
  0
VERTEX
  8
0
 10
228.222506
 20
174.443296
 42
0.122135
  0
VERTEX
  8
0
 10
226.418261
 20
172.372486
 42
0.141016
  0
VERTEX
  8
0
 10
225.916384
 20
169.810793
 42
0.138007
  0
VERTEX
  8
0
 10
226.851907
 20
167.332877
 42
0.115070
  0
VERTEX
  8
0
 10
229.000000
 20
165.500000
 42
-0.023862
  0
VERTEX
  8
0
 10
230.148769
 20
164.834663
 42
-0.031783
  0
VERTEX
  8
0
 10
231.118750
 20
164.118145
 42
-0.032999
  0
VERTEX
  8
0
 10
231.816975
 20
163.446843
 42
-0.186902
  0
VERTEX
  8
0
 10
232.000000
 20
162.974320
 42
-0.174582
  0
VERTEX
  8
0
 10
231.759575
 20
162.306734
 42
-0.226439
  0
VERTEX
  8
0
 10
231.177008
 20
162.036684
 42
-0.133658
  0
VERTEX
  8
0
 10
230.320739
 20
162.280168
 42
-0.060728
  0
VERTEX
  8
0
 10
229.396253
 20
163.003747
 42
0.124098
  0
VERTEX
  8
0
 10
228.831372
 20
163.341174
 42
0.115420
  0
VERTEX
  8
0
 10
228.157760
 20
163.382794
 42
0.084090
  0
VERTEX
  8
0
 10
227.364563
 20
163.105865
 42
0.038609
  0
VERTEX
  8
0
 10
226.446253
 20
162.503080
 42
0.023203
  0
VERTEX
  8
0
 10
225.278096
 20
161.510247
 42
0.238820
  0
VERTEX
  8
0
 10
225.066862
 20
160.933529
 42
0.177234
  0
VERTEX
  8
0
 10
225.378422
 20
160.318032
 42
0.012174
  0
VERTEX
  8
0
 10
226.860784
 20
158.999334
 42
0.035576
  0
VERTEX
  8
0
 10
227.906818
 20
158.234144
 42
0.031213
  0
VERTEX
  8
0
 10
229.096397
 20
157.587304
 42
0.032513
  0
VERTEX
  8
0
 10
230.247701
 20
157.139926
 42
0.076555
  0
VERTEX
  8
0
 10
231.156239
 20
157.000000
 42
0.142443
  0
VERTEX
  8
0
 10
232.954022
 20
157.522770
 42
0.038478
  0
VERTEX
  8
0
 10
235.353599
 20
159.320128
 42
0.037476
  0
VERTEX
  8
0
 10
237.426672
 20
161.432195
 42
0.177109
  0
VERTEX
  8
0
 10
238.000000
 20
163.000000
 42
0.171870
  0
VERTEX
  8
0
 10
237.595644
 20
164.141597
 42
0.022823
  0
VERTEX
  8
0
 10
235.868448
 20
166.085389
 42
0.026470
  0
VERTEX
  8
0
 10
233.695829
 20
168.092280
 42
0.031516
  0
VERTEX
  8
0
 10
231.441217
 20
169.735553
 42
-0.005279
  0
VERTEX
  8
0
 10
230.262780
 20
170.503209
 42
-0.506585
  0
VERTEX
  8
0
 10
230.254967
 20
170.676470
 42
-0.223406
  0
VERTEX
  8
0
 10
230.519353
 20
170.740739
 42
-0.002869
  0
VERTEX
  8
0
 10
232.240682
 20
170.379484
 42
0.113299
  0
VERTEX
  8
0
 10
234.394205
 20
170.407547
 42
0.215823
  0
VERTEX
  8
0
 10
235.731250
 20
171.453380
 42
0.233986
  0
VERTEX
  8
0
 10
235.767104
 20
173.069745
 42
0.126138
  0
VERTEX
  8
0
 10
234.471350
 20
174.644608
 42
0.046351
  0
VERTEX
  8
0
 10
232.821236
 20
175.630902
 42
0.120149
  0
VERTEX
  8
0
 10
231.474382
 20
175.913678
 42
0.109893
  0
VERTEX
  8
0
 10
230.074018
 20
175.554447
 42
0.035263
  0
SEQEND
  0
POLYLINE
  8
0
 66
1
 70
1
  0
VERTEX
  8
0
 10
245.222506
 20
174.443296
 42
0.122135
  0
VERTEX
  8
0
 10
243.418261
 20
172.372486
 42
0.141016
  0
VERTEX
  8
0
 10
242.916384
 20
169.810793
 42
0.138007
  0
VERTEX
  8
0
 10
243.851907
 20
167.332877
 42
0.115070
  0
VERTEX
  8
0
 10
246.000000
 20
165.500000
 42
-0.023862
  0
VERTEX
  8
0
 10
247.148769
 20
164.834663
 42
-0.031783
  0
VERTEX
  8
0
 10
248.118750
 20
164.118145
 42
-0.032999
  0
VERTEX
  8
0
 10
248.816975
 20
163.446843
 42
-0.186902
  0
VERTEX
  8
0
 10
249.000000
 20
162.974320
 42
-0.174582
  0
VERTEX
  8
0
 10
248.759575
 20
162.306734
 42
-0.226439
  0
VERTEX
  8
0
 10
248.177008
 20
162.036684
 42
-0.133658
  0
VERTEX
  8
0
 10
247.320739
 20
162.280168
 42
-0.060728
  0
VERTEX
  8
0
 10
246.396253
 20
163.003747
 42
0.124098
  0
VERTEX
  8
0
 10
245.831372
 20
163.341174
 42
0.115420
  0
VERTEX
  8
0
 10
245.157760
 20
163.382794
 42
0.084090
  0
VERTEX
  8
0
 10
244.364563
 20
163.105865
 42
0.038609
  0
VERTEX
  8
0
 10
243.446253
 20
162.503080
 42
0.023203
  0
VERTEX
  8
0
 10
242.278096
 20
161.510247
 42
0.238820
  0
VERTEX
  8
0
 10
242.066862
 20
160.933529
 42
0.177234
  0
VERTEX
  8
0
 10
242.378422
 20
160.318032
 42
0.012174
  0
VERTEX
  8
0
 10
243.860784
 20
158.999334
 42
0.035576
  0
VERTEX
  8
0
 10
244.906818
 20
158.234144
 42
0.031213
  0
VERTEX
  8
0
 10
246.096397
 20
157.587304
 42
0.032513
  0
VERTEX
  8
0
 10
247.247701
 20
157.139926
 42
0.076555
  0
VERTEX
  8
0
 10
248.156239
 20
157.000000
 42
0.142443
  0
VERTEX
  8
0
 10
249.954022
 20
157.522770
 42
0.038478
  0
VERTEX
  8
0
 10
252.353599
 20
159.320128
 42
0.037476
  0
VERTEX
  8
0
 10
254.426672
 20
161.432195
 42
0.177109
  0
VERTEX
  8
0
 10
255.000000
 20
163.000000
 42
0.171870
  0
VERTEX
  8
0
 10
254.595644
 20
164.141597
 42
0.022823
  0
VERTEX
  8
0
 10
252.868448
 20
166.085389
 42
0.026470
  0
VERTEX
  8
0
 10
250.695829
 20
168.092280
 42
0.031516
  0
VERTEX
  8
0
 10
248.441217
 20
169.735553
 42
-0.005279
  0
VERTEX
  8
0
 10
247.262780
 20
170.503209
 42
-0.506585
  0
VERTEX
  8
0
 10
247.254967
 20
170.676470
 42
-0.223406
  0
VERTEX
  8
0
 10
247.519353
 20
170.740739
 42
-0.002869
  0
VERTEX
  8
0
 10
249.240682
 20
170.379484
 42
0.113299
  0
VERTEX
  8
0
 10
251.394205
 20
170.407547
 42
0.215823
  0
VERTEX
  8
0
 10
252.731250
 20
171.453380
 42
0.233986
  0
VERTEX
  8
0
 10
252.767104
 20
173.069745
 42
0.126138
  0
VERTEX
  8
0
 10
251.471350
 20
174.644608
 42
0.046351
  0
VERTEX
  8
0
 10
249.821236
 20
175.630902
 42
0.120149
  0
VERTEX
  8
0
 10
248.474382
 20
175.913678
 42
0.109893
  0
VERTEX
  8
0
 10
247.074018
 20
175.554447
 42
0.035263
  0
SEQEND
  0
POLYLINE
  8
0
 66
1
 70
1
  0
VERTEX
  8
0
 10
265.354429
 20
175.295620
 42
0.176658
  0
VERTEX
  8
0
 10
261.798470
 20
173.176950
 42
0.114373
  0
VERTEX
  8
0
 10
259.666780
 20
168.830798
 42
0.108357
  0
VERTEX
  8
0
 10
259.604406
 20
163.789714
 42
0.146510
  0
VERTEX
  8
0
 10
261.755051
 20
159.800505
 42
0.111958
  0
VERTEX
  8
0
 10
264.500552
 20
158.069981
 42
0.085663
  0
VERTEX
  8
0
 10
268.009790
 20
157.472961
 42
0.085720
  0
VERTEX
  8
0
 10
271.513945
 20
158.086801
 42
0.112356
  0
VERTEX
  8
0
 10
274.244949
 20
159.830399
 42
0.011778
  0
VERTEX
  8
0
 10
275.657318
 20
161.330579
 42
0.163349
  0
VERTEX
  8
0
 10
275.948563
 20
162.004613
 42
0.232071
  0
VERTEX
  8
0
 10
275.715777
 20
162.601168
 42
0.025920
  0
VERTEX
  8
0
 10
274.558870
 20
163.557672
 42
-0.008072
  0
VERTEX
  8
0
 10
273.449233
 20
164.410316
 42
-0.183999
  0
VERTEX
  8
0
 10
273.247770
 20
164.749823
 42
-0.436326
  0
VERTEX
  8
0
 10
273.405101
 20
164.956257
 42
-0.024186
  0
VERTEX
  8
0
 10
274.308870
 20
165.000000
 42
0.271963
  0
VERTEX
  8
0
 10
275.574017
 20
165.743109
 42
0.147145
  0
VERTEX
  8
0
 10
275.974677
 20
167.565245
 42
0.093174
  0
VERTEX
  8
0
 10
275.310712
 20
170.045520
 42
0.072740
  0
VERTEX
  8
0
 10
273.750000
 20
172.363423
 42
0.050993
  0
VERTEX
  8
0
 10
271.878165
 20
174.042181
 42
0.073422
  0
VERTEX
  8
0
 10
269.910042
 20
175.073303
 42
0.075055
  0
VERTEX
  8
0
 10
267.761450
 20
175.478022
 42
0.056053
  0
SEQEND
  0
POLYLINE
  8
0
 66
1
 70
1
  0
VERTEX
  8
0
 10
270.000000
 20
170.000000
 42
-0.230178
  0
VERTEX
  8
0
 10
269.813779
 20
169.616918
 42
-0.073461
  0
VERTEX
  8
0
 10
269.248289
 20
169.293750
 42
-0.055981
  0
VERTEX
  8
0
 10
268.420991
 20
169.073066
 42
-0.037227
  0
VERTEX
  8
0
 10
267.440983
 20
169.000000
 42
-0.035659
  0
VERTEX
  8
0
 10
266.479336
 20
169.068671
 42
-0.083483
  0
VERTEX
  8
0
 10
265.794783
 20
169.287316
 42
-0.165100
  0
VERTEX
  8
0
 10
265.478234
 20
169.615199
 42
-0.253782
  0
VERTEX
  8
0
 10
265.500000
 20
170.000000
 42
-0.111412
  0
VERTEX
  8
0
 10
265.876024
 20
170.383556
 42
-0.050262
  0
VERTEX
  8
0
 10
266.506650
 20
170.706250
 42
-0.046318
  0
VERTEX
  8
0
 10
267.270704
 20
170.925923
 42
-0.046881
  0
VERTEX
  8
0
 10
268.059017
 20
171.000000
 42
-0.049547
  0
VERTEX
  8
0
 10
268.801778
 20
170.926216
 42
-0.069539
  0
VERTEX
  8
0
 10
269.429836
 20
170.706250
 42
-0.089706
  0
VERTEX
  8
0
 10
269.852535
 20
170.381787
 42
-0.186414
  0
SEQEND
  0
POLYLINE
  8
0
 66
1
 70
1
  0
VERTEX
  8
0
 10
271.000000
 20
163.500000
 42
-0.059806
  0
VERTEX
  8
0
 10
270.394287
 20
162.925909
 42
-0.043899
  0
VERTEX
  8
0
 10
269.605233
 20
162.440625
 42
-0.044601
  0
VERTEX
  8
0
 10
268.763110
 20
162.109626
 42
-0.071461
  0
VERTEX
  8
0
 10
268.000000
 20
162.000000
 42
-0.071461
  0
VERTEX
  8
0
 10
267.236890
 20
162.109626
 42
-0.044601
  0
VERTEX
  8
0
 10
266.394767
 20
162.440625
 42
-0.043899
  0
VERTEX
  8
0
 10
265.605713
 20
162.925909
 42
-0.059806
  0
VERTEX
  8
0
 10
265.000000
 20
163.500000
 42
-0.084627
  0
VERTEX
  8
0
 10
264.547024
 20
164.284082
 42
-0.382744
  0
VERTEX
  8
0
 10
264.725061
 20
164.734975
 42
-0.107644
  0
VERTEX
  8
0
 10
265.602955
 20
164.958377
 42
-0.008681
  0
VERTEX
  8
0
 10
268.000000
 20
165.000000
 42
-0.008681
  0
VERTEX
  8
0
 10
270.397045
 20
164.958377
 42
-0.107644
  0
VERTEX
  8
0
 10
271.274939
 20
164.734975
 42
-0.382744
  0
VERTEX
  8
0
 10
271.452976
 20
164.284082
 42
-0.084627
  0
SEQEND
  0
POLYLINE
  8
0
 66
1
 70
1
  0
VERTEX
  8
0
 10
19.000000
 20
174.346100
 42
0.114607
  0
VERTEX
  8
0
 10
19.104015
 20
173.898271
 42
0.003011
  0
VERTEX
  8
0
 10
20.022257
 20
172.056317
 42
0.006184
  0
VERTEX
  8
0
 10
21.146515
 20
169.901284
 42
0.004172
  0
VERTEX
  8
0
 10
22.480023
 20
167.469338
 42
0.000000
  0
VERTEX
  8
0
 10
25.960046
 20
161.246475
 42
0.000000
  0
VERTEX
  8
0
 10
22.998138
 20
155.873238
 42
0.005615
  0
VERTEX
  8
0
 10
20.657454
 20
151.511836
 42
0.099849
  0
VERTEX
  8
0
 10
20.215209
 20
149.987056
 42
0.355858
  0
VERTEX
  8
0
 10
20.723146
 20
149.245424
 42
0.071751
  0
VERTEX
  8
0
 10
22.424582
 20
149.000000
 42
0.168971
  0
VERTEX
  8
0
 10
23.996095
 20
149.546687
 42
0.068407
  0
VERTEX
  8
0
 10
25.587931
 20
151.206032
 42
0.030503
  0
VERTEX
  8
0
 10
27.685786
 20
154.500344
 42
0.004578
  0
VERTEX
  8
0
 10
31.424582
 20
161.394824
 42
0.001890
  0
VERTEX
  8
0
 10
33.945054
 20
166.189660
 42
0.002977
  0
VERTEX
  8
0
 10
36.068471
 20
170.326438
 42
0.000756
  0
VERTEX
  8
0
 10
37.894806
 20
173.950808
 42
0.116841
  0
VERTEX
  8
0
 10
38.000000
 20
174.394824
 42
0.298973
  0
VERTEX
  8
0
 10
37.846053
 20
174.629270
 42
0.042366
  0
VERTEX
  8
0
 10
37.271595
 20
174.822229
 42
0.036835
  0
VERTEX
  8
0
 10
36.470649
 20
174.956206
 42
0.023029
  0
VERTEX
  8
0
 10
35.520324
 20
175.000000
 42
0.086848
  0
VERTEX
  8
0
 10
34.207394
 20
174.770217
 42
0.098056
  0
VERTEX
  8
0
 10
33.112136
 20
174.110696
 42
0.068113
  0
VERTEX
  8
0
 10
32.074959
 20
172.872516
 42
0.022386
  0
VERTEX
  8
0
 10
30.898512
 20
170.801068
 42
0.000000
  0
VERTEX
  8
0
 10
28.756377
 20
166.602136
 42
0.000000
  0
VERTEX
  8
0
 10
26.276647
 20
170.801068
 42
0.022932
  0
VERTEX
  8
0
 10
24.975984
 20
172.789307
 42
0.058800
  0
VERTEX
  8
0
 10
23.815230
 20
174.053859
 42
0.082426
  0
VERTEX
  8
0
 10
22.659780
 20
174.756282
 42
0.095727
  0
VERTEX
  8
0
 10
21.398458
 20
175.000000
 42
0.025768
  0
VERTEX
  8
0
 10
20.479374
 20
174.952603
 42
0.040802
  0
VERTEX
  8
0
 10
19.704547
 20
174.807917
 42
0.049258
  0
VERTEX
  8
0
 10
19.156173
 20
174.598621
 42
0.284244
  0
SEQEND
  0
POLYLINE
  8
0
 66
1
 70
1
  0
VERTEX
  8
0
 10
66.000000
 20
168.072580
 42
0.009933
  0
VERTEX
  8
0
 10
66.081150
 20
163.987980
 42
0.061345
  0
VERTEX
  8
0
 10
66.419884
 20
161.918815
 42
0.102338
  0
VERTEX
  8
0
 10
67.179694
 20
160.490085
 42
0.052936
  0
VERTEX
  8
0
 10
68.634859
 20
159.072580
 42
0.069391
  0
VERTEX
  8
0
 10
71.230461
 20
157.558887
 42
0.107390
  0
VERTEX
  8
0
 10
73.775993
 20
157.107665
 42
0.110539
  0
VERTEX
  8
0
 10
76.226546
 20
157.756170
 42
0.076778
  0
VERTEX
  8
0
 10
78.545455
 20
159.454545
 42
0.050512
  0
VERTEX
  8
0
 10
79.839486
 20
161.040246
 42
0.079484
  0
VERTEX
  8
0
 10
80.562500
 20
162.638258
 42
0.053942
  0
VERTEX
  8
0
 10
80.907236
 20
164.795394
 42
0.012674
  0
VERTEX
  8
0
 10
81.000000
 20
168.454545
 42
0.006365
  0
VERTEX
  8
0
 10
80.947421
 20
172.585030
 42
0.083445
  0
VERTEX
  8
0
 10
80.656336
 20
174.082718
 42
0.224499
  0
VERTEX
  8
0
 10
79.951603
 20
174.766970
 42
0.082431
  0
VERTEX
  8
0
 10
78.547717
 20
175.000000
 42
0.083297
  0
VERTEX
  8
0
 10
77.153993
 20
174.766192
 42
0.208930
  0
VERTEX
  8
0
 10
76.411729
 20
174.082487
 42
0.084395
  0
VERTEX
  8
0
 10
76.039274
 20
172.599839
 42
0.007532
  0
VERTEX
  8
0
 10
75.797717
 20
168.750000
 42
-0.008641
  0
VERTEX
  8
0
 10
75.566221
 20
165.187007
 42
-0.067636
  0
VERTEX
  8
0
 10
75.208987
 20
163.568465
 42
-0.172273
  0
VERTEX
  8
0
 10
74.563698
 20
162.792157
 42
-0.134834
  0
VERTEX
  8
0
 10
73.500000
 20
162.500000
 42
-0.134834
  0
VERTEX
  8
0
 10
72.436302
 20
162.792157
 42
-0.172273
  0
VERTEX
  8
0
 10
71.791013
 20
163.568465
 42
-0.067636
  0
VERTEX
  8
0
 10
71.433779
 20
165.187007
 42
-0.008641
  0
VERTEX
  8
0
 10
71.202283
 20
168.750000
 42
0.007532
  0
VERTEX
  8
0
 10
70.960726
 20
172.599839
 42
0.084395
  0
VERTEX
  8
0
 10
70.588271
 20
174.082487
 42
0.208930
  0
VERTEX
  8
0
 10
69.846007
 20
174.766192
 42
0.083297
  0
VERTEX
  8
0
 10
68.452283
 20
175.000000
 42
0.086567
  0
VERTEX
  8
0
 10
67.045682
 20
174.754631
 42
0.224974
  0
VERTEX
  8
0
 10
66.338499
 20
174.043778
 42
0.079453
  0
VERTEX
  8
0
 10
66.050854
 20
172.477798
 42
0.005772
  0
SEQEND
  0
POLYLINE
  8
0
 66
1
 70
1
  0
VERTEX
  8
0
 10
96.000000
 20
174.518136
 42
0.112982
  0
VERTEX
  8
0
 10
96.408151
 20
172.734925
 42
0.002847
  0
VERTEX
  8
0
 10
100.084708
 20
165.233578
 42
0.001447
  0
VERTEX
  8
0
 10
103.980639
 20
157.454398
 42
0.299598
  0
VERTEX
  8
0
 10
104.685390
 20
157.049548
 42
0.250258
  0
VERTEX
  8
0
 10
105.131799
 20
157.323976
 42
0.004985
  0
VERTEX
  8
0
 10
106.497518
 20
159.713736
 42
0.010610
  0
VERTEX
  8
0
 10
108.037729
 20
162.615285
 42
0.006771
  0
VERTEX
  8
0
 10
109.710417
 20
166.049548
 42
0.000000
  0
VERTEX
  8
0
 10
113.920833
 20
175.000000
 42
0.000000
  0
VERTEX
  8
0
 10
111.068996
 20
175.000000
 42
0.060908
  0
VERTEX
  8
0
 10
109.498745
 20
174.808007
 42
0.126766
  0
VERTEX
  8
0
 10
108.421320
 20
174.225664
 42
0.089011
  0
VERTEX
  8
0
 10
107.529944
 20
173.042192
 42
0.020290
  0
VERTEX
  8
0
 10
106.485874
 20
170.750000
 42
0.000000
  0
VERTEX
  8
0
 10
104.754589
 20
166.500000
 42
0.000000
  0
VERTEX
  8
0
 10
102.918300
 20
170.750000
 42
0.021294
  0
VERTEX
  8
0
 10
101.865982
 20
172.926111
 42
0.076938
  0
VERTEX
  8
0
 10
100.941266
 20
174.151193
 42
0.113574
  0
VERTEX
  8
0
 10
99.899591
 20
174.781945
 42
0.079740
  0
VERTEX
  8
0
 10
98.541006
 20
175.000000
 42
0.017846
  0
VERTEX
  8
0
 10
97.566976
 20
174.965223
 42
0.029016
  0
VERTEX
  8
0
 10
96.746420
 20
174.858452
 42
0.028892
  0
VERTEX
  8
0
 10
96.138328
 20
174.706301
 42
0.328022
  0
SEQEND
  0
POLYLINE
  8
0
 66
1
 70
1
  0
VERTEX
  8
0
 10
287.989831
 20
149.750000
 42
0.041999
  0
VERTEX
  8
0
 10
284.849618
 20
147.202664
 42
0.056603
  0
VERTEX
  8
0
 10
282.515837
 20
144.387793
 42
0.054399
  0
VERTEX
  8
0
 10
280.809252
 20
141.031897
 42
0.035081
  0
VERTEX
  8
0
 10
279.553860
 20
136.849844
 42
-0.017079
  0
VERTEX
  8
0
 10
278.880003
 20
134.271643
 42
-0.053175
  0
VERTEX
  8
0
 10
278.188335
 20
132.617521
 42
-0.085991
  0
VERTEX
  8
0
 10
277.394891
 20
131.623926
 42
-0.137598
  0
VERTEX
  8
0
 10
276.424567
 20
131.152935
 42
0.052962
  0
VERTEX
  8
0
 10
274.518434
 20
130.596055
 42
0.185707
  0
VERTEX
  8
0
 10
273.605131
 20
129.732691
 42
0.198217
  0
VERTEX
  8
0
 10
273.538562
 20
128.521540
 42
0.060972
  0
VERTEX
  8
0
 10
274.364447
 20
126.847225
 42
-0.074879
  0
VERTEX
  8
0
 10
275.345408
 20
124.711449
 42
-0.204120
  0
VERTEX
  8
0
 10
275.147743
 20
123.094286
 42
-0.278348
  0
VERTEX
  8
0
 10
273.958982
 20
122.439435
 42
-0.113472
  0
VERTEX
  8
0
 10
272.106507
 20
122.942999
 42
0.068988
  0
VERTEX
  8
0
 10
270.257800
 20
123.625465
 42
0.215009
  0
VERTEX
  8
0
 10
268.989520
 20
123.358207
 42
0.185855
  0
VERTEX
  8
0
 10
268.229522
 20
122.177773
 42
0.051172
  0
VERTEX
  8
0
 10
268.000000
 20
119.940983
 42
-0.032400
  0
VERTEX
  8
0
 10
267.907370
 20
118.513003
 42
-0.110099
  0
VERTEX
  8
0
 10
267.590397
 20
117.641597
 42
-0.159144
  0
VERTEX
  8
0
 10
267.011873
 20
117.167060
 42
-0.093100
  0
VERTEX
  8
0
 10
266.122445
 20
117.000000
 42
-0.067559
  0
VERTEX
  8
0
 10
265.312334
 20
117.109963
 42
-0.044533
  0
VERTEX
  8
0
 10
264.430735
 20
117.440625
 42
-0.044279
  0
VERTEX
  8
0
 10
263.614539
 20
117.925824
 42
-0.063393
  0
VERTEX
  8
0
 10
263.000000
 20
118.500000
 42
0.060760
  0
VERTEX
  8
0
 10
261.765618
 20
119.665493
 42
0.221007
  0
VERTEX
  8
0
 10
260.735463
 20
119.874644
 42
0.186438
  0
VERTEX
  8
0
 10
259.788469
 20
119.222090
 42
0.042843
  0
VERTEX
  8
0
 10
258.818046
 20
117.500000
 42
-0.111435
  0
VERTEX
  8
0
 10
257.717219
 20
116.050370
 42
-0.090697
  0
VERTEX
  8
0
 10
256.019628
 20
115.081854
 42
-0.148409
  0
VERTEX
  8
0
 10
254.610567
 20
115.021373
 42
-0.342253
  0
VERTEX
  8
0
 10
254.000000
 20
115.808870
 42
0.100792
  0
VERTEX
  8
0
 10
253.912036
 20
116.240802
 42
0.020488
  0
VERTEX
  8
0
 10
253.575584
 20
116.950342
 42
0.020829
  0
VERTEX
  8
0
 10
253.108275
 20
117.756380
 42
0.018201
  0
VERTEX
  8
0
 10
252.555181
 20
118.558870
 42
0.045227
  0
VERTEX
  8
0
 10
251.601497
 20
119.624005
 42
0.265113
  0
VERTEX
  8
0
 10
250.897860
 20
119.790132
 42
0.126894
  0
VERTEX
  8
0
 10
250.057190
 20
119.287479
 42
0.008562
  0
VERTEX
  8
0
 10
248.111552
 20
117.250000
 42
-0.021272
  0
VERTEX
  8
0
 10
245.699615
 20
114.849430
 42
-0.159517
  0
VERTEX
  8
0
 10
244.249314
 20
114.194569
 42
-0.214285
  0
VERTEX
  8
0
 10
242.927003
 20
114.624602
 42
-0.041942
  0
VERTEX
  8
0
 10
241.178660
 20
116.500000
 42
0.063428
  0
VERTEX
  8
0
 10
239.494873
 20
118.157706
 42
0.120076
  0
VERTEX
  8
0
 10
237.760179
 20
118.915577
 42
0.225309
  0
VERTEX
  8
0
 10
236.535479
 20
118.576201
 42
0.217656
  0
VERTEX
  8
0
 10
236.000000
 20
117.404370
 42
0.083594
  0
VERTEX
  8
0
 10
236.135794
 20
116.597823
 42
0.024302
  0
VERTEX
  8
0
 10
236.607503
 20
115.424298
 42
0.023695
  0
VERTEX
  8
0
 10
237.276536
 20
114.133447
 42
0.023310
  0
VERTEX
  8
0
 10
238.068094
 20
112.904370
 42
0.039577
  0
VERTEX
  8
0
 10
239.346720
 20
111.379813
 42
0.092945
  0
VERTEX
  8
0
 10
240.561404
 20
110.533673
 42
0.080982
  0
VERTEX
  8
0
 10
242.105125
 20
110.120587
 42
0.024968
  0
VERTEX
  8
0
 10
244.518404
 20
110.000000
 42
0.023553
  0
VERTEX
  8
0
 10
246.504461
 20
110.093608
 42
0.048746
  0
VERTEX
  8
0
 10
248.027609
 20
110.389084
 42
0.066058
  0
VERTEX
  8
0
 10
249.118283
 20
110.877393
 42
0.127615
  0
VERTEX
  8
0
 10
249.775424
 20
111.563188
 42
-0.028298
  0
VERTEX
  8
0
 10
250.323170
 20
112.423824
 42
-0.241278
  0
VERTEX
  8
0
 10
250.717726
 20
112.626196
 42
-0.202431
  0
VERTEX
  8
0
 10
251.158793
 20
112.440211
 42
-0.019893
  0
VERTEX
  8
0
 10
251.946809
 20
111.564092
 42
-0.065425
  0
VERTEX
  8
0
 10
252.538228
 20
110.625069
 42
-0.106599
  0
VERTEX
  8
0
 10
252.742017
 20
109.709462
 42
-0.077658
  0
VERTEX
  8
0
 10
252.575074
 20
108.592758
 42
-0.022328
  0
VERTEX
  8
0
 10
251.977330
 20
106.945269
 42
0.065704
  0
VERTEX
  8
0
 10
251.339063
 20
104.560181
 42
0.159740
  0
VERTEX
  8
0
 10
251.672826
 20
102.791780
 42
0.293688
  0
VERTEX
  8
0
 10
252.769120
 20
102.198357
 42
0.155626
  0
VERTEX
  8
0
 10
254.259654
 20
102.800531
 42
-0.087023
  0
VERTEX
  8
0
 10
254.934568
 20
103.186169
 42
-0.048528
  0
VERTEX
  8
0
 10
255.854801
 20
103.419700
 42
-0.046474
  0
VERTEX
  8
0
 10
256.861635
 20
103.478836
 42
-0.055448
  0
VERTEX
  8
0
 10
257.802036
 20
103.341518
 42
0.168504
  0
VERTEX
  8
0
 10
259.296248
 20
103.458445
 42
0.270239
  0
VERTEX
  8
0
 10
260.029513
 20
104.462109
 42
0.147335
  0
VERTEX
  8
0
 10
259.690884
 20
106.227887
 42
0.063466
  0
VERTEX
  8
0
 10
258.306162
 20
108.214189
 42
-0.014357
  0
VERTEX
  8
0
 10
257.298317
 20
109.394241
 42
-0.223574
  0
VERTEX
  8
0
 10
257.176073
 20
109.897642
 42
-0.264676
  0
VERTEX
  8
0
 10
257.494199
 20
110.260962
 42
-0.019592
  0
VERTEX
  8
0
 10
258.806162
 20
110.659561
 42
0.034426
  0
VERTEX
  8
0
 10
259.646037
 20
110.942185
 42
0.046256
  0
VERTEX
  8
0
 10
260.355560
 20
111.316884
 42
0.054492
  0
VERTEX
  8
0
 10
260.849187
 20
111.721970
 42
0.196140
  0
VERTEX
  8
0
 10
261.000000
 20
112.091631
 42
-0.313125
  0
VERTEX
  8
0
 10
261.201008
 20
112.381132
 42
-0.064424
  0
VERTEX
  8
0
 10
261.840566
 20
112.529741
 42
-0.046899
  0
VERTEX
  8
0
 10
262.764537
 20
112.535203
 42
-0.027401
  0
VERTEX
  8
0
 10
263.861502
 20
112.377700
 42
0.098628
  0
VERTEX
  8
0
 10
266.579080
 20
112.375593
 42
0.057626
  0
VERTEX
  8
0
 10
269.690835
 20
113.375702
 42
0.060281
  0
VERTEX
  8
0
 10
272.216781
 20
114.912271
 42
0.229894
  0
VERTEX
  8
0
 10
273.000000
 20
116.525680
 42
-0.049424
  0
VERTEX
  8
0
 10
273.055065
 20
117.081384
 42
-0.077081
  0
VERTEX
  8
0
 10
273.220312
 20
117.532132
 42
-0.106984
  0
VERTEX
  8
0
 10
273.464357
 20
117.811279
 42
-0.201626
  0
VERTEX
  8
0
 10
273.750000
 20
117.881579
 42
0.077565
  0
VERTEX
  8
0
 10
275.224364
 20
117.878952
 42
0.111451
  0
VERTEX
  8
0
 10
276.435011
 20
118.355528
 42
0.080151
  0
VERTEX
  8
0
 10
277.590338
 20
119.446965
 42
0.025078
  0
VERTEX
  8
0
 10
278.947017
 20
121.414271
 42
0.014886
  0
VERTEX
  8
0
 10
279.737572
 20
122.782905
 42
0.019928
  0
VERTEX
  8
0
 10
280.366498
 20
124.071096
 42
0.017488
  0
VERTEX
  8
0
 10
280.800037
 20
125.158559
 42
0.157578
  0
VERTEX
  8
0
 10
280.816124
 20
125.664271
 42
-0.114033
  0
VERTEX
  8
0
 10
280.791867
 20
126.115541
 42
-0.028198
  0
VERTEX
  8
0
 10
280.961782
 20
126.842005
 42
-0.027381
  0
VERTEX
  8
0
 10
281.256569
 20
127.672998
 42
-0.024428
  0
VERTEX
  8
0
 10
281.650447
 20
128.500000
 42
0.042867
  0
VERTEX
  8
0
 10
282.109936
 20
129.564024
 42
0.013864
  0
VERTEX
  8
0
 10
282.607987
 20
131.207545
 42
0.013710
  0
VERTEX
  8
0
 10
283.062981
 20
133.074094
 42
0.014979
  0
VERTEX
  8
0
 10
283.400088
 20
134.908664
 42
-0.039649
  0
VERTEX
  8
0
 10
284.148116
 20
138.088677
 42
-0.028641
  0
VERTEX
  8
0
 10
285.457495
 20
141.489221
 42
-0.022159
  0
VERTEX
  8
0
 10
286.930288
 20
144.394865
 42
-0.270067
  0
VERTEX
  8
0
 10
287.965608
 20
145.001206
 42
-0.433427
  0
VERTEX
  8
0
 10
288.616986
 20
144.309083
 42
-0.001856
  0
VERTEX
  8
0
 10
287.855729
 20
132.896645
 42
-0.005116
  0
VERTEX
  8
0
 10
286.996276
 20
122.249738
 42
-0.073843
  0
VERTEX
  8
0
 10
286.104456
 20
118.576810
 42
0.024785
  0
VERTEX
  8
0
 10
285.548117
 20
116.984126
 42
0.090276
  0
VERTEX
  8
0
 10
285.434790
 20
115.923398
 42
0.118886
  0
VERTEX
  8
0
 10
285.713911
 20
115.052904
 42
0.059682
  0
VERTEX
  8
0
 10
286.431745
 20
114.139684
 42
0.425272
  0
VERTEX
  8
0
 10
288.289961
 20
114.174629
 42
0.113536
  0
VERTEX
  8
0
 10
289.937657
 20
117.041167
 42
0.047173
  0
VERTEX
  8
0
 10
291.171429
 20
123.087009
 42
0.017470
  0
VERTEX
  8
0
 10
291.797969
 20
131.762630
 42
-0.004805
  0
VERTEX
  8
0
 10
292.106285
 20
138.350387
 42
-0.035406
  0
VERTEX
  8
0
 10
292.505343
 20
141.471702
 42
-0.078524
  0
VERTEX
  8
0
 10
293.200204
 20
143.348039
 42
-0.097422
  0
VERTEX
  8
0
 10
294.405365
 20
144.762630
 42
0.028403
  0
VERTEX
  8
0
 10
296.402547
 20
146.541799
 42
0.092679
  0
VERTEX
  8
0
 10
297.400197
 20
147.995548
 42
0.151333
  0
VERTEX
  8
0
 10
297.551370
 20
149.290333
 42
0.127831
  0
VERTEX
  8
0
 10
296.963645
 20
150.543805
 42
0.137738
  0
VERTEX
  8
0
 10
295.367376
 20
151.646023
 42
0.105083
  0
VERTEX
  8
0
 10
293.249802
 20
151.903870
 42
0.080769
  0
VERTEX
  8
0
 10
290.731573
 20
151.262426
 42
0.046779
  0
SEQEND
  0
POLYLINE
  8
0
 66
1
 70
1
  0
VERTEX
  8
0
 10
31.000000
 20
127.500000
 42
0.000000
  0
VERTEX
  8
0
 10
31.000000
 20
113.000000
 42
0.000000
  0
VERTEX
  8
0
 10
33.452283
 20
113.000000
 42
0.083297
  0
VERTEX
  8
0
 10
34.846007
 20
113.233808
 42
0.208930
  0
VERTEX
  8
0
 10
35.588271
 20
113.917513
 42
0.084395
  0
VERTEX
  8
0
 10
35.960726
 20
115.400161
 42
0.007532
  0
VERTEX
  8
0
 10
36.202283
 20
119.250000
 42
-0.008641
  0
VERTEX
  8
0
 10
36.433779
 20
122.812993
 42
-0.067636
  0
VERTEX
  8
0
 10
36.791013
 20
124.431535
 42
-0.172273
  0
VERTEX
  8
0
 10
37.436302
 20
125.207843
 42
-0.134834
  0
VERTEX
  8
0
 10
38.500000
 20
125.500000
 42
-0.134834
  0
VERTEX
  8
0
 10
39.563698
 20
125.207843
 42
-0.172273
  0
VERTEX
  8
0
 10
40.208987
 20
124.431535
 42
-0.067636
  0
VERTEX
  8
0
 10
40.566221
 20
122.812993
 42
-0.008641
  0
VERTEX
  8
0
 10
40.797717
 20
119.250000
 42
0.007532
  0
VERTEX
  8
0
 10
41.039274
 20
115.400161
 42
0.084395
  0
VERTEX
  8
0
 10
41.411729
 20
113.917513
 42
0.208930
  0
VERTEX
  8
0
 10
42.153993
 20
113.233808
 42
0.083297
  0
VERTEX
  8
0
 10
43.547717
 20
113.000000
 42
0.084438
  0
VERTEX
  8
0
 10
44.953480
 20
113.239105
 42
0.225556
  0
VERTEX
  8
0
 10
45.657617
 20
113.936573
 42
0.081356
  0
VERTEX
  8
0
 10
45.942960
 20
115.468827
 42
0.006008
  0
VERTEX
  8
0
 10
45.984687
 20
119.750000
 42
0.010026
  0
VERTEX
  8
0
 10
45.925182
 20
122.415482
 42
0.013220
  0
VERTEX
  8
0
 10
45.758058
 20
124.840399
 42
0.010654
  0
VERTEX
  8
0
 10
45.524022
 20
126.839232
 42
0.113197
  0
VERTEX
  8
0
 10
45.234687
 20
127.600296
 42
0.094646
  0
VERTEX
  8
0
 10
43.949534
 20
128.906016
 42
0.059078
  0
VERTEX
  8
0
 10
42.046367
 20
129.912816
 42
0.059233
  0
VERTEX
  8
0
 10
39.968010
 20
130.444042
 42
0.097227
  0
VERTEX
  8
0
 10
38.161673
 20
130.332028
 42
-0.094089
  0
VERTEX
  8
0
 10
36.949741
 20
130.249302
 42
-0.276756
  0
VERTEX
  8
0
 10
36.315248
 20
130.741195
 42
-0.086861
  0
VERTEX
  8
0
 10
36.047118
 20
132.077332
 42
-0.006190
  0
VERTEX
  8
0
 10
36.000000
 20
135.883369
 42
0.007093
  0
VERTEX
  8
0
 10
35.945435
 20
139.729496
 42
0.090151
  0
VERTEX
  8
0
 10
35.647820
 20
141.138337
 42
0.225526
  0
VERTEX
  8
0
 10
34.937250
 20
141.786062
 42
0.074018
  0
VERTEX
  8
0
 10
33.500000
 20
142.000000
 42
0.000000
  0
VERTEX
  8
0
 10
31.000000
 20
142.000000
 42
0.000000
  0
SEQEND
  0
POLYLINE
  8
0
 66
1
 70
1
  0
VERTEX
  8
0
 10
147.000000
 20
127.500000
 42
0.000000
  0
VERTEX
  8
0
 10
147.000000
 20
113.000000
 42
0.000000
  0
VERTEX
  8
0
 10
149.500000
 20
113.000000
 42
0.047066
  0
VERTEX
  8
0
 10
150.795856
 20
113.122254
 42
0.161020
  0
VERTEX
  8
0
 10
151.525924
 20
113.528160
 42
0.147061
  0
VERTEX
  8
0
 10
151.908297
 20
114.315622
 42
0.037148
  0
VERTEX
  8
0
 10
152.031601
 20
115.750000
 42
0.000000
  0
VERTEX
  8
0
 10
152.063202
 20
118.500000
 42
0.000000
  0
VERTEX
  8
0
 10
154.483635
 20
115.750000
 42
0.039901
  0
VERTEX
  8
0
 10
155.760026
 20
114.514076
 42
0.057643
  0
VERTEX
  8
0
 10
157.077422
 20
113.661517
 42
0.061318
  0
VERTEX
  8
0
 10
158.489131
 20
113.167329
 42
0.053614
  0
VERTEX
  8
0
 10
160.045152
 20
113.000000
 42
0.000000
  0
VERTEX
  8
0
 10
163.186237
 20
113.000000
 42
0.000000
  0
VERTEX
  8
0
 10
159.148766
 20
117.822315
 42
0.000000
  0
VERTEX
  8
0
 10
155.111296
 20
122.644630
 42
0.000000
  0
VERTEX
  8
0
 10
158.788981
 20
126.322315
 42
0.000000
  0
VERTEX
  8
0
 10
162.466667
 20
130.000000
 42
0.000000
  0
VERTEX
  8
0
 10
159.547785
 20
130.000000
 42
0.060611
  0
VERTEX
  8
0
 10
158.255093
 20
129.842718
 42
0.037924
  0
VERTEX
  8
0
 10
156.805274
 20
129.365541
 42
0.037509
  0
VERTEX
  8
0
 10
155.418835
 20
128.663442
 42
0.052660
  0
VERTEX
  8
0
 10
154.314451
 20
127.825686
 42
0.000000
  0
VERTEX
  8
0
 10
152.000000
 20
125.651372
 42
0.000000
  0
VERTEX
  8
0
 10
152.000000
 20
133.825686
 42
0.004323
  0
VERTEX
  8
0
 10
151.953856
 20
139.162360
 42
0.069991
  0
VERTEX
  8
0
 10
151.673541
 20
140.932569
 42
0.227060
  0
VERTEX
  8
0
 10
150.949108
 20
141.720635
 42
0.095513
  0
VERTEX
  8
0
 10
149.500000
 20
142.000000
 42
0.000000
  0
VERTEX
  8
0
 10
147.000000
 20
142.000000
 42
0.000000
  0
SEQEND
  0
POLYLINE
  8
0
 66
1
 70
1
  0
VERTEX
  8
0
 10
21.000000
 20
133.000000
 42
-0.031626
  0
VERTEX
  8
0
 10
20.927234
 20
131.850749
 42
-0.048861
  0
VERTEX
  8
0
 10
20.706250
 20
130.881250
 42
-0.062710
  0
VERTEX
  8
0
 10
20.384262
 20
130.209557
 42
-0.254951
  0
VERTEX
  8
0
 10
20.000000
 20
130.000000
 42
0.191087
  0
VERTEX
  8
0
 10
19.618118
 20
129.848523
 42
0.088204
  0
VERTEX
  8
0
 10
19.293750
 20
129.412500
 42
0.068025
  0
VERTEX
  8
0
 10
19.073693
 20
128.765418
 42
0.048028
  0
VERTEX
  8
0
 10
19.000000
 20
128.000000
 42
0.048028
  0
VERTEX
  8
0
 10
19.073693
 20
127.234582
 42
0.068025
  0
VERTEX
  8
0
 10
19.293750
 20
126.587500
 42
0.088204
  0
VERTEX
  8
0
 10
19.618118
 20
126.151477
 42
0.191087
  0
VERTEX
  8
0
 10
20.000000
 20
126.000000
 42
-0.345347
  0
VERTEX
  8
0
 10
20.400526
 20
125.685898
 42
-0.022017
  0
VERTEX
  8
0
 10
20.711538
 20
124.125000
 42
-0.024301
  0
VERTEX
  8
0
 10
20.929639
 20
122.036573
 42
-0.013867
  0
VERTEX
  8
0
 10
21.000000
 20
119.500000
 42
0.006367
  0
VERTEX
  8
0
 10
21.052512
 20
115.376461
 42
0.085635
  0
VERTEX
  8
0
 10
21.346154
 20
113.900000
 42
0.226921
  0
VERTEX
  8
0
 10
22.059174
 20
113.225912
 42
0.077921
  0
VERTEX
  8
0
 10
23.500000
 20
113.000000
 42
0.077921
  0
VERTEX
  8
0
 10
24.940826
 20
113.225912
 42
0.226921
  0
VERTEX
  8
0
 10
25.653846
 20
113.900000
 42
0.085635
  0
VERTEX
  8
0
 10
25.947488
 20
115.376461
 42
0.006367
  0
VERTEX
  8
0
 10
26.000000
 20
119.500000
 42
-0.009420
  0
VERTEX
  8
0
 10
26.062640
 20
122.824386
 42
-0.047315
  0
VERTEX
  8
0
 10
26.307692
 20
124.666667
 42
-0.108427
  0
VERTEX
  8
0
 10
26.770252
 20
125.642085
 42
-0.232029
  0
VERTEX
  8
0
 10
27.500000
 20
126.000000
 42
0.130775
  0
VERTEX
  8
0
 10
28.075754
 20
126.153209
 42
0.102140
  0
VERTEX
  8
0
 10
28.562500
 20
126.583333
 42
0.088920
  0
VERTEX
  8
0
 10
28.888136
 20
127.230589
 42
0.072314
  0
VERTEX
  8
0
 10
29.000000
 20
128.000000
 42
0.072314
  0
VERTEX
  8
0
 10
28.888136
 20
128.769411
 42
0.088920
  0
VERTEX
  8
0
 10
28.562500
 20
129.416667
 42
0.102140
  0
VERTEX
  8
0
 10
28.075754
 20
129.846791
 42
0.130775
  0
VERTEX
  8
0
 10
27.500000
 20
130.000000
 42
-0.152103
  0
VERTEX
  8
0
 10
26.851045
 20
130.202091
 42
-0.126510
  0
VERTEX
  8
0
 10
26.375000
 20
130.750000
 42
-0.082504
  0
VERTEX
  8
0
 10
26.088963
 20
131.677925
 42
-0.033607
  0
VERTEX
  8
0
 10
26.000000
 20
133.000000
 42
0.030103
  0
VERTEX
  8
0
 10
25.902765
 20
134.613599
 42
0.144586
  0
VERTEX
  8
0
 10
25.541667
 20
135.450000
 42
0.173074
  0
VERTEX
  8
0
 10
24.824437
 20
135.873428
 42
0.047675
  0
VERTEX
  8
0
 10
23.500000
 20
136.000000
 42
0.047675
  0
VERTEX
  8
0
 10
22.175563
 20
135.873428
 42
0.173074
  0
VERTEX
  8
0
 10
21.458333
 20
135.450000
 42
0.144586
  0
VERTEX
  8
0
 10
21.097235
 20
134.613599
 42
0.030103
  0
SEQEND
  0
POLYLINE
  8
0
 66
1
 70
1
  0
VERTEX
  8
0
 10
55.354429
 20
130.295620
 42
0.176658
  0
VERTEX
  8
0
 10
51.798470
 20
128.176950
 42
0.114373
  0
VERTEX
  8
0
 10
49.666780
 20
123.830798
 42
0.108357
  0
VERTEX
  8
0
 10
49.604406
 20
118.789714
 42
0.146510
  0
VERTEX
  8
0
 10
51.755051
 20
114.800505
 42
0.111958
  0
VERTEX
  8
0
 10
54.500552
 20
113.069981
 42
0.085663
  0
VERTEX
  8
0
 10
58.009790
 20
112.472961
 42
0.085720
  0
VERTEX
  8
0
 10
61.513945
 20
113.086801
 42
0.112356
  0
VERTEX
  8
0
 10
64.244949
 20
114.830399
 42
0.011778
  0
VERTEX
  8
0
 10
65.657318
 20
116.330579
 42
0.163349
  0
VERTEX
  8
0
 10
65.948563
 20
117.004613
 42
0.232071
  0
VERTEX
  8
0
 10
65.715777
 20
117.601168
 42
0.025920
  0
VERTEX
  8
0
 10
64.558870
 20
118.557672
 42
-0.008072
  0
VERTEX
  8
0
 10
63.449233
 20
119.410316
 42
-0.183999
  0
VERTEX
  8
0
 10
63.247770
 20
119.749823
 42
-0.436326
  0
VERTEX
  8
0
 10
63.405101
 20
119.956257
 42
-0.024186
  0
VERTEX
  8
0
 10
64.308870
 20
120.000000
 42
0.271963
  0
VERTEX
  8
0
 10
65.574017
 20
120.743109
 42
0.147145
  0
VERTEX
  8
0
 10
65.974677
 20
122.565245
 42
0.093174
  0
VERTEX
  8
0
 10
65.310712
 20
125.045520
 42
0.072740
  0
VERTEX
  8
0
 10
63.750000
 20
127.363423
 42
0.050993
  0
VERTEX
  8
0
 10
61.878165
 20
129.042181
 42
0.073422
  0
VERTEX
  8
0
 10
59.910042
 20
130.073303
 42
0.075055
  0
VERTEX
  8
0
 10
57.761450
 20
130.478022
 42
0.056053
  0
SEQEND
  0
POLYLINE
  8
0
 66
1
 70
1
  0
VERTEX
  8
0
 10
60.000000
 20
125.000000
 42
-0.230178
  0
VERTEX
  8
0
 10
59.813779
 20
124.616918
 42
-0.073461
  0
VERTEX
  8
0
 10
59.248289
 20
124.293750
 42
-0.055981
  0
VERTEX
  8
0
 10
58.420991
 20
124.073066
 42
-0.037227
  0
VERTEX
  8
0
 10
57.440983
 20
124.000000
 42
-0.035659
  0
VERTEX
  8
0
 10
56.479336
 20
124.068671
 42
-0.083483
  0
VERTEX
  8
0
 10
55.794783
 20
124.287316
 42
-0.165100
  0
VERTEX
  8
0
 10
55.478234
 20
124.615199
 42
-0.253782
  0
VERTEX
  8
0
 10
55.500000
 20
125.000000
 42
-0.111412
  0
VERTEX
  8
0
 10
55.876024
 20
125.383556
 42
-0.050262
  0
VERTEX
  8
0
 10
56.506650
 20
125.706250
 42
-0.046318
  0
VERTEX
  8
0
 10
57.270704
 20
125.925923
 42
-0.046881
  0
VERTEX
  8
0
 10
58.059017
 20
126.000000
 42
-0.049547
  0
VERTEX
  8
0
 10
58.801778
 20
125.926216
 42
-0.069539
  0
VERTEX
  8
0
 10
59.429836
 20
125.706250
 42
-0.089706
  0
VERTEX
  8
0
 10
59.852535
 20
125.381787
 42
-0.186414
  0
SEQEND
  0
POLYLINE
  8
0
 66
1
 70
1
  0
VERTEX
  8
0
 10
61.000000
 20
118.500000
 42
-0.059806
  0
VERTEX
  8
0
 10
60.394287
 20
117.925909
 42
-0.043899
  0
VERTEX
  8
0
 10
59.605233
 20
117.440625
 42
-0.044601
  0
VERTEX
  8
0
 10
58.763110
 20
117.109626
 42
-0.071461
  0
VERTEX
  8
0
 10
58.000000
 20
117.000000
 42
-0.071461
  0
VERTEX
  8
0
 10
57.236890
 20
117.109626
 42
-0.044601
  0
VERTEX
  8
0
 10
56.394767
 20
117.440625
 42
-0.043899
  0
VERTEX
  8
0
 10
55.605713
 20
117.925909
 42
-0.059806
  0
VERTEX
  8
0
 10
55.000000
 20
118.500000
 42
-0.084627
  0
VERTEX
  8
0
 10
54.547024
 20
119.284082
 42
-0.382744
  0
VERTEX
  8
0
 10
54.725061
 20
119.734975
 42
-0.107644
  0
VERTEX
  8
0
 10
55.602955
 20
119.958377
 42
-0.008681
  0
VERTEX
  8
0
 10
58.000000
 20
120.000000
 42
-0.008681
  0
VERTEX
  8
0
 10
60.397045
 20
119.958377
 42
-0.107644
  0
VERTEX
  8
0
 10
61.274939
 20
119.734975
 42
-0.382744
  0
VERTEX
  8
0
 10
61.452976
 20
119.284082
 42
-0.084627
  0
SEQEND
  0
POLYLINE
  8
0
 66
1
 70
1
  0
VERTEX
  8
0
 10
86.272276
 20
130.150320
 42
0.094650
  0
VERTEX
  8
0
 10
82.522683
 20
128.232582
 42
0.118389
  0
VERTEX
  8
0
 10
80.091703
 20
125.186799
 42
0.120695
  0
VERTEX
  8
0
 10
79.336560
 20
121.417072
 42
0.100952
  0
VERTEX
  8
0
 10
80.323899
 20
117.446966
 42
0.142399
  0
VERTEX
  8
0
 10
83.509278
 20
113.872231
 42
0.123996
  0
VERTEX
  8
0
 10
88.293099
 20
112.322398
 42
0.165479
  0
VERTEX
  8
0
 10
92.325576
 20
113.401233
 42
0.250394
  0
VERTEX
  8
0
 10
94.000000
 20
116.535184
 42
0.047075
  0
VERTEX
  8
0
 10
93.847135
 20
118.155206
 42
0.230923
  0
VERTEX
  8
0
 10
93.312148
 20
118.870679
 42
0.263114
  0
VERTEX
  8
0
 10
92.479836
 20
118.837609
 42
0.057844
  0
VERTEX
  8
0
 10
91.315335
 20
117.915335
 42
-0.159073
  0
VERTEX
  8
0
 10
89.890434
 20
117.191721
 42
-0.085448
  0
VERTEX
  8
0
 10
87.898609
 20
117.223769
 42
-0.082034
  0
VERTEX
  8
0
 10
85.951510
 20
117.935112
 42
-0.124898
  0
VERTEX
  8
0
 10
84.656229
 20
119.172341
 42
-0.154595
  0
VERTEX
  8
0
 10
84.118410
 20
121.252157
 42
-0.112987
  0
VERTEX
  8
0
 10
84.779109
 20
123.560804
 42
-0.113142
  0
VERTEX
  8
0
 10
86.377189
 20
125.349840
 42
-0.155329
  0
VERTEX
  8
0
 10
88.419544
 20
126.000000
 42
-0.037317
  0
VERTEX
  8
0
 10
89.407428
 20
125.926168
 42
-0.041198
  0
VERTEX
  8
0
 10
90.340177
 20
125.706250
 42
-0.045219
  0
VERTEX
  8
0
 10
91.092094
 20
125.384552
 42
-0.131392
  0
VERTEX
  8
0
 10
91.500000
 20
125.000000
 42
0.109296
  0
VERTEX
  8
0
 10
92.347355
 20
124.128412
 42
0.290110
  0
VERTEX
  8
0
 10
93.178536
 20
124.114239
 42
0.195302
  0
VERTEX
  8
0
 10
93.801521
 20
124.955563
 42
0.062992
  0
VERTEX
  8
0
 10
94.000000
 20
126.524751
 42
0.062389
  0
VERTEX
  8
0
 10
93.848372
 20
127.735206
 42
0.096101
  0
VERTEX
  8
0
 10
93.399436
 20
128.686718
 42
0.091668
  0
VERTEX
  8
0
 10
92.608948
 20
129.431318
 42
0.052390
  0
VERTEX
  8
0
 10
91.434900
 20
130.024751
 42
0.005410
  0
VERTEX
  8
0
 10
90.438404
 20
130.391328
 42
0.008361
  0
VERTEX
  8
0
 10
89.568984
 20
130.684240
 42
0.003606
  0
VERTEX
  8
0
 10
88.826945
 20
130.914616
 42
0.199655
  0
VERTEX
  8
0
 10
88.684900
 20
130.900320
 42
-0.047068
  0
VERTEX
  8
0
 10
88.545453
 20
130.841302
 42
-0.001227
  0
VERTEX
  8
0
 10
87.899921
 20
130.638889
 42
-0.002581
  0
VERTEX
  8
0
 10
87.139291
 20
130.406736
 42
-0.001760
  0
SEQEND
  0
POLYLINE
  8
0
 66
1
 70
1
  0
VERTEX
  8
0
 10
99.750000
 20
130.271532
 42
0.000000
  0
VERTEX
  8
0
 10
96.000000
 20
129.879269
 42
0.000000
  0
VERTEX
  8
0
 10
96.000000
 20
121.439635
 42
0.004167
  0
VERTEX
  8
0
 10
96.045784
 20
115.945676
 42
0.066627
  0
VERTEX
  8
0
 10
96.322642
 20
114.110386
 42
0.222711
  0
VERTEX
  8
0
 10
97.039437
 20
113.294850
 42
0.103234
  0
VERTEX
  8
0
 10
98.452283
 20
113.000000
 42
0.083297
  0
VERTEX
  8
0
 10
99.846007
 20
113.233808
 42
0.208930
  0
VERTEX
  8
0
 10
100.588271
 20
113.917513
 42
0.084395
  0
VERTEX
  8
0
 10
100.960726
 20
115.400161
 42
0.007532
  0
VERTEX
  8
0
 10
101.202283
 20
119.250000
 42
-0.007413
  0
VERTEX
  8
0
 10
101.437327
 20
123.010384
 42
-0.078772
  0
VERTEX
  8
0
 10
101.792668
 20
124.498022
 42
-0.217233
  0
VERTEX
  8
0
 10
102.478666
 20
125.138749
 42
-0.107159
  0
VERTEX
  8
0
 10
103.689743
 20
125.272466
 42
0.171887
  0
VERTEX
  8
0
 10
105.369103
 20
125.677939
 42
0.144035
  0
VERTEX
  8
0
 10
106.566213
 20
127.078219
 42
0.157347
  0
VERTEX
  8
0
 10
106.755742
 20
128.808538
 42
0.203486
  0
VERTEX
  8
0
 10
105.857012
 20
130.109533
 42
0.022735
  0
VERTEX
  8
0
 10
105.300810
 20
130.427489
 42
0.027521
  0
VERTEX
  8
0
 10
104.751747
 20
130.671914
 42
0.027934
  0
VERTEX
  8
0
 10
104.277495
 20
130.822756
 42
0.138032
  0
VERTEX
  8
0
 10
104.000000
 20
130.816584
 42
-0.040104
  0
VERTEX
  8
0
 10
103.654178
 20
130.740557
 42
-0.002172
  0
VERTEX
  8
0
 10
102.545312
 20
130.593449
 42
-0.003376
  0
VERTEX
  8
0
 10
101.222888
 20
130.432919
 42
-0.002456
  0
SEQEND
  0
POLYLINE
  8
0
 66
1
 70
1
  0
VERTEX
  8
0
 10
114.354429
 20
130.295620
 42
0.176658
  0
VERTEX
  8
0
 10
110.798470
 20
128.176950
 42
0.114373
  0
VERTEX
  8
0
 10
108.666780
 20
123.830798
 42
0.108357
  0
VERTEX
  8
0
 10
108.604406
 20
118.789714
 42
0.146510
  0
VERTEX
  8
0
 10
110.755051
 20
114.800505
 42
0.111958
  0
VERTEX
  8
0
 10
113.500552
 20
113.069981
 42
0.085663
  0
VERTEX
  8
0
 10
117.009790
 20
112.472961
 42
0.085720
  0
VERTEX
  8
0
 10
120.513945
 20
113.086801
 42
0.112356
  0
VERTEX
  8
0
 10
123.244949
 20
114.830399
 42
0.011778
  0
VERTEX
  8
0
 10
124.657318
 20
116.330579
 42
0.163349
  0
VERTEX
  8
0
 10
124.948563
 20
117.004613
 42
0.232071
  0
VERTEX
  8
0
 10
124.715777
 20
117.601168
 42
0.025920
  0
VERTEX
  8
0
 10
123.558870
 20
118.557672
 42
-0.008072
  0
VERTEX
  8
0
 10
122.449233
 20
119.410316
 42
-0.183999
  0
VERTEX
  8
0
 10
122.247770
 20
119.749823
 42
-0.436326
  0
VERTEX
  8
0
 10
122.405101
 20
119.956257
 42
-0.024186
  0
VERTEX
  8
0
 10
123.308870
 20
120.000000
 42
0.271963
  0
VERTEX
  8
0
 10
124.574017
 20
120.743109
 42
0.147145
  0
VERTEX
  8
0
 10
124.974677
 20
122.565245
 42
0.093174
  0
VERTEX
  8
0
 10
124.310712
 20
125.045520
 42
0.072740
  0
VERTEX
  8
0
 10
122.750000
 20
127.363423
 42
0.050993
  0
VERTEX
  8
0
 10
120.878165
 20
129.042181
 42
0.073422
  0
VERTEX
  8
0
 10
118.910042
 20
130.073303
 42
0.075055
  0
VERTEX
  8
0
 10
116.761450
 20
130.478022
 42
0.056053
  0
SEQEND
  0
POLYLINE
  8
0
 66
1
 70
1
  0
VERTEX
  8
0
 10
119.000000
 20
125.000000
 42
-0.230178
  0
VERTEX
  8
0
 10
118.813779
 20
124.616918
 42
-0.073461
  0
VERTEX
  8
0
 10
118.248289
 20
124.293750
 42
-0.055981
  0
VERTEX
  8
0
 10
117.420991
 20
124.073066
 42
-0.037227
  0
VERTEX
  8
0
 10
116.440983
 20
124.000000
 42
-0.035659
  0
VERTEX
  8
0
 10
115.479336
 20
124.068671
 42
-0.083483
  0
VERTEX
  8
0
 10
114.794783
 20
124.287316
 42
-0.165100
  0
VERTEX
  8
0
 10
114.478234
 20
124.615199
 42
-0.253782
  0
VERTEX
  8
0
 10
114.500000
 20
125.000000
 42
-0.111412
  0
VERTEX
  8
0
 10
114.876024
 20
125.383556
 42
-0.050262
  0
VERTEX
  8
0
 10
115.506650
 20
125.706250
 42
-0.046318
  0
VERTEX
  8
0
 10
116.270704
 20
125.925923
 42
-0.046881
  0
VERTEX
  8
0
 10
117.059017
 20
126.000000
 42
-0.049547
  0
VERTEX
  8
0
 10
117.801778
 20
125.926216
 42
-0.069539
  0
VERTEX
  8
0
 10
118.429836
 20
125.706250
 42
-0.089706
  0
VERTEX
  8
0
 10
118.852535
 20
125.381787
 42
-0.186414
  0
SEQEND
  0
POLYLINE
  8
0
 66
1
 70
1
  0
VERTEX
  8
0
 10
120.000000
 20
118.500000
 42
-0.059806
  0
VERTEX
  8
0
 10
119.394287
 20
117.925909
 42
-0.043899
  0
VERTEX
  8
0
 10
118.605233
 20
117.440625
 42
-0.044601
  0
VERTEX
  8
0
 10
117.763110
 20
117.109626
 42
-0.071461
  0
VERTEX
  8
0
 10
117.000000
 20
117.000000
 42
-0.071461
  0
VERTEX
  8
0
 10
116.236890
 20
117.109626
 42
-0.044601
  0
VERTEX
  8
0
 10
115.394767
 20
117.440625
 42
-0.043899
  0
VERTEX
  8
0
 10
114.605713
 20
117.925909
 42
-0.059806
  0
VERTEX
  8
0
 10
114.000000
 20
118.500000
 42
-0.084627
  0
VERTEX
  8
0
 10
113.547024
 20
119.284082
 42
-0.382744
  0
VERTEX
  8
0
 10
113.725061
 20
119.734975
 42
-0.107644
  0
VERTEX
  8
0
 10
114.602955
 20
119.958377
 42
-0.008681
  0
VERTEX
  8
0
 10
117.000000
 20
120.000000
 42
-0.008681
  0
VERTEX
  8
0
 10
119.397045
 20
119.958377
 42
-0.107644
  0
VERTEX
  8
0
 10
120.274939
 20
119.734975
 42
-0.382744
  0
VERTEX
  8
0
 10
120.452976
 20
119.284082
 42
-0.084627
  0
SEQEND
  0
POLYLINE
  8
0
 66
1
 70
1
  0
VERTEX
  8
0
 10
133.354429
 20
130.295620
 42
0.176658
  0
VERTEX
  8
0
 10
129.798470
 20
128.176950
 42
0.114373
  0
VERTEX
  8
0
 10
127.666780
 20
123.830798
 42
0.108357
  0
VERTEX
  8
0
 10
127.604406
 20
118.789714
 42
0.146510
  0
VERTEX
  8
0
 10
129.755051
 20
114.800505
 42
0.111958
  0
VERTEX
  8
0
 10
132.500552
 20
113.069981
 42
0.085663
  0
VERTEX
  8
0
 10
136.009790
 20
112.472961
 42
0.085720
  0
VERTEX
  8
0
 10
139.513945
 20
113.086801
 42
0.112356
  0
VERTEX
  8
0
 10
142.244949
 20
114.830399
 42
0.011778
  0
VERTEX
  8
0
 10
143.657318
 20
116.330579
 42
0.163349
  0
VERTEX
  8
0
 10
143.948563
 20
117.004613
 42
0.232071
  0
VERTEX
  8
0
 10
143.715777
 20
117.601168
 42
0.025920
  0
VERTEX
  8
0
 10
142.558870
 20
118.557672
 42
-0.008072
  0
VERTEX
  8
0
 10
141.449233
 20
119.410316
 42
-0.183999
  0
VERTEX
  8
0
 10
141.247770
 20
119.749823
 42
-0.436326
  0
VERTEX
  8
0
 10
141.405101
 20
119.956257
 42
-0.024186
  0
VERTEX
  8
0
 10
142.308870
 20
120.000000
 42
0.271963
  0
VERTEX
  8
0
 10
143.574017
 20
120.743109
 42
0.147145
  0
VERTEX
  8
0
 10
143.974677
 20
122.565245
 42
0.093174
  0
VERTEX
  8
0
 10
143.310712
 20
125.045520
 42
0.072740
  0
VERTEX
  8
0
 10
141.750000
 20
127.363423
 42
0.050993
  0
VERTEX
  8
0
 10
139.878165
 20
129.042181
 42
0.073422
  0
VERTEX
  8
0
 10
137.910042
 20
130.073303
 42
0.075055
  0
VERTEX
  8
0
 10
135.761450
 20
130.478022
 42
0.056053
  0
SEQEND
  0
POLYLINE
  8
0
 66
1
 70
1
  0
VERTEX
  8
0
 10
138.000000
 20
125.000000
 42
-0.230178
  0
VERTEX
  8
0
 10
137.813779
 20
124.616918
 42
-0.073461
  0
VERTEX
  8
0
 10
137.248289
 20
124.293750
 42
-0.055981
  0
VERTEX
  8
0
 10
136.420991
 20
124.073066
 42
-0.037227
  0
VERTEX
  8
0
 10
135.440983
 20
124.000000
 42
-0.035659
  0
VERTEX
  8
0
 10
134.479336
 20
124.068671
 42
-0.083483
  0
VERTEX
  8
0
 10
133.794783
 20
124.287316
 42
-0.165100
  0
VERTEX
  8
0
 10
133.478234
 20
124.615199
 42
-0.253782
  0
VERTEX
  8
0
 10
133.500000
 20
125.000000
 42
-0.111412
  0
VERTEX
  8
0
 10
133.876024
 20
125.383556
 42
-0.050262
  0
VERTEX
  8
0
 10
134.506650
 20
125.706250
 42
-0.046318
  0
VERTEX
  8
0
 10
135.270704
 20
125.925923
 42
-0.046881
  0
VERTEX
  8
0
 10
136.059017
 20
126.000000
 42
-0.049547
  0
VERTEX
  8
0
 10
136.801778
 20
125.926216
 42
-0.069539
  0
VERTEX
  8
0
 10
137.429836
 20
125.706250
 42
-0.089706
  0
VERTEX
  8
0
 10
137.852535
 20
125.381787
 42
-0.186414
  0
SEQEND
  0
POLYLINE
  8
0
 66
1
 70
1
  0
VERTEX
  8
0
 10
139.000000
 20
118.500000
 42
-0.059806
  0
VERTEX
  8
0
 10
138.394287
 20
117.925909
 42
-0.043899
  0
VERTEX
  8
0
 10
137.605233
 20
117.440625
 42
-0.044601
  0
VERTEX
  8
0
 10
136.763110
 20
117.109626
 42
-0.071461
  0
VERTEX
  8
0
 10
136.000000
 20
117.000000
 42
-0.071461
  0
VERTEX
  8
0
 10
135.236890
 20
117.109626
 42
-0.044601
  0
VERTEX
  8
0
 10
134.394767
 20
117.440625
 42
-0.043899
  0
VERTEX
  8
0
 10
133.605713
 20
117.925909
 42
-0.059806
  0
VERTEX
  8
0
 10
133.000000
 20
118.500000
 42
-0.084627
  0
VERTEX
  8
0
 10
132.547024
 20
119.284082
 42
-0.382744
  0
VERTEX
  8
0
 10
132.725061
 20
119.734975
 42
-0.107644
  0
VERTEX
  8
0
 10
133.602955
 20
119.958377
 42
-0.008681
  0
VERTEX
  8
0
 10
136.000000
 20
120.000000
 42
-0.008681
  0
VERTEX
  8
0
 10
138.397045
 20
119.958377
 42
-0.107644
  0
VERTEX
  8
0
 10
139.274939
 20
119.734975
 42
-0.382744
  0
VERTEX
  8
0
 10
139.452976
 20
119.284082
 42
-0.084627
  0
SEQEND
  0
POLYLINE
  8
0
 66
1
 70
1
  0
VERTEX
  8
0
 10
166.701236
 20
117.367903
 42
0.144755
  0
VERTEX
  8
0
 10
166.154209
 20
116.361523
 42
0.063505
  0
VERTEX
  8
0
 10
166.026392
 20
114.834957
 42
0.064455
  0
VERTEX
  8
0
 10
166.281454
 20
113.367015
 42
0.181054
  0
VERTEX
  8
0
 10
166.909758
 20
112.555773
 42
0.162181
  0
VERTEX
  8
0
 10
168.250429
 20
112.239017
 42
0.134774
  0
VERTEX
  8
0
 10
169.629784
 20
112.754251
 42
0.129194
  0
VERTEX
  8
0
 10
170.593009
 20
113.925096
 42
0.144455
  0
VERTEX
  8
0
 10
170.802872
 20
115.367062
 42
0.122609
  0
VERTEX
  8
0
 10
170.253231
 20
116.718015
 42
0.122239
  0
VERTEX
  8
0
 10
169.133836
 20
117.655378
 42
0.138366
  0
VERTEX
  8
0
 10
167.815837
 20
117.893670
 42
0.174046
  0
SEQEND
  0
POLYLINE
  8
0
 66
1
 70
1
  0
VERTEX
  8
0
 10
222.578480
 20
117.250000
 42
0.064424
  0
VERTEX
  8
0
 10
222.205975
 20
116.769986
 42
0.011194
  0
VERTEX
  8
0
 10
221.645634
 20
115.765625
 42
0.012001
  0
VERTEX
  8
0
 10
221.039186
 20
114.549260
 42
0.010495
  0
VERTEX
  8
0
 10
220.462840
 20
113.250000
 42
-0.092301
  0
VERTEX
  8
0
 10
218.996808
 20
111.015312
 42
-0.168633
  0
VERTEX
  8
0
 10
217.076920
 20
110.035269
 42
-0.152461
  0
VERTEX
  8
0
 10
214.815698
 20
110.411159
 42
-0.071841
  0
VERTEX
  8
0
 10
212.365332
 20
112.126514
 42
0.075547
  0
VERTEX
  8
0
 10
210.391333
 20
113.486820
 42
0.198699
  0
VERTEX
  8
0
 10
208.708523
 20
113.588391
 42
0.189482
  0
VERTEX
  8
0
 10
207.390853
 20
112.463746
 42
0.068492
  0
VERTEX
  8
0
 10
206.524797
 20
110.112899
 42
-0.093373
  0
VERTEX
  8
0
 10
205.510604
 20
107.730132
 42
-0.170008
  0
VERTEX
  8
0
 10
203.840382
 20
106.472542
 42
-0.171900
  0
VERTEX
  8
0
 10
201.764907
 20
106.538735
 42
-0.095750
  0
VERTEX
  8
0
 10
199.600473
 20
107.905610
 42
0.053303
  0
VERTEX
  8
0
 10
197.277719
 20
109.662905
 42
0.203269
  0
VERTEX
  8
0
 10
195.517044
 20
109.911211
 42
0.222334
  0
VERTEX
  8
0
 10
194.220141
 20
108.822123
 42
0.063304
  0
VERTEX
  8
0
 10
193.401071
 20
106.250000
 42
-0.035313
  0
VERTEX
  8
0
 10
192.621585
 20
103.228145
 42
-0.189789
  0
VERTEX
  8
0
 10
191.549972
 20
101.951118
 42
-0.230675
  0
VERTEX
  8
0
 10
190.041240
 20
101.884537
 42
-0.052413
  0
VERTEX
  8
0
 10
187.747644
 20
103.179693
 42
0.037901
  0
VERTEX
  8
0
 10
185.609712
 20
104.469999
 42
0.251127
  0
VERTEX
  8
0
 10
184.405004
 20
104.440078
 42
0.177163
  0
VERTEX
  8
0
 10
183.494242
 20
103.365781
 42
0.018431
  0
VERTEX
  8
0
 10
182.449976
 20
100.168154
 42
-0.024016
  0
VERTEX
  8
0
 10
181.815687
 20
98.296972
 42
-0.096634
  0
VERTEX
  8
0
 10
181.169884
 20
97.283897
 42
-0.147216
  0
VERTEX
  8
0
 10
180.347255
 20
96.814771
 42
-0.084978
  0
VERTEX
  8
0
 10
179.199976
 20
96.750000
 42
0.005365
  0
VERTEX
  8
0
 10
174.449586
 20
97.238254
 42
0.128925
  0
VERTEX
  8
0
 10
173.141524
 20
97.020788
 42
0.237433
  0
VERTEX
  8
0
 10
172.459479
 20
96.183175
 42
0.023013
  0
VERTEX
  8
0
 10
172.000000
 20
93.524492
 42
-0.082188
  0
VERTEX
  8
0
 10
171.124364
 20
90.580733
 42
-0.116409
  0
VERTEX
  8
0
 10
169.401932
 20
88.471985
 42
-0.141039
  0
VERTEX
  8
0
 10
167.181315
 20
87.600742
 42
-0.147316
  0
VERTEX
  8
0
 10
164.879069
 20
88.064720
 42
0.128951
  0
VERTEX
  8
0
 10
160.800449
 20
89.040855
 42
0.115879
  0
VERTEX
  8
0
 10
156.584261
 20
87.953931
 42
0.111420
  0
VERTEX
  8
0
 10
153.169889
 20
85.048987
 42
0.112096
  0
VERTEX
  8
0
 10
151.343094
 20
80.965472
 42
-0.056866
  0
VERTEX
  8
0
 10
150.894258
 20
79.569126
 42
-0.027788
  0
VERTEX
  8
0
 10
150.029153
 20
77.908130
 42
-0.027143
  0
VERTEX
  8
0
 10
148.926435
 20
76.261233
 42
-0.035293
  0
VERTEX
  8
0
 10
147.736713
 20
74.890559
 42
-0.053945
  0
VERTEX
  8
0
 10
144.125093
 20
71.984214
 42
-0.025371
  0
VERTEX
  8
0
 10
138.916458
 20
69.008194
 42
-0.024056
  0
VERTEX
  8
0
 10
133.656622
 20
66.657633
 42
-0.093310
  0
VERTEX
  8
0
 10
130.163375
 20
66.000000
 42
0.130941
  0
VERTEX
  8
0
 10
125.897241
 20
64.863291
 42
0.140414
  0
VERTEX
  8
0
 10
122.896011
 20
61.774325
 42
0.159675
  0
VERTEX
  8
0
 10
122.205789
 20
57.877620
 42
0.175228
  0
VERTEX
  8
0
 10
124.000000
 20
54.500000
 42
-0.053316
  0
VERTEX
  8
0
 10
124.765447
 20
53.642433
 42
-0.040842
  0
VERTEX
  8
0
 10
125.412500
 20
52.564286
 42
-0.041899
  0
VERTEX
  8
0
 10
125.854897
 20
51.440863
 42
-0.072978
  0
VERTEX
  8
0
 10
126.000000
 20
50.452001
 42
0.058067
  0
VERTEX
  8
0
 10
126.104395
 20
49.556113
 42
0.058998
  0
VERTEX
  8
0
 10
126.411906
 20
48.713334
 42
0.065057
  0
VERTEX
  8
0
 10
126.865606
 20
48.046817
 42
0.119768
  0
VERTEX
  8
0
 10
127.402234
 20
47.675890
 42
0.090596
  0
VERTEX
  8
0
 10
128.551598
 20
47.459954
 42
0.198520
  0
VERTEX
  8
0
 10
129.365812
 20
47.791725
 42
0.151102
  0
VERTEX
  8
0
 10
129.851463
 20
48.697892
 42
0.048049
  0
VERTEX
  8
0
 10
130.000000
 20
50.239991
 42
-0.212170
  0
VERTEX
  8
0
 10
130.564715
 20
51.510888
 42
-0.265487
  0
VERTEX
  8
0
 10
131.804293
 20
51.782250
 42
-0.132722
  0
VERTEX
  8
0
 10
133.452444
 20
50.731898
 42
-0.073272
  0
VERTEX
  8
0
 10
134.796952
 20
48.737771
 42
0.045681
  0
VERTEX
  8
0
 10
135.933730
 20
46.833745
 42
0.184386
  0
VERTEX
  8
0
 10
137.048240
 20
46.108985
 42
0.295225
  0
VERTEX
  8
0
 10
138.001813
 20
46.470347
 42
0.094944
  0
VERTEX
  8
0
 10
138.684472
 20
47.901423
 42
-0.122118
  0
VERTEX
  8
0
 10
139.162819
 20
48.779508
 42
-0.065070
  0
VERTEX
  8
0
 10
140.115506
 20
49.580308
 42
-0.050994
  0
VERTEX
  8
0
 10
141.499993
 20
50.278600
 42
-0.029173
  0
VERTEX
  8
0
 10
143.286062
 20
50.844642
 42
0.000000
  0
VERTEX
  8
0
 10
147.390419
 20
51.886438
 42
0.000000
  0
VERTEX
  8
0
 10
144.445210
 20
49.493130
 42
-0.018275
  0
VERTEX
  8
0
 10
143.114049
 20
48.489893
 42
-0.012774
  0
VERTEX
  8
0
 10
141.545834
 20
47.454039
 42
-0.012908
  0
VERTEX
  8
0
 10
139.989720
 20
46.537303
 42
-0.026024
  0
VERTEX
  8
0
 10
138.710821
 20
45.912362
 42
-0.024619
  0
VERTEX
  8
0
 10
137.145689
 20
45.335240
 42
-0.113001
  0
VERTEX
  8
0
 10
136.187293
 20
45.259375
 42
-0.147168
  0
VERTEX
  8
0
 10
135.426973
 20
45.615734
 42
-0.052271
  0
VERTEX
  8
0
 10
134.612525
 20
46.515226
 42
0.119676
  0
VERTEX
  8
0
 10
133.357942
 20
47.574533
 42
0.267530
  0
VERTEX
  8
0
 10
132.154706
 20
47.502456
 42
0.187940
  0
VERTEX
  8
0
 10
131.296112
 20
46.291111
 42
0.070404
  0
VERTEX
  8
0
 10
131.075180
 20
44.184262
 42
-0.023495
  0
VERTEX
  8
0
 10
131.062244
 20
42.995988
 42
-0.015734
  0
VERTEX
  8
0
 10
130.940954
 20
41.641832
 42
-0.015862
  0
VERTEX
  8
0
 10
130.739987
 20
40.334396
 42
-0.029881
  0
VERTEX
  8
0
 10
130.482125
 20
39.298570
 42
0.077015
  0
VERTEX
  8
0
 10
130.304241
 20
38.121596
 42
0.098074
  0
VERTEX
  8
0
 10
130.521117
 20
37.047563
 42
0.076561
  0
VERTEX
  8
0
 10
131.191575
 20
35.948092
 42
0.030752
  0
VERTEX
  8
0
 10
132.410283
 20
34.670728
 42
0.100631
  0
VERTEX
  8
0
 10
136.597267
 20
32.121933
 42
0.074594
  0
VERTEX
  8
0
 10
141.923851
 20
31.057009
 42
0.064851
  0
VERTEX
  8
0
 10
148.030841
 20
31.553425
 42
0.047952
  0
VERTEX
  8
0
 10
154.500000
 20
33.600460
 42
-0.004082
  0
VERTEX
  8
0
 10
157.355821
 20
34.788163
 42
-0.001952
  0
VERTEX
  8
0
 10
161.043352
 20
36.269823
 42
-0.001935
  0
VERTEX
  8
0
 10
164.906268
 20
37.787181
 42
-0.002757
  0
VERTEX
  8
0
 10
168.349710
 20
39.102606
 42
0.003826
  0
VERTEX
  8
0
 10
171.553079
 20
40.334174
 42
0.004011
  0
VERTEX
  8
0
 10
174.687158
 20
41.595830
 42
0.003849
  0
VERTEX
  8
0
 10
177.375440
 20
42.727450
 42
0.017782
  0
VERTEX
  8
0
 10
178.901003
 20
43.448807
 42
-0.059529
  0
VERTEX
  8
0
 10
180.521519
 20
44.055690
 42
-0.010659
  0
VERTEX
  8
0
 10
183.679285
 20
44.755525
 42
-0.011377
  0
VERTEX
  8
0
 10
187.434775
 20
45.415770
 42
-0.010058
  0
VERTEX
  8
0
 10
191.373782
 20
45.935403
 42
0.012153
  0
VERTEX
  8
0
 10
195.530904
 20
46.501543
 42
0.009961
  0
VERTEX
  8
0
 10
199.942457
 20
47.302392
 42
0.010094
  0
VERTEX
  8
0
 10
203.969908
 20
48.201685
 42
0.026041
  0
VERTEX
  8
0
 10
206.822488
 20
49.058973
 42
-0.001090
  0
VERTEX
  8
0
 10
209.140220
 20
49.883623
 42
-0.001167
  0
VERTEX
  8
0
 10
211.409433
 20
50.679486
 42
-0.001105
  0
VERTEX
  8
0
 10
213.362715
 20
51.354594
 42
-0.005497
  0
VERTEX
  8
0
 10
214.464942
 20
51.719335
 42
-0.465203
  0
VERTEX
  8
0
 10
214.842978
 20
51.481128
 42
-0.169672
  0
VERTEX
  8
0
 10
214.699519
 20
50.767810
 42
-0.037128
  0
VERTEX
  8
0
 10
213.584997
 20
49.169206
 42
-0.008538
  0
VERTEX
  8
0
 10
211.464942
 20
46.652865
 42
-0.016146
  0
VERTEX
  8
0
 10
208.834363
 20
43.826292
 42
-0.038227
  0
VERTEX
  8
0
 10
206.659898
 20
41.947459
 42
-0.048488
  0
VERTEX
  8
0
 10
204.578572
 20
40.701905
 42
-0.047371
  0
VERTEX
  8
0
 10
202.280239
 20
39.868924
 42
0.033124
  0
VERTEX
  8
0
 10
198.602010
 20
38.653034
 42
0.134752
  0
VERTEX
  8
0
 10
196.748004
 20
37.233727
 42
0.264825
  0
VERTEX
  8
0
 10
196.539260
 20
35.658772
 42
0.126708
  0
VERTEX
  8
0
 10
197.795812
 20
33.964258
 42
0.013017
  0
VERTEX
  8
0
 10
198.732843
 20
33.245059
 42
0.013131
  0
VERTEX
  8
0
 10
199.703361
 20
32.577762
 42
0.013033
  0
VERTEX
  8
0
 10
200.577928
 20
32.041551
 42
0.050591
  0
VERTEX
  8
0
 10
201.156777
 20
31.781074
 42
-0.150553
  0
VERTEX
  8
0
 10
201.598396
 20
31.465391
 42
-0.173028
  0
VERTEX
  8
0
 10
201.755141
 20
30.973799
 42
-0.090849
  0
VERTEX
  8
0
 10
201.592744
 20
30.230869
 42
-0.023752
  0
VERTEX
  8
0
 10
201.066395
 20
29.124060
 42
0.068353
  0
VERTEX
  8
0
 10
200.198832
 20
26.783058
 42
0.206338
  0
VERTEX
  8
0
 10
200.510951
 20
25.147399
 42
0.218025
  0
VERTEX
  8
0
 10
201.890248
 20
24.309418
 42
0.075659
  0
VERTEX
  8
0
 10
204.273103
 20
24.391456
 42
-0.027021
  0
VERTEX
  8
0
 10
206.031517
 20
24.623880
 42
-0.108752
  0
VERTEX
  8
0
 10
207.098150
 20
24.474369
 42
-0.140903
  0
VERTEX
  8
0
 10
207.852500
 20
23.917542
 42
-0.057736
  0
VERTEX
  8
0
 10
208.512542
 20
22.815458
 42
0.068078
  0
VERTEX
  8
0
 10
209.652897
 20
20.997441
 42
0.199817
  0
VERTEX
  8
0
 10
210.937637
 20
20.328277
 42
0.176963
  0
VERTEX
  8
0
 10
212.432754
 20
20.733299
 42
0.052182
  0
VERTEX
  8
0
 10
214.247854
 20
22.322431
 42
-0.022193
  0
VERTEX
  8
0
 10
215.683928
 20
23.740267
 42
-0.134045
  0
VERTEX
  8
0
 10
216.609887
 20
24.208442
 42
-0.144738
  0
VERTEX
  8
0
 10
217.609394
 20
24.122418
 42
-0.027329
  0
VERTEX
  8
0
 10
219.294091
 20
23.353895
 42
0.029416
  0
VERTEX
  8
0
 10
220.419788
 20
22.846036
 42
0.035931
  0
VERTEX
  8
0
 10
221.525418
 20
22.512288
 42
0.038845
  0
VERTEX
  8
0
 10
222.466671
 20
22.376109
 42
0.156152
  0
VERTEX
  8
0
 10
223.023713
 20
22.514655
 42
0.218092
  0
VERTEX
  8
0
 10
223.777686
 20
23.646204
 42
0.051262
  0
VERTEX
  8
0
 10
223.907939
 20
25.975231
 42
0.046689
  0
VERTEX
  8
0
 10
223.514106
 20
28.772398
 42
0.044295
  0
VERTEX
  8
0
 10
222.604995
 20
31.500000
 42
-0.036679
  0
VERTEX
  8
0
 10
221.961685
 20
33.336535
 42
-0.123650
  0
VERTEX
  8
0
 10
221.939521
 20
34.599084
 42
-0.093260
  0
VERTEX
  8
0
 10
222.519506
 20
35.917325
 42
-0.015818
  0
VERTEX
  8
0
 10
224.150099
 20
38.143904
 42
0.013580
  0
VERTEX
  8
0
 10
225.241400
 20
39.620168
 42
0.017255
  0
VERTEX
  8
0
 10
226.162842
 20
41.042327
 42
0.015355
  0
VERTEX
  8
0
 10
226.846562
 20
42.265527
 42
0.120323
  0
VERTEX
  8
0
 10
227.000000
 20
42.893904
 42
-0.091252
  0
VERTEX
  8
0
 10
227.077712
 20
43.316169
 42
-0.095770
  0
VERTEX
  8
0
 10
227.300220
 20
43.675084
 42
-0.099546
  0
VERTEX
  8
0
 10
227.632094
 20
43.915256
 42
-0.107412
  0
VERTEX
  8
0
 10
228.022024
 20
44.000000
 42
0.246126
  0
VERTEX
  8
0
 10
229.411939
 20
44.728307
 42
0.014766
  0
VERTEX
  8
0
 10
232.068781
 20
48.819547
 42
0.019438
  0
VERTEX
  8
0
 10
234.421473
 20
53.049879
 42
0.117709
  0
VERTEX
  8
0
 10
235.000000
 20
55.473274
 42
0.056039
  0
VERTEX
  8
0
 10
234.893047
 20
56.424554
 42
0.029270
  0
VERTEX
  8
0
 10
234.560257
 20
57.571305
 42
0.028700
  0
VERTEX
  8
0
 10
234.076207
 20
58.721473
 42
0.038839
  0
VERTEX
  8
0
 10
233.503004
 20
59.692248
 42
-0.110656
  0
VERTEX
  8
0
 10
232.941417
 20
61.056141
 42
-0.241500
  0
VERTEX
  8
0
 10
233.270440
 20
62.105848
 42
-0.070083
  0
VERTEX
  8
0
 10
234.806090
 20
63.280999
 42
-0.004647
  0
VERTEX
  8
0
 10
239.687038
 20
65.972604
 42
0.000000
  0
VERTEX
  8
0
 10
247.368068
 20
70.115699
 42
0.000000
  0
VERTEX
  8
0
 10
249.934034
 20
68.207524
 42
-0.084072
  0
VERTEX
  8
0
 10
251.914708
 20
66.138655
 42
-0.137686
  0
VERTEX
  8
0
 10
252.677864
 20
63.852778
 42
-0.089742
  0
VERTEX
  8
0
 10
252.277924
 20
60.803961
 42
-0.022241
  0
VERTEX
  8
0
 10
250.524595
 20
56.058436
 42
0.012780
  0
VERTEX
  8
0
 10
249.576263
 20
53.633792
 42
0.018301
  0
VERTEX
  8
0
 10
248.870622
 20
51.436021
 42
0.014364
  0
VERTEX
  8
0
 10
248.415080
 20
49.616732
 42
0.194965
  0
VERTEX
  8
0
 10
248.527563
 20
48.955402
 42
0.161837
  0
VERTEX
  8
0
 10
248.969698
 20
48.585762
 42
0.034747
  0
VERTEX
  8
0
 10
249.935577
 20
48.280649
 42
0.032901
  0
VERTEX
  8
0
 10
251.156770
 20
48.070110
 42
0.026243
  0
VERTEX
  8
0
 10
252.491629
 20
48.000000
 42
-0.031766
  0
VERTEX
  8
0
 10
254.133509
 20
47.895582
 42
-0.084145
  0
VERTEX
  8
0
 10
255.255495
 20
47.554750
 42
-0.112607
  0
VERTEX
  8
0
 10
256.007918
 20
46.937432
 42
-0.088257
  0
VERTEX
  8
0
 10
256.500000
 20
46.000000
 42
0.156119
  0
VERTEX
  8
0
 10
257.447833
 20
44.664072
 42
0.139800
  0
VERTEX
  8
0
 10
259.039138
 20
44.053830
 42
0.148090
  0
VERTEX
  8
0
 10
260.645049
 20
44.388830
 42
0.178018
  0
VERTEX
  8
0
 10
261.654940
 20
45.543172
 42
-0.047881
  0
VERTEX
  8
0
 10
262.051936
 20
46.340250
 42
-0.272148
  0
VERTEX
  8
0
 10
262.455228
 20
46.551021
 42
-0.157238
  0
VERTEX
  8
0
 10
263.001335
 20
46.344365
 42
-0.015471
  0
VERTEX
  8
0
 10
264.086310
 20
45.421890
 42
0.099104
  0
VERTEX
  8
0
 10
265.785914
 20
44.407709
 42
0.175603
  0
VERTEX
  8
0
 10
267.397978
 20
44.419351
 42
0.161960
  0
VERTEX
  8
0
 10
268.719498
 20
45.479330
 42
0.082120
  0
VERTEX
  8
0
 10
269.578609
 20
47.457180
 42
-0.054890
  0
VERTEX
  8
0
 10
269.952160
 20
48.463087
 42
-0.069227
  0
VERTEX
  8
0
 10
270.515133
 20
49.279877
 42
-0.080847
  0
VERTEX
  8
0
 10
271.193848
 20
49.815104
 42
-0.127281
  0
VERTEX
  8
0
 10
271.908408
 20
50.000000
 42
0.164855
  0
VERTEX
  8
0
 10
274.364767
 20
50.832509
 42
0.274933
  0
VERTEX
  8
0
 10
275.151396
 20
52.798271
 42
0.106177
  0
VERTEX
  8
0
 10
273.832550
 20
56.223735
 42
0.023427
  0
VERTEX
  8
0
 10
270.122940
 20
61.355357
 42
-0.045334
  0
VERTEX
  8
0
 10
267.753769
 20
64.954458
 42
-0.076827
  0
VERTEX
  8
0
 10
266.559307
 20
68.350498
 42
-0.083179
  0
VERTEX
  8
0
 10
266.495040
 20
71.754168
 42
-0.062572
  0
VERTEX
  8
0
 10
267.502938
 20
75.366733
 42
0.021846
  0
VERTEX
  8
0
 10
268.085538
 20
76.946193
 42
0.025352
  0
VERTEX
  8
0
 10
268.495772
 20
78.494540
 42
0.025594
  0
VERTEX
  8
0
 10
268.705908
 20
79.820863
 42
0.118642
  0
VERTEX
  8
0
 10
268.605868
 20
80.584708
 42
-0.072481
  0
VERTEX
  8
0
 10
268.479473
 20
81.145457
 42
-0.074812
  0
VERTEX
  8
0
 10
268.520584
 20
81.712641
 42
-0.081748
  0
VERTEX
  8
0
 10
268.717614
 20
82.199099
 42
-0.117855
  0
VERTEX
  8
0
 10
269.043674
 20
82.526992
 42
0.119128
  0
VERTEX
  8
0
 10
269.410804
 20
82.898045
 42
0.048534
  0
VERTEX
  8
0
 10
269.719079
 20
83.542872
 42
0.044395
  0
VERTEX
  8
0
 10
269.929239
 20
84.332155
 42
0.042901
  0
VERTEX
  8
0
 10
270.000000
 20
85.155334
 42
-0.129824
  0
VERTEX
  8
0
 10
270.300441
 20
86.292939
 42
-0.017178
  0
VERTEX
  8
0
 10
271.615625
 20
88.434400
 42
-0.018973
  0
VERTEX
  8
0
 10
273.393916
 20
90.909307
 42
-0.014877
  0
VERTEX
  8
0
 10
275.500000
 20
93.457220
 42
0.008388
  0
VERTEX
  8
0
 10
277.607139
 20
95.940080
 42
0.012007
  0
VERTEX
  8
0
 10
279.384375
 20
98.216193
 42
0.007969
  0
VERTEX
  8
0
 10
280.780177
 20
100.159047
 42
0.152938
  0
VERTEX
  8
0
 10
281.000000
 20
100.860902
 42
-0.069916
  0
VERTEX
  8
0
 10
281.061175
 20
101.296252
 42
-0.085792
  0
VERTEX
  8
0
 10
281.239659
 20
101.665390
 42
-0.100110
  0
VERTEX
  8
0
 10
281.504741
 20
101.912193
 42
-0.138411
  0
VERTEX
  8
0
 10
281.815859
 20
102.000000
 42
0.255704
  0
VERTEX
  8
0
 10
282.729394
 20
102.499872
 42
0.010330
  0
VERTEX
  8
0
 10
284.765561
 20
105.830060
 42
0.014700
  0
VERTEX
  8
0
 10
286.593693
 20
109.186608
 42
0.117873
  0
VERTEX
  8
0
 10
287.000000
 20
110.886155
 42
0.316361
  0
VERTEX
  8
0
 10
286.278114
 20
111.912889
 42
0.221527
  0
VERTEX
  8
0
 10
284.819131
 20
111.780033
 42
0.084419
  0
VERTEX
  8
0
 10
282.709589
 20
110.020211
 42
0.045460
  0
VERTEX
  8
0
 10
280.746879
 20
107.248983
 42
-0.016539
  0
VERTEX
  8
0
 10
279.413223
 20
105.114454
 42
-0.009305
  0
VERTEX
  8
0
 10
277.662095
 20
102.609727
 42
-0.009278
  0
VERTEX
  8
0
 10
275.798316
 20
100.144291
 42
-0.014969
  0
VERTEX
  8
0
 10
274.111570
 20
98.124555
 42
0.000000
  0
VERTEX
  8
0
 10
270.229381
 20
93.749109
 42
0.000000
  0
VERTEX
  8
0
 10
268.851216
 20
96.624555
 42
0.064190
  0
VERTEX
  8
0
 10
267.490390
 20
98.723781
 42
0.196140
  0
VERTEX
  8
0
 10
266.013949
 20
99.492592
 42
0.344412
  0
VERTEX
  8
0
 10
265.010284
 20
98.848348
 42
0.115910
  0
VERTEX
  8
0
 10
264.813667
 20
97.000000
 42
-0.003596
  0
VERTEX
  8
0
 10
265.896156
 20
87.839405
 42
-0.036031
  0
VERTEX
  8
0
 10
266.044068
 20
83.989392
 42
-0.073110
  0
VERTEX
  8
0
 10
265.544121
 20
81.235587
 42
-0.037746
  0
VERTEX
  8
0
 10
264.174609
 20
78.005472
 42
0.064279
  0
VERTEX
  8
0
 10
262.498653
 20
73.386720
 42
0.078676
  0
VERTEX
  8
0
 10
262.211314
 20
68.808196
 42
0.077018
  0
VERTEX
  8
0
 10
263.356075
 20
64.288830
 42
0.058515
  0
VERTEX
  8
0
 10
265.893252
 20
59.844291
 42
-0.005657
  0
VERTEX
  8
0
 10
267.862278
 20
57.111099
 42
-0.092776
  0
VERTEX
  8
0
 10
268.328088
 20
56.089931
 42
-0.342935
  0
VERTEX
  8
0
 10
268.077382
 20
55.525190
 42
-0.084593
  0
VERTEX
  8
0
 10
267.049104
 20
55.180449
 42
0.070634
  0
VERTEX
  8
0
 10
266.265977
 20
54.941854
 42
0.076049
  0
VERTEX
  8
0
 10
265.601924
 20
54.498604
 42
0.084542
  0
VERTEX
  8
0
 10
265.155317
 20
53.925211
 42
0.123891
  0
VERTEX
  8
0
 10
265.000000
 20
53.308004
 42
-0.040820
  0
VERTEX
  8
0
 10
264.939698
 20
52.570601
 42
-0.290502
  0
VERTEX
  8
0
 10
264.711831
 20
52.315274
 42
-0.219898
  0
VERTEX
  8
0
 10
264.324166
 20
52.376316
 42
-0.025916
  0
VERTEX
  8
0
 10
263.605946
 20
52.912073
 42
0.061744
  0
VERTEX
  8
0
 10
262.848350
 20
53.397018
 42
0.142626
  0
VERTEX
  8
0
 10
262.187631
 20
53.505489
 42
0.124803
  0
VERTEX
  8
0
 10
261.513855
 20
53.244975
 42
0.042058
  0
VERTEX
  8
0
 10
260.703073
 20
52.560216
 42
-0.017973
  0
VERTEX
  8
0
 10
259.822516
 20
51.740786
 42
-0.176004
  0
VERTEX
  8
0
 10
259.355803
 20
51.562405
 42
-0.269674
  0
VERTEX
  8
0
 10
258.996923
 20
51.763232
 42
-0.041873
  0
VERTEX
  8
0
 10
258.628512
 20
52.525699
 42
0.087588
  0
VERTEX
  8
0
 10
258.289796
 20
53.089308
 42
0.066446
  0
VERTEX
  8
0
 10
257.747684
 20
53.566924
 42
0.065788
  0
VERTEX
  8
0
 10
257.093005
 20
53.889778
 42
0.081874
  0
VERTEX
  8
0
 10
256.424396
 20
54.000000
 42
-0.069527
  0
VERTEX
  8
0
 10
255.710130
 20
54.099804
 42
-0.206221
  0
VERTEX
  8
0
 10
255.334952
 20
54.405936
 42
-0.172892
  0
VERTEX
  8
0
 10
255.261991
 20
54.934155
 42
-0.047314
  0
VERTEX
  8
0
 10
255.514094
 20
55.750000
 42
0.040902
  0
VERTEX
  8
0
 10
255.826963
 20
56.718377
 42
0.010289
  0
VERTEX
  8
0
 10
256.173119
 20
58.341128
 42
0.010434
  0
VERTEX
  8
0
 10
256.492968
 20
60.218830
 42
0.010348
  0
VERTEX
  8
0
 10
256.735188
 20
62.113414
 42
0.031280
  0
VERTEX
  8
0
 10
256.861767
 20
64.993336
 42
0.100457
  0
VERTEX
  8
0
 10
256.447033
 20
66.857992
 42
0.069421
  0
VERTEX
  8
0
 10
255.254646
 20
68.769555
 42
0.009891
  0
VERTEX
  8
0
 10
252.212680
 20
72.265151
 42
-0.011445
  0
VERTEX
  8
0
 10
250.242345
 20
74.543563
 42
-0.013131
  0
VERTEX
  8
0
 10
248.469534
 20
76.809661
 42
-0.012294
  0
VERTEX
  8
0
 10
247.070435
 20
78.798647
 42
-0.070391
  0
VERTEX
  8
0
 10
246.513138
 20
79.958607
 42
0.061984
  0
VERTEX
  8
0
 10
246.118835
 20
80.815780
 42
0.089578
  0
VERTEX
  8
0
 10
245.561710
 20
81.433793
 42
0.103698
  0
VERTEX
  8
0
 10
244.890805
 20
81.759393
 42
0.111851
  0
VERTEX
  8
0
 10
244.164562
 20
81.775662
 42
0.188148
  0
VERTEX
  8
0
 10
243.202720
 20
81.155990
 42
0.129693
  0
VERTEX
  8
0
 10
242.730575
 20
79.933534
 42
0.076243
  0
VERTEX
  8
0
 10
242.808919
 20
78.049591
 42
0.028808
  0
VERTEX
  8
0
 10
243.466285
 20
75.489590
 42
-0.166305
  0
VERTEX
  8
0
 10
243.441115
 20
74.270275
 42
-0.122107
  0
VERTEX
  8
0
 10
242.679399
 20
73.140576
 42
-0.051639
  0
VERTEX
  8
0
 10
240.848625
 20
71.801932
 42
-0.008235
  0
VERTEX
  8
0
 10
236.973279
 20
69.625578
 42
0.000000
  0
VERTEX
  8
0
 10
229.838603
 20
65.771977
 42
0.000000
  0
VERTEX
  8
0
 10
226.437113
 20
67.603800
 42
0.019121
  0
VERTEX
  8
0
 10
224.686885
 20
68.461730
 42
0.069747
  0
VERTEX
  8
0
 10
223.500478
 20
68.800649
 42
0.116157
  0
VERTEX
  8
0
 10
222.608254
 20
68.718073
 42
0.115974
  0
VERTEX
  8
0
 10
221.846049
 20
68.246049
 42
0.240067
  0
VERTEX
  8
0
 10
221.560354
 20
67.366838
 42
0.096372
  0
VERTEX
  8
0
 10
222.005407
 20
66.144515
 42
0.044515
  0
VERTEX
  8
0
 10
223.306760
 20
64.360820
 42
0.009563
  0
VERTEX
  8
0
 10
225.885523
 20
61.527526
 42
0.000000
  0
VERTEX
  8
0
 10
231.114572
 20
55.998578
 42
0.000000
  0
VERTEX
  8
0
 10
228.307286
 20
50.946428
 42
-0.021335
  0
VERTEX
  8
0
 10
226.918992
 20
48.681263
 42
-0.011807
  0
VERTEX
  8
0
 10
225.044050
 20
46.033285
 42
-0.011756
  0
VERTEX
  8
0
 10
223.014321
 20
43.435444
 42
-0.018526
  0
VERTEX
  8
0
 10
221.140545
 20
41.315345
 42
0.013258
  0
VERTEX
  8
0
 10
218.727498
 20
38.642356
 42
0.065212
  0
VERTEX
  8
0
 10
217.620348
 20
36.943528
 42
0.099018
  0
VERTEX
  8
0
 10
217.219064
 20
35.371636
 42
0.053409
  0
VERTEX
  8
0
 10
217.327674
 20
33.368207
 42
-0.017976
  0
VERTEX
  8
0
 10
217.559638
 20
31.521092
 42
-0.120709
  0
VERTEX
  8
0
 10
217.421385
 20
30.614150
 42
-0.220692
  0
VERTEX
  8
0
 10
216.922517
 20
30.154185
 42
-0.077763
  0
VERTEX
  8
0
 10
215.937129
 20
30.000000
 42
0.062304
  0
VERTEX
  8
0
 10
215.191749
 20
29.906758
 42
0.077552
  0
VERTEX
  8
0
 10
214.550412
 20
29.632812
 42
0.092685
  0
VERTEX
  8
0
 10
214.108917
 20
29.226987
 42
0.149080
  0
VERTEX
  8
0
 10
213.936614
 20
28.750000
 42
-0.209872
  0
VERTEX
  8
0
 10
213.820159
 20
28.517531
 42
-0.392017
  0
VERTEX
  8
0
 10
213.626183
 20
28.528125
 42
-0.077688
  0
VERTEX
  8
0
 10
213.322763
 20
28.958612
 42
-0.019179
  0
VERTEX
  8
0
 10
212.968838
 20
29.750000
 42
0.084439
  0
VERTEX
  8
0
 10
212.069294
 20
31.215003
 42
0.163404
  0
VERTEX
  8
0
 10
210.894764
 20
31.899566
 42
0.162963
  0
VERTEX
  8
0
 10
209.542731
 20
31.737466
 42
0.083884
  0
VERTEX
  8
0
 10
208.129237
 20
30.750000
 42
-0.037528
  0
VERTEX
  8
0
 10
207.498352
 20
30.216300
 42
-0.489934
  0
VERTEX
  8
0
 10
207.243870
 20
30.290582
 42
-0.146728
  0
VERTEX
  8
0
 10
207.202327
 20
30.782282
 42
-0.008760
  0
VERTEX
  8
0
 10
207.537645
 20
32.250000
 42
0.025352
  0
VERTEX
  8
0
 10
207.786413
 20
33.533595
 42
0.092740
  0
VERTEX
  8
0
 10
207.749942
 20
34.357986
 42
0.178948
  0
VERTEX
  8
0
 10
207.444942
 20
34.820172
 42
0.159672
  0
VERTEX
  8
0
 10
206.896182
 20
35.000000
 42
-0.442263
  0
VERTEX
  8
0
 10
206.673192
 20
35.245202
 42
-0.118808
  0
VERTEX
  8
0
 10
206.866729
 20
35.807812
 42
-0.048288
  0
VERTEX
  8
0
 10
207.559584
 20
36.692616
 42
-0.020075
  0
VERTEX
  8
0
 10
208.650424
 20
37.750000
 42
0.012184
  0
VERTEX
  8
0
 10
210.217509
 20
39.221790
 42
0.003656
  0
VERTEX
  8
0
 10
212.531642
 20
41.537456
 42
0.003663
  0
VERTEX
  8
0
 10
215.091464
 20
44.175081
 42
0.003964
  0
VERTEX
  8
0
 10
217.545170
 20
46.781766
 42
0.023133
  0
VERTEX
  8
0
 10
221.879937
 20
51.917853
 42
0.315794
  0
VERTEX
  8
0
 10
221.979422
 20
54.231838
 42
0.211472
  0
VERTEX
  8
0
 10
219.679794
 20
55.755611
 42
0.011858
  0
VERTEX
  8
0
 10
211.000000
 20
57.020194
 42
0.001427
  0
VERTEX
  8
0
 10
202.025082
 20
58.085146
 42
0.027176
  0
VERTEX
  8
0
 10
199.209179
 20
58.256889
 42
0.131367
  0
VERTEX
  8
0
 10
197.982672
 20
57.937614
 42
0.270014
  0
VERTEX
  8
0
 10
197.500000
 20
57.108986
 42
0.147059
  0
VERTEX
  8
0
 10
197.801864
 20
56.104848
 42
0.089668
  0
VERTEX
  8
0
 10
198.664284
 20
55.202740
 42
0.058633
  0
VERTEX
  8
0
 10
200.155397
 20
54.364958
 42
0.022482
  0
VERTEX
  8
0
 10
202.393128
 20
53.548613
 42
-0.025131
  0
VERTEX
  8
0
 10
203.089844
 20
53.290256
 42
-0.049306
  0
VERTEX
  8
0
 10
203.607233
 20
53.004990
 42
-0.082227
  0
VERTEX
  8
0
 10
203.882741
 20
52.739703
 42
-0.372300
  0
VERTEX
  8
0
 10
203.867817
 20
52.534484
 42
-0.156067
  0
VERTEX
  8
0
 10
202.921457
 20
52.046885
 42
-0.002589
  0
VERTEX
  8
0
 10
197.008252
 20
51.086856
 42
-0.001926
  0
VERTEX
  8
0
 10
190.979722
 20
50.163892
 42
-0.237697
  0
VERTEX
  8
0
 10
190.267958
 20
50.398709
 42
-0.299437
  0
VERTEX
  8
0
 10
190.210828
 20
50.675538
 42
-0.011084
  0
VERTEX
  8
0
 10
190.647229
 20
51.706196
 42
-0.016904
  0
VERTEX
  8
0
 10
191.257986
 20
52.949840
 42
-0.010684
  0
VERTEX
  8
0
 10
192.049499
 20
54.359322
 42
0.095718
  0
VERTEX
  8
0
 10
194.024938
 20
59.905152
 42
0.090125
  0
VERTEX
  8
0
 10
193.854096
 20
65.912797
 42
0.107260
  0
VERTEX
  8
0
 10
191.716747
 20
70.674629
 42
0.199491
  0
VERTEX
  8
0
 10
188.149674
 20
72.819551
 42
0.112944
  0
VERTEX
  8
0
 10
186.683143
 20
72.705867
 42
0.319112
  0
VERTEX
  8
0
 10
186.094227
 20
71.932315
 42
0.145508
  0
VERTEX
  8
0
 10
186.476491
 20
70.472333
 42
0.030372
  0
VERTEX
  8
0
 10
188.000000
 20
68.272871
 42
-0.128659
  0
VERTEX
  8
0
 10
189.764546
 20
64.219701
 42
-0.111306
  0
VERTEX
  8
0
 10
189.453145
 20
59.579440
 42
-0.093239
  0
VERTEX
  8
0
 10
187.028646
 20
54.860936
 42
-0.064741
  0
VERTEX
  8
0
 10
182.760155
 20
50.630632
 42
-0.043569
  0
VERTEX
  8
0
 10
180.774134
 20
49.372954
 42
-0.009808
  0
VERTEX
  8
0
 10
177.182694
 20
47.603302
 42
-0.010096
  0
VERTEX
  8
0
 10
172.942048
 20
45.719622
 42
-0.009629
  0
VERTEX
  8
0
 10
168.561737
 20
43.977335
 42
0.003613
  0
VERTEX
  8
0
 10
164.161347
 20
42.288087
 42
0.003803
  0
VERTEX
  8
0
 10
159.860553
 20
40.563451
 42
0.003642
  0
VERTEX
  8
0
 10
156.173523
 20
39.020818
 42
0.017051
  0
VERTEX
  8
0
 10
154.090208
 20
38.046020
 42
-0.020097
  0
VERTEX
  8
0
 10
152.421946
 20
37.277777
 42
-0.013233
  0
VERTEX
  8
0
 10
150.447798
 20
36.523628
 42
-0.013323
  0
VERTEX
  8
0
 10
148.484936
 20
35.890979
 42
-0.024932
  0
VERTEX
  8
0
 10
146.862715
 20
35.502068
 42
-0.065771
  0
VERTEX
  8
0
 10
143.618961
 20
35.326432
 42
-0.032167
  0
VERTEX
  8
0
 10
139.511935
 20
35.911789
 42
-0.025448
  0
VERTEX
  8
0
 10
135.799547
 20
36.886537
 42
-0.326718
  0
VERTEX
  8
0
 10
135.000000
 20
37.979527
 42
-0.172636
  0
VERTEX
  8
0
 10
135.369787
 20
39.018606
 42
-0.184398
  0
VERTEX
  8
0
 10
136.302498
 20
39.555482
 42
-0.136396
  0
VERTEX
  8
0
 10
137.600922
 20
39.407438
 42
-0.087955
  0
VERTEX
  8
0
 10
138.891754
 20
38.597961
 42
0.131903
  0
VERTEX
  8
0
 10
141.340175
 20
37.344154
 42
0.084081
  0
VERTEX
  8
0
 10
144.555906
 20
37.205112
 42
0.052981
  0
VERTEX
  8
0
 10
148.922837
 20
38.229537
 42
0.017476
  0
VERTEX
  8
0
 10
155.073924
 20
40.624045
 42
0.004907
  0
VERTEX
  8
0
 10
161.451829
 20
43.441655
 42
0.042409
  0
VERTEX
  8
0
 10
164.161540
 20
44.959400
 42
0.126585
  0
VERTEX
  8
0
 10
165.261374
 20
46.204260
 42
0.212673
  0
VERTEX
  8
0
 10
165.333570
 20
47.573113
 42
0.170521
  0
VERTEX
  8
0
 10
164.489982
 20
48.566162
 42
0.183696
  0
VERTEX
  8
0
 10
163.239836
 20
48.774922
 42
0.053933
  0
VERTEX
  8
0
 10
160.969485
 20
48.058561
 42
0.004852
  0
VERTEX
  8
0
 10
155.523337
 20
45.606132
 42
-0.004813
  0
VERTEX
  8
0
 10
151.099059
 20
43.613447
 42
-0.053668
  0
VERTEX
  8
0
 10
149.257490
 20
43.030997
 42
-0.196124
  0
VERTEX
  8
0
 10
148.290014
 20
43.215298
 42
-0.186996
  0
VERTEX
  8
0
 10
147.702864
 20
44.028247
 42
-0.125480
  0
VERTEX
  8
0
 10
147.697092
 20
44.971136
 42
-0.060929
  0
VERTEX
  8
0
 10
148.130413
 20
46.104299
 42
-0.049170
  0
VERTEX
  8
0
 10
148.956359
 20
47.350739
 42
-0.030845
  0
VERTEX
  8
0
 10
150.143197
 20
48.637191
 42
-0.041193
  0
VERTEX
  8
0
 10
152.066350
 20
50.197605
 42
-0.085418
  0
VERTEX
  8
0
 10
153.819034
 20
50.999051
 42
-0.054400
  0
VERTEX
  8
0
 10
156.208071
 20
51.359546
 42
-0.009146
  0
VERTEX
  8
0
 10
160.839792
 20
51.465076
 42
-0.004367
  0
VERTEX
  8
0
 10
165.833579
 20
51.443875
 42
-0.070008
  0
VERTEX
  8
0
 10
167.498586
 20
51.187519
 42
-0.259209
  0
VERTEX
  8
0
 10
168.145586
 20
50.521597
 42
-0.113319
  0
VERTEX
  8
0
 10
168.194005
 20
49.250000
 42
0.198616
  0
VERTEX
  8
0
 10
168.524988
 20
47.654227
 42
0.268878
  0
VERTEX
  8
0
 10
169.823713
 20
47.028757
 42
0.097589
  0
VERTEX
  8
0
 10
172.369859
 20
47.736359
 42
0.024891
  0
VERTEX
  8
0
 10
176.113633
 20
49.857110
 42
0.039170
  0
VERTEX
  8
0
 10
179.462688
 20
52.368757
 42
0.021694
  0
VERTEX
  8
0
 10
183.150713
 20
55.910399
 42
0.015894
  0
VERTEX
  8
0
 10
186.354289
 20
59.486701
 42
0.176472
  0
VERTEX
  8
0
 10
187.000000
 20
61.259229
 42
0.155199
  0
VERTEX
  8
0
 10
186.888252
 20
61.610573
 42
0.056579
  0
VERTEX
  8
0
 10
186.536355
 20
62.004647
 42
0.049279
  0
VERTEX
  8
0
 10
186.025584
 20
62.377341
 42
0.041393
  0
VERTEX
  8
0
 10
185.421633
 20
62.668446
 42
0.150951
  0
VERTEX
  8
0
 10
184.572656
 20
62.725214
 42
0.069365
  0
VERTEX
  8
0
 10
183.528924
 20
62.318728
 42
0.052131
  0
VERTEX
  8
0
 10
182.343433
 20
61.482984
 42
0.028113
  0
VERTEX
  8
0
 10
181.064695
 20
60.231975
 42
-0.042244
  0
VERTEX
  8
0
 10
179.296224
 20
58.596946
 42
-0.070973
  0
VERTEX
  8
0
 10
177.544240
 20
57.593679
 42
-0.051984
  0
VERTEX
  8
0
 10
175.221518
 20
56.939627
 42
-0.013681
  0
VERTEX
  8
0
 10
171.393062
 20
56.387436
 42
-0.010936
  0
VERTEX
  8
0
 10
168.388283
 20
56.104114
 42
-0.008097
  0
VERTEX
  8
0
 10
165.056087
 20
55.917490
 42
-0.008191
  0
VERTEX
  8
0
 10
161.902186
 20
55.843762
 42
-0.018193
  0
VERTEX
  8
0
 10
159.500000
 20
55.914386
 42
0.007780
  0
VERTEX
  8
0
 10
153.970318
 20
56.192287
 42
0.014929
  0
VERTEX
  8
0
 10
149.529975
 20
56.213595
 42
0.017810
  0
VERTEX
  8
0
 10
145.681735
 20
55.979821
 42
0.019885
  0
VERTEX
  8
0
 10
142.000000
 20
55.475790
 42
-0.005247
  0
VERTEX
  8
0
 10
139.280970
 20
55.022126
 42
-0.102356
  0
VERTEX
  8
0
 10
138.435228
 20
55.063745
 42
-0.478654
  0
VERTEX
  8
0
 10
138.270077
 20
55.428874
 42
-0.055600
  0
VERTEX
  8
0
 10
138.836090
 20
56.294370
 42
0.102073
  0
VERTEX
  8
0
 10
139.628025
 20
57.790577
 42
0.246262
  0
VERTEX
  8
0
 10
139.387096
 20
58.981868
 42
0.171665
  0
VERTEX
  8
0
 10
138.111619
 20
59.760917
 42
0.052122
  0
VERTEX
  8
0
 10
135.824352
 20
60.000000
 42
0.021939
  0
VERTEX
  8
0
 10
134.182982
 20
59.927945
 42
0.146102
  0
VERTEX
  8
0
 10
133.430519
 20
59.629237
 42
0.231626
  0
VERTEX
  8
0
 10
133.151021
 20
59.046958
 42
0.062100
  0
VERTEX
  8
0
 10
133.289749
 20
58.000000
 42
-0.040966
  0
VERTEX
  8
0
 10
133.424365
 20
57.233678
 42
-0.070464
  0
VERTEX
  8
0
 10
133.392877
 20
56.587500
 42
-0.106581
  0
VERTEX
  8
0
 10
133.210205
 20
56.157535
 42
-0.243840
  0
VERTEX
  8
0
 10
132.906380
 20
56.000000
 42
-0.206609
  0
VERTEX
  8
0
 10
132.559898
 20
56.149557
 42
-0.082769
  0
VERTEX
  8
0
 10
132.266249
 20
56.587500
 42
-0.063112
  0
VERTEX
  8
0
 10
132.066544
 20
57.234359
 42
-0.043375
  0
VERTEX
  8
0
 10
132.000000
 20
58.000000
 42
0.178182
  0
VERTEX
  8
0
 10
131.524918
 20
59.290811
 42
0.176892
  0
VERTEX
  8
0
 10
130.324836
 20
59.970478
 42
0.137377
  0
VERTEX
  8
0
 10
128.708916
 20
59.795446
 42
0.101460
  0
VERTEX
  8
0
 10
127.200000
 20
58.800000
 42
-0.020816
  0
VERTEX
  8
0
 10
126.605032
 20
58.252611
 42
-0.169813
  0
VERTEX
  8
0
 10
126.265103
 20
58.122433
 42
-0.348762
  0
VERTEX
  8
0
 10
126.063765
 20
58.272912
 42
-0.064544
  0
VERTEX
  8
0
 10
126.000000
 20
58.764816
 42
-0.319686
  0
VERTEX
  8
0
 10
127.480029
 20
60.843063
 42
-0.069057
  0
VERTEX
  8
0
 10
132.064745
 20
61.749681
 42
-0.062214
  0
VERTEX
  8
0
 10
137.306957
 20
61.398270
 42
-0.136937
  0
VERTEX
  8
0
 10
140.869321
 20
59.618263
 42
0.029315
  0
VERTEX
  8
0
 10
141.639979
 20
58.998938
 42
0.029494
  0
VERTEX
  8
0
 10
142.476267
 20
58.475365
 42
0.030864
  0
VERTEX
  8
0
 10
143.256993
 20
58.109064
 42
0.094525
  0
VERTEX
  8
0
 10
143.828741
 20
58.000000
 42
0.283021
  0
VERTEX
  8
0
 10
144.660088
 20
58.511554
 42
0.121528
  0
VERTEX
  8
0
 10
144.963615
 20
59.833494
 42
0.089294
  0
VERTEX
  8
0
 10
144.635066
 20
61.503184
 42
0.101823
  0
VERTEX
  8
0
 10
143.750000
 20
62.867880
 42
-0.056219
  0
VERTEX
  8
0
 10
143.255843
 20
63.496796
 42
-0.430806
  0
VERTEX
  8
0
 10
143.342192
 20
63.821522
 42
-0.140488
  0
VERTEX
  8
0
 10
143.920337
 20
63.949710
 42
-0.011153
  0
VERTEX
  8
0
 10
145.500000
 20
63.817880
 42
0.024428
  0
VERTEX
  8
0
 10
147.140179
 20
63.724749
 42
0.149173
  0
VERTEX
  8
0
 10
147.944461
 20
63.963258
 42
0.205839
  0
VERTEX
  8
0
 10
148.337965
 20
64.563430
 42
0.052450
  0
VERTEX
  8
0
 10
148.420599
 20
65.750000
 42
-0.175318
  0
VERTEX
  8
0
 10
148.893765
 20
67.217861
 42
-0.193093
  0
VERTEX
  8
0
 10
150.176820
 20
67.970252
 42
-0.094766
  0
VERTEX
  8
0
 10
152.469409
 20
67.878284
 42
-0.026598
  0
VERTEX
  8
0
 10
155.926540
 20
66.875764
 42
0.021937
  0
VERTEX
  8
0
 10
157.557311
 20
66.386347
 42
0.066053
  0
VERTEX
  8
0
 10
158.708637
 20
66.252449
 42
0.097703
  0
VERTEX
  8
0
 10
159.585211
 20
66.440128
 42
0.097443
  0
VERTEX
  8
0
 10
160.325764
 20
66.946746
 42
0.318302
  0
VERTEX
  8
0
 10
160.551567
 20
68.344002
 42
0.105123
  0
VERTEX
  8
0
 10
159.194579
 20
70.072465
 42
0.077671
  0
VERTEX
  8
0
 10
156.808282
 20
71.505183
 42
0.096719
  0
VERTEX
  8
0
 10
154.274206
 20
72.000000
 42
-0.016762
  0
VERTEX
  8
0
 10
152.752970
 20
72.051012
 42
-0.274196
  0
VERTEX
  8
0
 10
152.349302
 20
72.328529
 42
-0.243456
  0
VERTEX
  8
0
 10
152.372134
 20
72.843107
 42
-0.013674
  0
VERTEX
  8
0
 10
153.233365
 20
74.250000
 42
0.026862
  0
VERTEX
  8
0
 10
153.880190
 20
75.372039
 42
0.011654
  0
VERTEX
  8
0
 10
154.623320
 20
76.926590
 42
0.011493
  0
VERTEX
  8
0
 10
155.338551
 20
78.620015
 42
0.014983
  0
VERTEX
  8
0
 10
155.910159
 20
80.202222
 42
-0.037376
  0
VERTEX
  8
0
 10
156.533611
 20
81.712762
 42
-0.043292
  0
VERTEX
  8
0
 10
157.350237
 20
83.036728
 42
-0.048420
  0
VERTEX
  8
0
 10
158.254314
 20
84.034891
 42
-0.108099
  0
VERTEX
  8
0
 10
159.137144
 20
84.543528
 42
-0.052374
  0
VERTEX
  8
0
 10
160.911257
 20
84.908111
 42
-0.343205
  0
VERTEX
  8
0
 10
161.629853
 20
84.454388
 42
-0.198906
  0
VERTEX
  8
0
 10
161.577783
 20
83.330527
 42
-0.023649
  0
VERTEX
  8
0
 10
160.387622
 20
81.079045
 42
0.020713
  0
VERTEX
  8
0
 10
159.532128
 20
79.483407
 42
0.078126
  0
VERTEX
  8
0
 10
159.203614
 20
78.401464
 42
0.127266
  0
VERTEX
  8
0
 10
159.299693
 20
77.564688
 42
0.104859
  0
VERTEX
  8
0
 10
159.790897
 20
76.809103
 42
0.194782
  0
VERTEX
  8
0
 10
160.604242
 20
76.464602
 42
0.134271
  0
VERTEX
  8
0
 10
161.585029
 20
76.716126
 42
0.059639
  0
VERTEX
  8
0
 10
162.933059
 20
77.713780
 42
0.012270
  0
VERTEX
  8
0
 10
165.037834
 20
79.799292
 42
-0.018157
  0
VERTEX
  8
0
 10
167.331324
 20
82.018905
 42
-0.060961
  0
VERTEX
  8
0
 10
169.040331
 20
83.215777
 42
-0.078167
  0
VERTEX
  8
0
 10
170.746399
 20
83.806179
 42
-0.044315
  0
VERTEX
  8
0
 10
172.928973
 20
84.000000
 42
-0.049282
  0
VERTEX
  8
0
 10
175.132341
 20
83.782297
 42
-0.068353
  0
VERTEX
  8
0
 10
177.005191
 20
83.133543
 42
-0.050329
  0
VERTEX
  8
0
 10
179.017978
 20
81.841904
 42
-0.015303
  0
VERTEX
  8
0
 10
181.788776
 20
79.500000
 42
0.009639
  0
VERTEX
  8
0
 10
183.782107
 20
77.776137
 42
0.013542
  0
VERTEX
  8
0
 10
185.630307
 20
76.321875
 42
0.009764
  0
VERTEX
  8
0
 10
187.208880
 20
75.194767
 42
0.151272
  0
VERTEX
  8
0
 10
187.837912
 20
75.000000
 42
0.169796
  0
VERTEX
  8
0
 10
189.036209
 20
75.419011
 42
0.227416
  0
VERTEX
  8
0
 10
189.530723
 20
76.440634
 42
0.131813
  0
VERTEX
  8
0
 10
189.124645
 20
77.976155
 42
0.055668
  0
VERTEX
  8
0
 10
187.854769
 20
79.710989
 42
0.000000
  0
VERTEX
  8
0
 10
185.500000
 20
82.273923
 42
0.000000
  0
VERTEX
  8
0
 10
188.500000
 20
81.630202
 42
0.002976
  0
VERTEX
  8
0
 10
194.757690
 20
80.326374
 42
0.055190
  0
VERTEX
  8
0
 10
196.767555
 20
80.146624
 42
0.248968
  0
VERTEX
  8
0
 10
197.648328
 20
80.638237
 42
0.144415
  0
VERTEX
  8
0
 10
198.000000
 20
81.830417
 42
0.123913
  0
VERTEX
  8
0
 10
197.721057
 20
82.938693
 42
0.117141
  0
VERTEX
  8
0
 10
196.946951
 20
83.810058
 42
0.065096
  0
VERTEX
  8
0
 10
195.462000
 20
84.585420
 42
0.015633
  0
VERTEX
  8
0
 10
192.818499
 20
85.461259
 42
0.016664
  0
VERTEX
  8
0
 10
190.561136
 20
86.050534
 42
0.012792
  0
VERTEX
  8
0
 10
188.061405
 20
86.547995
 42
0.012980
  0
VERTEX
  8
0
 10
185.696873
 20
86.893031
 42
0.029744
  0
VERTEX
  8
0
 10
183.900286
 20
87.000000
 42
-0.014418
  0
VERTEX
  8
0
 10
182.353660
 20
87.044608
 42
-0.013993
  0
VERTEX
  8
0
 10
180.796584
 20
87.178303
 42
-0.014041
  0
VERTEX
  8
0
 10
179.435252
 20
87.372528
 42
-0.049192
  0
VERTEX
  8
0
 10
178.581787
 20
87.606989
 42
-0.125422
  0
VERTEX
  8
0
 10
177.334792
 20
88.489626
 42
-0.237363
  0
VERTEX
  8
0
 10
177.050134
 20
89.656867
 42
-0.223658
  0
VERTEX
  8
0
 10
177.820463
 20
90.635266
 42
-0.116460
  0
VERTEX
  8
0
 10
179.365141
 20
91.000000
 42
0.108050
  0
VERTEX
  8
0
 10
181.635817
 20
91.496492
 42
0.050787
  0
VERTEX
  8
0
 10
184.238347
 20
93.028420
 42
0.050708
  0
VERTEX
  8
0
 10
186.360703
 20
94.946304
 42
0.185752
  0
VERTEX
  8
0
 10
187.000000
 20
96.607764
 42
-0.078166
  0
VERTEX
  8
0
 10
187.099391
 20
97.239649
 42
-0.240862
  0
VERTEX
  8
0
 10
187.396040
 20
97.536685
 42
-0.163039
  0
VERTEX
  8
0
 10
187.913296
 20
97.531560
 42
-0.034985
  0
VERTEX
  8
0
 10
188.750000
 20
97.174764
 42
0.155355
  0
VERTEX
  8
0
 10
190.993043
 20
96.801781
 42
0.072873
  0
VERTEX
  8
0
 10
193.842917
 20
97.648983
 42
0.075825
  0
VERTEX
  8
0
 10
196.210594
 20
99.219936
 42
0.211478
  0
VERTEX
  8
0
 10
197.000000
 20
101.002868
 42
-0.065956
  0
VERTEX
  8
0
 10
197.176815
 20
102.337431
 42
-0.259681
  0
VERTEX
  8
0
 10
197.734563
 20
102.910809
 42
-0.221579
  0
VERTEX
  8
0
 10
198.597707
 20
102.784739
 42
-0.051107
  0
VERTEX
  8
0
 10
199.767904
 20
101.832096
 42
0.224920
  0
VERTEX
  8
0
 10
201.709510
 20
101.138889
 42
0.053820
  0
VERTEX
  8
0
 10
205.152282
 20
101.862223
 42
0.053729
  0
VERTEX
  8
0
 10
208.400374
 20
103.320457
 42
0.198986
  0
VERTEX
  8
0
 10
209.729599
 20
105.073987
 42
-0.023922
  0
VERTEX
  8
0
 10
210.168856
 20
106.476027
 42
-0.243484
  0
VERTEX
  8
0
 10
210.604453
 20
106.875108
 42
-0.193090
  0
VERTEX
  8
0
 10
211.249333
 20
106.798996
 42
-0.014821
  0
VERTEX
  8
0
 10
212.787560
 20
105.900598
 42
0.157213
  0
VERTEX
  8
0
 10
215.260930
 20
105.278585
 42
0.054866
  0
VERTEX
  8
0
 10
218.919467
 20
105.925900
 42
0.054926
  0
VERTEX
  8
0
 10
222.302438
 20
107.334258
 42
0.179970
  0
VERTEX
  8
0
 10
223.856219
 20
109.140359
 42
-0.019615
  0
VERTEX
  8
0
 10
224.335588
 20
110.294920
 42
-0.235511
  0
VERTEX
  8
0
 10
224.700894
 20
110.587585
 42
-0.255383
  0
VERTEX
  8
0
 10
225.134117
 20
110.459613
 42
-0.022696
  0
VERTEX
  8
0
 10
225.927038
 20
109.587913
 42
0.189622
  0
VERTEX
  8
0
 10
228.386283
 20
108.233937
 42
0.074464
  0
VERTEX
  8
0
 10
232.323197
 20
108.313356
 42
0.080286
  0
VERTEX
  8
0
 10
235.817966
 20
109.506701
 42
0.277166
  0
VERTEX
  8
0
 10
237.000000
 20
111.475249
 42
0.166978
  0
VERTEX
  8
0
 10
236.760963
 20
112.171067
 42
0.133212
  0
VERTEX
  8
0
 10
236.122736
 20
112.650361
 42
0.073293
  0
VERTEX
  8
0
 10
234.978513
 20
112.921819
 42
0.021656
  0
VERTEX
  8
0
 10
233.174314
 20
113.000000
 42
-0.036453
  0
VERTEX
  8
0
 10
231.254321
 20
113.140164
 42
-0.059816
  0
VERTEX
  8
0
 10
229.683534
 20
113.566847
 42
-0.062858
  0
VERTEX
  8
0
 10
228.312752
 20
114.334106
 42
-0.045225
  0
VERTEX
  8
0
 10
227.000000
 20
115.500000
 42
0.015658
  0
VERTEX
  8
0
 10
225.332050
 20
117.167603
 42
0.094557
  0
VERTEX
  8
0
 10
224.303187
 20
117.820454
 42
0.189185
  0
VERTEX
  8
0
 10
223.459462
 20
117.822920
 42
0.103150
  0
SEQEND
  0
POLYLINE
  8
0
 66
1
 70
1
  0
VERTEX
  8
0
 10
144.000000
 20
42.000000
 42
-0.099038
  0
VERTEX
  8
0
 10
143.923658
 20
41.618362
 42
-0.097945
  0
VERTEX
  8
0
 10
143.706250
 20
41.293750
 42
-0.097945
  0
VERTEX
  8
0
 10
143.381638
 20
41.076342
 42
-0.099038
  0
VERTEX
  8
0
 10
143.000000
 20
41.000000
 42
-0.099038
  0
VERTEX
  8
0
 10
142.618362
 20
41.076342
 42
-0.097945
  0
VERTEX
  8
0
 10
142.293750
 20
41.293750
 42
-0.097945
  0
VERTEX
  8
0
 10
142.076342
 20
41.618362
 42
-0.099038
  0
VERTEX
  8
0
 10
142.000000
 20
42.000000
 42
-0.099038
  0
VERTEX
  8
0
 10
142.076342
 20
42.381638
 42
-0.097945
  0
VERTEX
  8
0
 10
142.293750
 20
42.706250
 42
-0.097945
  0
VERTEX
  8
0
 10
142.618362
 20
42.923658
 42
-0.099038
  0
VERTEX
  8
0
 10
143.000000
 20
43.000000
 42
-0.099038
  0
VERTEX
  8
0
 10
143.381638
 20
42.923658
 42
-0.097945
  0
VERTEX
  8
0
 10
143.706250
 20
42.706250
 42
-0.097945
  0
VERTEX
  8
0
 10
143.923658
 20
42.381638
 42
-0.099038
  0
SEQEND
  0
POLYLINE
  8
0
 66
1
 70
1
  0
VERTEX
  8
0
 10
239.380569
 20
105.368404
 42
0.047480
  0
VERTEX
  8
0
 10
238.553031
 20
102.701613
 42
0.163894
  0
VERTEX
  8
0
 10
238.764759
 20
100.929242
 42
0.275799
  0
VERTEX
  8
0
 10
239.864443
 20
100.194878
 42
0.115855
  0
VERTEX
  8
0
 10
241.682783
 20
100.525976
 42
-0.023559
  0
VERTEX
  8
0
 10
242.441264
 20
100.814668
 42
-0.024142
  0
VERTEX
  8
0
 10
243.217425
 20
101.028060
 42
-0.024780
  0
VERTEX
  8
0
 10
243.905983
 20
101.146595
 42
-0.086166
  0
VERTEX
  8
0
 10
244.355260
 20
101.123672
 42
0.119594
  0
VERTEX
  8
0
 10
244.782206
 20
101.130151
 42
0.039316
  0
VERTEX
  8
0
 10
245.380411
 20
101.336270
 42
0.036553
  0
VERTEX
  8
0
 10
246.032427
 20
101.678615
 42
0.034053
  0
VERTEX
  8
0
 10
246.644133
 20
102.119620
 42
0.097839
  0
VERTEX
  8
0
 10
247.255132
 20
102.870547
 42
0.202167
  0
VERTEX
  8
0
 10
247.321166
 20
103.610530
 42
0.098848
  0
VERTEX
  8
0
 10
246.799044
 20
104.550543
 42
0.014980
  0
VERTEX
  8
0
 10
245.351782
 20
106.154706
 42
0.014668
  0
VERTEX
  8
0
 10
244.244707
 20
107.244388
 42
0.019489
  0
VERTEX
  8
0
 10
243.172789
 20
108.164195
 42
0.017108
  0
VERTEX
  8
0
 10
242.242952
 20
108.850720
 42
0.151589
  0
VERTEX
  8
0
 10
241.761882
 20
109.000000
 42
0.225342
  0
VERTEX
  8
0
 10
241.341273
 20
108.800298
 42
0.025968
  0
VERTEX
  8
0
 10
240.705998
 20
107.933219
 42
0.027229
  0
VERTEX
  8
0
 10
240.024724
 20
106.759574
 42
0.018931
  0
SEQEND
  0
POLYLINE
  8
0
 66
1
 70
1
  0
VERTEX
  8
0
 10
226.595559
 20
105.154618
 42
0.071420
  0
VERTEX
  8
0
 10
226.356208
 20
104.605386
 42
0.008832
  0
VERTEX
  8
0
 10
226.031408
 20
103.337147
 42
0.010283
  0
VERTEX
  8
0
 10
225.701363
 20
101.807342
 42
0.008339
  0
VERTEX
  8
0
 10
225.408734
 20
100.154618
 42
0.012747
  0
VERTEX
  8
0
 10
225.106696
 20
97.898276
 42
0.085862
  0
VERTEX
  8
0
 10
225.178318
 20
96.775898
 42
0.206860
  0
VERTEX
  8
0
 10
225.599405
 20
96.213857
 42
0.130696
  0
VERTEX
  8
0
 10
226.403577
 20
96.000000
 42
0.080040
  0
VERTEX
  8
0
 10
227.079645
 20
96.108923
 42
0.065506
  0
VERTEX
  8
0
 10
227.739608
 20
96.427967
 42
0.066599
  0
VERTEX
  8
0
 10
228.284147
 20
96.899937
 42
0.089553
  0
VERTEX
  8
0
 10
228.621838
 20
97.456909
 42
-0.124075
  0
VERTEX
  8
0
 10
229.055807
 20
98.073487
 42
-0.116398
  0
VERTEX
  8
0
 10
229.740118
 20
98.428755
 42
-0.079832
  0
VERTEX
  8
0
 10
230.730396
 20
98.515907
 42
-0.031473
  0
VERTEX
  8
0
 10
232.090453
 20
98.331909
 42
0.022713
  0
VERTEX
  8
0
 10
233.651789
 20
98.092777
 42
0.137426
  0
VERTEX
  8
0
 10
234.451690
 20
98.227273
 42
0.218495
  0
VERTEX
  8
0
 10
234.866310
 20
98.718685
 42
0.067758
  0
VERTEX
  8
0
 10
235.000000
 20
99.700686
 42
0.168008
  0
VERTEX
  8
0
 10
234.081615
 20
102.356699
 42
0.082526
  0
VERTEX
  8
0
 10
231.408225
 20
104.799236
 42
0.098575
  0
VERTEX
  8
0
 10
228.451127
 20
105.977291
 42
0.309286
  0
SEQEND
  0
POLYLINE
  8
0
 66
1
 70
1
  0
VERTEX
  8
0
 10
211.479044
 20
99.604087
 42
0.013301
  0
VERTEX
  8
0
 10
210.912872
 20
98.140806
 42
0.013920
  0
VERTEX
  8
0
 10
210.434469
 20
96.671345
 42
0.013694
  0
VERTEX
  8
0
 10
210.092260
 20
95.382453
 42
0.058099
  0
VERTEX
  8
0
 10
210.000000
 20
94.591136
 42
0.124559
  0
VERTEX
  8
0
 10
210.373471
 20
93.115224
 42
0.228552
  0
VERTEX
  8
0
 10
211.356762
 20
92.404707
 42
0.183271
  0
VERTEX
  8
0
 10
212.718494
 20
92.661201
 42
0.085568
  0
VERTEX
  8
0
 10
214.089651
 20
93.862386
 42
-0.034579
  0
VERTEX
  8
0
 10
214.842088
 20
94.670414
 42
-0.075511
  0
VERTEX
  8
0
 10
215.538276
 20
95.147869
 42
-0.130867
  0
VERTEX
  8
0
 10
216.099055
 20
95.255805
 42
-0.241306
  0
VERTEX
  8
0
 10
216.486715
 20
95.021495
 42
0.146782
  0
VERTEX
  8
0
 10
217.434404
 20
94.180635
 42
0.166329
  0
VERTEX
  8
0
 10
218.638569
 20
94.054197
 42
0.176359
  0
VERTEX
  8
0
 10
219.618182
 20
94.687852
 42
0.163308
  0
VERTEX
  8
0
 10
220.000000
 20
95.825686
 42
0.138681
  0
VERTEX
  8
0
 10
219.590154
 20
97.274919
 42
0.041889
  0
VERTEX
  8
0
 10
218.220211
 20
99.134468
 42
0.040105
  0
VERTEX
  8
0
 10
216.331837
 20
100.972758
 42
0.044011
  0
VERTEX
  8
0
 10
214.229044
 20
102.423202
 42
0.208044
  0
VERTEX
  8
0
 10
213.579548
 20
102.492062
 42
0.123928
  0
VERTEX
  8
0
 10
212.906027
 20
102.078002
 42
0.069512
  0
VERTEX
  8
0
 10
212.206222
 20
101.126595
 42
0.024907
  0
SEQEND
  0
POLYLINE
  8
0
 66
1
 70
1
  0
VERTEX
  8
0
 10
198.595559
 20
96.154618
 42
0.071420
  0
VERTEX
  8
0
 10
198.356208
 20
95.605386
 42
0.008832
  0
VERTEX
  8
0
 10
198.031408
 20
94.337147
 42
0.010283
  0
VERTEX
  8
0
 10
197.701363
 20
92.807342
 42
0.008339
  0
VERTEX
  8
0
 10
197.408734
 20
91.154618
 42
0.012747
  0
VERTEX
  8
0
 10
197.106696
 20
88.898276
 42
0.085862
  0
VERTEX
  8
0
 10
197.178318
 20
87.775898
 42
0.206860
  0
VERTEX
  8
0
 10
197.599405
 20
87.213857
 42
0.130696
  0
VERTEX
  8
0
 10
198.403577
 20
87.000000
 42
0.080040
  0
VERTEX
  8
0
 10
199.079645
 20
87.108923
 42
0.065506
  0
VERTEX
  8
0
 10
199.739608
 20
87.427967
 42
0.066599
  0
VERTEX
  8
0
 10
200.284147
 20
87.899937
 42
0.089553
  0
VERTEX
  8
0
 10
200.621838
 20
88.456909
 42
-0.124075
  0
VERTEX
  8
0
 10
201.055807
 20
89.073487
 42
-0.116398
  0
VERTEX
  8
0
 10
201.740118
 20
89.428755
 42
-0.079832
  0
VERTEX
  8
0
 10
202.730396
 20
89.515907
 42
-0.031473
  0
VERTEX
  8
0
 10
204.090453
 20
89.331909
 42
0.082386
  0
VERTEX
  8
0
 10
206.183478
 20
89.262824
 42
0.355043
  0
VERTEX
  8
0
 10
206.979075
 20
90.104822
 42
0.176350
  0
VERTEX
  8
0
 10
206.517780
 20
91.743766
 42
0.031059
  0
VERTEX
  8
0
 10
204.459531
 20
94.260218
 42
0.040300
  0
VERTEX
  8
0
 10
202.627610
 20
95.941580
 42
0.087608
  0
VERTEX
  8
0
 10
200.946462
 20
96.832340
 42
0.141389
  0
VERTEX
  8
0
 10
199.577539
 20
96.875555
 42
0.194359
  0
SEQEND
  0
POLYLINE
  8
0
 66
1
 70
1
  0
VERTEX
  8
0
 10
229.606989
 20
93.418213
 42
0.059133
  0
VERTEX
  8
0
 10
229.121105
 20
91.501589
 42
0.044659
  0
VERTEX
  8
0
 10
229.032242
 20
89.329782
 42
0.045072
  0
VERTEX
  8
0
 10
229.296541
 20
87.432980
 42
0.199768
  0
VERTEX
  8
0
 10
229.940053
 20
86.537049
 42
0.148888
  0
VERTEX
  8
0
 10
230.394919
 20
86.417033
 42
0.076163
  0
VERTEX
  8
0
 10
230.980088
 20
86.529370
 42
0.064852
  0
VERTEX
  8
0
 10
231.600957
 20
86.845705
 42
0.054727
  0
VERTEX
  8
0
 10
232.160525
 20
87.326758
 42
-0.071952
  0
VERTEX
  8
0
 10
232.774056
 20
87.818629
 42
-0.056297
  0
VERTEX
  8
0
 10
233.554405
 20
88.166781
 42
-0.057341
  0
VERTEX
  8
0
 10
234.375195
 20
88.326862
 42
-0.083653
  0
VERTEX
  8
0
 10
235.107613
 20
88.261608
 42
0.138580
  0
VERTEX
  8
0
 10
236.672864
 20
88.292335
 42
0.278703
  0
VERTEX
  8
0
 10
237.469089
 20
89.178211
 42
0.170740
  0
VERTEX
  8
0
 10
237.231129
 20
90.756134
 42
0.066671
  0
VERTEX
  8
0
 10
235.930455
 20
92.574028
 42
0.058201
  0
VERTEX
  8
0
 10
233.999709
 20
94.201385
 42
0.113319
  0
VERTEX
  8
0
 10
232.122666
 20
94.904464
 42
0.167893
  0
VERTEX
  8
0
 10
230.604218
 20
94.596710
 42
0.169531
  0
SEQEND
  0
POLYLINE
  8
0
 66
1
 70
1
  0
VERTEX
  8
0
 10
217.153496
 20
90.250000
 42
0.059447
  0
VERTEX
  8
0
 10
215.557747
 20
86.059538
 42
0.126014
  0
VERTEX
  8
0
 10
215.577099
 20
82.610367
 42
0.385158
  0
VERTEX
  8
0
 10
217.018303
 20
81.667810
 42
0.185596
  0
VERTEX
  8
0
 10
219.089651
 20
82.862386
 42
-0.034579
  0
VERTEX
  8
0
 10
219.842088
 20
83.670414
 42
-0.075511
  0
VERTEX
  8
0
 10
220.538276
 20
84.147869
 42
-0.130867
  0
VERTEX
  8
0
 10
221.099055
 20
84.255805
 42
-0.241306
  0
VERTEX
  8
0
 10
221.486715
 20
84.021495
 42
0.146807
  0
VERTEX
  8
0
 10
222.432866
 20
83.182084
 42
0.165415
  0
VERTEX
  8
0
 10
223.637319
 20
83.053570
 42
0.176046
  0
VERTEX
  8
0
 10
224.617562
 20
83.681994
 42
0.164508
  0
VERTEX
  8
0
 10
225.000000
 20
84.812909
 42
0.155872
  0
VERTEX
  8
0
 10
224.488026
 20
86.415302
 42
0.024707
  0
VERTEX
  8
0
 10
222.417686
 20
89.039760
 42
0.023271
  0
VERTEX
  8
0
 10
220.110665
 20
91.448402
 42
0.192426
  0
VERTEX
  8
0
 10
218.730465
 20
92.000000
 42
0.173153
  0
VERTEX
  8
0
 10
218.416547
 20
91.887928
 42
0.037905
  0
VERTEX
  8
0
 10
217.994940
 20
91.485938
 42
0.035215
  0
VERTEX
  8
0
 10
217.552938
 20
90.919980
 42
0.027515
  0
SEQEND
  0
POLYLINE
  8
0
 66
1
 70
1
  0
VERTEX
  8
0
 10
202.872238
 20
81.967904
 42
0.044422
  0
VERTEX
  8
0
 10
202.227282
 20
78.823564
 42
0.156774
  0
VERTEX
  8
0
 10
202.626971
 20
76.826119
 42
0.321937
  0
VERTEX
  8
0
 10
203.838691
 20
76.256597
 42
0.127986
  0
VERTEX
  8
0
 10
205.596643
 20
77.080207
 42
-0.066370
  0
VERTEX
  8
0
 10
206.412838
 20
77.592122
 42
-0.041314
  0
VERTEX
  8
0
 10
207.477673
 20
77.974855
 42
-0.040831
  0
VERTEX
  8
0
 10
208.611735
 20
78.182218
 42
-0.057447
  0
VERTEX
  8
0
 10
209.639025
 20
78.166260
 42
0.166853
  0
VERTEX
  8
0
 10
211.308494
 20
78.505300
 42
0.263763
  0
VERTEX
  8
0
 10
212.020284
 20
79.737014
 42
0.145675
  0
VERTEX
  8
0
 10
211.454000
 20
81.698234
 42
0.061627
  0
VERTEX
  8
0
 10
209.685549
 20
83.825686
 42
0.054537
  0
VERTEX
  8
0
 10
207.303679
 20
85.618506
 42
0.203349
  0
VERTEX
  8
0
 10
205.484538
 20
85.865649
 42
0.202207
  0
VERTEX
  8
0
 10
204.035774
 20
84.729059
 42
0.053910
  0
SEQEND
  0
POLYLINE
  8
0
 66
1
 70
1
  0
VERTEX
  8
0
 10
168.234665
 20
76.550353
 42
0.051787
  0
VERTEX
  8
0
 10
165.949863
 20
75.224974
 42
0.102435
  0
VERTEX
  8
0
 10
164.546362
 20
73.680175
 42
0.155100
  0
VERTEX
  8
0
 10
164.192801
 20
72.139680
 42
0.177648
  0
VERTEX
  8
0
 10
164.824836
 20
70.775164
 42
0.082491
  0
VERTEX
  8
0
 10
165.420478
 20
70.349219
 42
0.135046
  0
VERTEX
  8
0
 10
166.026030
 20
70.234195
 42
0.109877
  0
VERTEX
  8
0
 10
166.694435
 20
70.440687
 42
0.043582
  0
VERTEX
  8
0
 10
167.488874
 20
70.990766
 42
-0.043164
  0
VERTEX
  8
0
 10
168.376098
 20
71.606186
 42
-0.174186
  0
VERTEX
  8
0
 10
169.014822
 20
71.719291
 42
-0.159229
  0
VERTEX
  8
0
 10
169.614731
 20
71.402801
 42
-0.034555
  0
VERTEX
  8
0
 10
170.379552
 20
70.495610
 42
0.115865
  0
VERTEX
  8
0
 10
171.510354
 20
69.526161
 42
0.198494
  0
VERTEX
  8
0
 10
172.729342
 20
69.420915
 42
0.201053
  0
VERTEX
  8
0
 10
173.655827
 20
70.205385
 42
0.118398
  0
VERTEX
  8
0
 10
174.000000
 20
71.638472
 42
-0.122076
  0
VERTEX
  8
0
 10
174.169447
 20
72.322155
 42
-0.200101
  0
VERTEX
  8
0
 10
174.622721
 20
72.696192
 42
-0.105126
  0
VERTEX
  8
0
 10
175.464633
 20
72.768303
 42
-0.023045
  0
VERTEX
  8
0
 10
176.904800
 20
72.520909
 42
0.069542
  0
VERTEX
  8
0
 10
179.072572
 20
72.352911
 42
0.192208
  0
VERTEX
  8
0
 10
180.431739
 20
72.994942
 42
0.274388
  0
VERTEX
  8
0
 10
180.690785
 20
74.186240
 42
0.116502
  0
VERTEX
  8
0
 10
179.799071
 20
75.629501
 42
0.119374
  0
VERTEX
  8
0
 10
177.706480
 20
76.906083
 42
0.057737
  0
VERTEX
  8
0
 10
174.609965
 20
77.517052
 42
0.054988
  0
VERTEX
  8
0
 10
171.224676
 20
77.414090
 42
0.070591
  0
SEQEND
  0
ENDSEC
  0
EOF
