  0
SECTION
  2
HEADER
  9
$ACADVER
  1
AC1006
  9
$EXTMIN
 10
0.000000
 20
0.000000
 30
0.000000
  9
$EXTMAX
 10
319.000000
 20
319.000000
 30
0.000000
  0
ENDSEC
  0
SECTION
  2
ENTITIES
  0
POLYLINE
  8
0
 66
1
 70
1
  0
VERTEX
  8
0
 10
232.705245
 20
287.674264
 42
0.048322
  0
VERTEX
  8
0
 10
232.471527
 20
286.829247
 42
0.005362
  0
VERTEX
  8
0
 10
232.147085
 20
284.850835
 42
0.006492
  0
VERTEX
  8
0
 10
231.815973
 20
282.481270
 42
0.005215
  0
VERTEX
  8
0
 10
231.519518
 20
279.924264
 42
0.011949
  0
VERTEX
  8
0
 10
231.185425
 20
275.813578
 42
0.081380
  0
VERTEX
  8
0
 10
231.398476
 20
273.795930
 42
0.093051
  0
VERTEX
  8
0
 10
232.239659
 20
272.068568
 42
0.017954
  0
VERTEX
  8
0
 10
234.421262
 20
269.341036
 42
-0.020154
  0
VERTEX
  8
0
 10
235.790427
 20
267.613731
 42
-0.023380
  0
VERTEX
  8
0
 10
236.945488
 20
265.862963
 42
-0.023282
  0
VERTEX
  8
0
 10
237.773596
 20
264.310012
 42
-0.112815
  0
VERTEX
  8
0
 10
237.988911
 20
263.341036
 42
-0.120653
  0
VERTEX
  8
0
 10
237.822903
 20
262.680348
 42
-0.418545
  0
VERTEX
  8
0
 10
237.443593
 20
262.566454
 42
-0.090811
  0
VERTEX
  8
0
 10
236.740032
 20
263.137969
 42
-0.010003
  0
VERTEX
  8
0
 10
235.416433
 20
264.750000
 42
0.035239
  0
VERTEX
  8
0
 10
234.285638
 20
265.993654
 42
0.036919
  0
VERTEX
  8
0
 10
233.007889
 20
267.045313
 42
0.039661
  0
VERTEX
  8
0
 10
231.775141
 20
267.776835
 42
0.114567
  0
VERTEX
  8
0
 10
230.813978
 20
268.000000
 42
-0.081729
  0
VERTEX
  8
0
 10
229.724580
 20
268.179269
 42
-0.239333
  0
VERTEX
  8
0
 10
229.207668
 20
268.707279
 42
-0.103233
  0
VERTEX
  8
0
 10
229.098836
 20
269.800641
 42
-0.010581
  0
VERTEX
  8
0
 10
229.431528
 20
272.391966
 42
0.019076
  0
VERTEX
  8
0
 10
229.715946
 20
274.950675
 42
0.091866
  0
VERTEX
  8
0
 10
229.554834
 20
276.400606
 42
0.115087
  0
VERTEX
  8
0
 10
228.902773
 20
277.531448
 42
0.038035
  0
VERTEX
  8
0
 10
227.481249
 20
278.836090
 42
0.066868
  0
VERTEX
  8
0
 10
225.385697
 20
280.072312
 42
0.137235
  0
VERTEX
  8
0
 10
223.510130
 20
280.311181
 42
0.277113
  0
VERTEX
  8
0
 10
222.562461
 20
279.534201
 42
0.194805
  0
VERTEX
  8
0
 10
222.621004
 20
278.120958
 42
-0.065158
  0
VERTEX
  8
0
 10
223.056946
 20
276.691753
 42
-0.034897
  0
VERTEX
  8
0
 10
223.234421
 20
274.851887
 42
-0.020908
  0
VERTEX
  8
0
 10
223.193103
 20
272.171319
 42
-0.005069
  0
VERTEX
  8
0
 10
222.894830
 20
267.750000
 42
-0.021097
  0
VERTEX
  8
0
 10
222.650916
 20
265.721813
 42
-0.111231
  0
VERTEX
  8
0
 10
222.234253
 20
264.688916
 42
-0.172962
  0
VERTEX
  8
0
 10
221.514250
 20
264.171322
 42
-0.070303
  0
VERTEX
  8
0
 10
220.301812
 20
264.000000
 42
0.053556
  0
VERTEX
  8
0
 10
219.265845
 20
263.888717
 42
0.118686
  0
VERTEX
  8
0
 10
218.555044
 20
263.545112
 42
0.137861
  0
VERTEX
  8
0
 10
218.142961
 20
262.955827
 42
0.084263
  0
VERTEX
  8
0
 10
218.000000
 20
262.113544
 42
-0.129114
  0
VERTEX
  8
0
 10
217.751132
 20
261.165857
 42
-0.134905
  0
VERTEX
  8
0
 10
217.071420
 20
260.481244
 42
-0.074720
  0
VERTEX
  8
0
 10
215.783972
 20
259.979466
 42
-0.018408
  0
VERTEX
  8
0
 10
213.547280
 20
259.559361
 42
-0.021830
  0
VERTEX
  8
0
 10
211.583376
 20
259.351998
 42
-0.015317
  0
VERTEX
  8
0
 10
209.360533
 20
259.283262
 42
-0.015490
  0
VERTEX
  8
0
 10
207.224070
 20
259.348864
 42
-0.030953
  0
VERTEX
  8
0
 10
205.547280
 20
259.557108
 42
0.017156
  0
VERTEX
  8
0
 10
203.760374
 20
259.829249
 42
0.084243
  0
VERTEX
  8
0
 10
202.744713
 20
259.777138
 42
0.185672
  0
VERTEX
  8
0
 10
202.208659
 20
259.420919
 42
0.155515
  0
VERTEX
  8
0
 10
202.000000
 20
258.766278
 42
0.157493
  0
VERTEX
  8
0
 10
202.630864
 20
256.813120
 42
0.108138
  0
VERTEX
  8
0
 10
204.378148
 20
255.247811
 42
0.086010
  0
VERTEX
  8
0
 10
207.015748
 20
254.304448
 42
0.061066
  0
VERTEX
  8
0
 10
210.159866
 20
254.147414
 42
-0.015379
  0
VERTEX
  8
0
 10
212.524049
 20
254.245162
 42
-0.088317
  0
VERTEX
  8
0
 10
213.755779
 20
254.039289
 42
-0.166856
  0
VERTEX
  8
0
 10
214.451208
 20
253.485553
 42
-0.096343
  0
VERTEX
  8
0
 10
214.847826
 20
252.479684
 42
0.062598
  0
VERTEX
  8
0
 10
215.440290
 20
250.620693
 42
0.072822
  0
VERTEX
  8
0
 10
216.454490
 20
249.069124
 42
0.067099
  0
VERTEX
  8
0
 10
217.945814
 20
247.780880
 42
0.043446
  0
VERTEX
  8
0
 10
219.958903
 20
246.702901
 42
0.000000
  0
VERTEX
  8
0
 10
222.500000
 20
245.614152
 42
0.000000
  0
VERTEX
  8
0
 10
219.622759
 20
245.228376
 42
-0.067318
  0
VERTEX
  8
0
 10
218.021430
 20
245.230215
 42
-0.080118
  0
VERTEX
  8
0
 10
216.577488
 20
245.669730
 42
-0.059083
  0
VERTEX
  8
0
 10
215.032878
 20
246.667199
 42
-0.020520
  0
VERTEX
  8
0
 10
213.058524
 20
248.442853
 42
0.000000
  0
VERTEX
  8
0
 10
209.371529
 20
252.043107
 42
0.000000
  0
VERTEX
  8
0
 10
201.685764
 20
250.899992
 42
0.007350
  0
VERTEX
  8
0
 10
197.365722
 20
250.192415
 42
0.053195
  0
VERTEX
  8
0
 10
195.346588
 20
249.604502
 42
0.135414
  0
VERTEX
  8
0
 10
194.366870
 20
248.845992
 42
0.162095
  0
VERTEX
  8
0
 10
194.000000
 20
247.744071
 42
0.137025
  0
VERTEX
  8
0
 10
194.301685
 20
246.663901
 42
0.208818
  0
VERTEX
  8
0
 10
195.085506
 20
246.110962
 42
0.063455
  0
VERTEX
  8
0
 10
196.799060
 20
245.980638
 42
0.005301
  0
VERTEX
  8
0
 10
201.250000
 20
246.254419
 42
0.000000
  0
VERTEX
  8
0
 10
208.500000
 20
246.777573
 42
0.000000
  0
VERTEX
  8
0
 10
212.824878
 20
242.799171
 42
0.015009
  0
VERTEX
  8
0
 10
215.206303
 20
240.736989
 42
0.060095
  0
VERTEX
  8
0
 10
216.833443
 20
239.708640
 42
0.094385
  0
VERTEX
  8
0
 10
218.254372
 20
239.337696
 42
0.076735
  0
VERTEX
  8
0
 10
219.824878
 20
239.473131
 42
-0.000087
  0
VERTEX
  8
0
 10
221.013007
 20
239.762651
 42
-0.000058
  0
VERTEX
  8
0
 10
222.375120
 20
240.094149
 42
-0.000058
  0
VERTEX
  8
0
 10
223.696970
 20
240.415522
 42
-0.000114
  0
VERTEX
  8
0
 10
224.750000
 20
240.671154
 42
-0.174023
  0
VERTEX
  8
0
 10
226.384553
 20
240.496127
 42
-0.389507
  0
VERTEX
  8
0
 10
226.806696
 20
239.428918
 42
-0.089190
  0
VERTEX
  8
0
 10
225.385636
 20
237.080096
 42
-0.017744
  0
VERTEX
  8
0
 10
222.000000
 20
233.500000
 42
0.010309
  0
VERTEX
  8
0
 10
220.084546
 20
231.533920
 42
0.014591
  0
VERTEX
  8
0
 10
218.468750
 20
229.701129
 42
0.010630
  0
VERTEX
  8
0
 10
217.217896
 20
228.129129
 42
0.164167
  0
VERTEX
  8
0
 10
217.000000
 20
227.483373
 42
0.109963
  0
VERTEX
  8
0
 10
217.147240
 20
226.821974
 42
0.009878
  0
VERTEX
  8
0
 10
217.902749
 20
225.288793
 42
0.012472
  0
VERTEX
  8
0
 10
218.896182
 20
223.481288
 42
0.009421
  0
VERTEX
  8
0
 10
220.073189
 20
221.545645
 42
-0.017489
  0
VERTEX
  8
0
 10
221.739138
 20
218.703623
 42
-0.061310
  0
VERTEX
  8
0
 10
222.510649
 20
216.730644
 42
-0.069684
  0
VERTEX
  8
0
 10
222.730053
 20
214.764803
 42
-0.027178
  0
VERTEX
  8
0
 10
222.504739
 20
212.034460
 42
0.040718
  0
VERTEX
  8
0
 10
222.341874
 20
209.091595
 42
0.065957
  0
VERTEX
  8
0
 10
222.735198
 20
206.620224
 42
0.039737
  0
VERTEX
  8
0
 10
223.913273
 20
203.573697
 42
0.006809
  0
VERTEX
  8
0
 10
226.681550
 20
198.014736
 42
0.017110
  0
VERTEX
  8
0
 10
230.124853
 20
191.857024
 42
0.024703
  0
VERTEX
  8
0
 10
233.613022
 20
186.686354
 42
0.022682
  0
VERTEX
  8
0
 10
236.768797
 20
182.848933
 42
0.212413
  0
VERTEX
  8
0
 10
238.676947
 20
182.000000
 42
0.086266
  0
VERTEX
  8
0
 10
239.153401
 20
182.082819
 42
0.024556
  0
VERTEX
  8
0
 10
239.849846
 20
182.371797
 42
0.023950
  0
VERTEX
  8
0
 10
240.616926
 20
182.781251
 42
0.023298
  0
VERTEX
  8
0
 10
241.348679
 20
183.265693
 42
0.162400
  0
VERTEX
  8
0
 10
242.271136
 20
184.564845
 42
0.071842
  0
VERTEX
  8
0
 10
242.593667
 20
186.670237
 42
0.024854
  0
VERTEX
  8
0
 10
242.433364
 20
190.565918
 42
0.002187
  0
VERTEX
  8
0
 10
241.495474
 20
200.388025
 42
-0.003497
  0
VERTEX
  8
0
 10
240.927477
 20
206.505752
 42
-0.005568
  0
VERTEX
  8
0
 10
240.536571
 20
211.746675
 42
-0.001596
  0
VERTEX
  8
0
 10
240.263407
 20
216.284706
 42
-0.213751
  0
VERTEX
  8
0
 10
240.455666
 20
216.788999
 42
-0.194794
  0
VERTEX
  8
0
 10
240.660602
 20
216.875797
 42
-0.249629
  0
VERTEX
  8
0
 10
240.840102
 20
216.783848
 42
-0.113025
  0
VERTEX
  8
0
 10
240.962582
 20
216.479887
 42
-0.039508
  0
VERTEX
  8
0
 10
241.000000
 20
216.007080
 42
0.153577
  0
VERTEX
  8
0
 10
241.245281
 20
215.227352
 42
0.011725
  0
VERTEX
  8
0
 10
242.565315
 20
213.428229
 42
0.015247
  0
VERTEX
  8
0
 10
244.287542
 20
211.328447
 42
0.011004
  0
VERTEX
  8
0
 10
246.328733
 20
209.090413
 42
-0.018229
  0
VERTEX
  8
0
 10
249.210234
 20
205.837879
 42
-0.041600
  0
VERTEX
  8
0
 10
251.074730
 20
203.143758
 42
-0.041324
  0
VERTEX
  8
0
 10
252.474722
 20
200.167084
 42
-0.017770
  0
VERTEX
  8
0
 10
253.862527
 20
196.000000
 42
0.004152
  0
VERTEX
  8
0
 10
256.398790
 20
187.630923
 42
0.033653
  0
VERTEX
  8
0
 10
257.846891
 20
183.895600
 42
0.085134
  0
VERTEX
  8
0
 10
259.160378
 20
182.004140
 42
0.164084
  0
VERTEX
  8
0
 10
260.787202
 20
181.180449
 42
0.200500
  0
VERTEX
  8
0
 10
262.223480
 20
181.550763
 42
0.259409
  0
VERTEX
  8
0
 10
262.762720
 20
182.774397
 42
0.047018
  0
VERTEX
  8
0
 10
262.186002
 20
185.830562
 42
0.002752
  0
VERTEX
  8
0
 10
259.511407
 20
194.926486
 42
0.007430
  0
VERTEX
  8
0
 10
257.349570
 20
201.761179
 42
0.038755
  0
VERTEX
  8
0
 10
255.817105
 20
205.399216
 42
0.053409
  0
VERTEX
  8
0
 10
253.964748
 20
208.208929
 42
0.022396
  0
VERTEX
  8
0
 10
250.924775
 20
211.576171
 42
-0.016107
  0
VERTEX
  8
0
 10
248.981318
 20
213.675181
 42
-0.023230
  0
VERTEX
  8
0
 10
247.413670
 20
215.660929
 42
-0.020374
  0
VERTEX
  8
0
 10
246.302873
 20
217.352373
 42
-0.218923
  0
VERTEX
  8
0
 10
246.215674
 20
218.147022
 42
-0.141098
  0
VERTEX
  8
0
 10
246.499577
 20
218.560140
 42
-0.313468
  0
VERTEX
  8
0
 10
246.861703
 20
218.589472
 42
-0.116049
  0
VERTEX
  8
0
 10
247.324274
 20
218.151776
 42
-0.022644
  0
VERTEX
  8
0
 10
247.914979
 20
217.158863
 42
0.046215
  0
VERTEX
  8
0
 10
249.861309
 20
214.212368
 42
0.020977
  0
VERTEX
  8
0
 10
252.904860
 20
210.728714
 42
0.014617
  0
VERTEX
  8
0
 10
256.061784
 20
207.596045
 42
0.190327
  0
VERTEX
  8
0
 10
257.570908
 20
207.000000
 42
-0.114777
  0
VERTEX
  8
0
 10
258.244829
 20
206.843233
 42
-0.028983
  0
VERTEX
  8
0
 10
259.230907
 20
206.285093
 42
-0.028030
  0
VERTEX
  8
0
 10
260.312837
 20
205.497805
 42
-0.025079
  0
VERTEX
  8
0
 10
261.342818
 20
204.566273
 42
0.078494
  0
VERTEX
  8
0
 10
263.829486
 20
202.758036
 42
0.063294
  0
VERTEX
  8
0
 10
266.941578
 20
201.637374
 42
0.047452
  0
VERTEX
  8
0
 10
271.013171
 20
201.128277
 42
0.020331
  0
VERTEX
  8
0
 10
276.500000
 20
201.189182
 42
0.000000
  0
VERTEX
  8
0
 10
282.500000
 20
201.500000
 42
0.000000
  0
VERTEX
  8
0
 10
282.458084
 20
209.000000
 42
0.014285
  0
VERTEX
  8
0
 10
282.335138
 20
212.598163
 42
0.026151
  0
VERTEX
  8
0
 10
281.998378
 20
215.513223
 42
0.031973
  0
VERTEX
  8
0
 10
281.436710
 20
217.898822
 42
0.048657
  0
VERTEX
  8
0
 10
280.623267
 20
219.864359
 42
0.045889
  0
VERTEX
  8
0
 10
277.920226
 20
223.978020
 42
0.028864
  0
VERTEX
  8
0
 10
274.078470
 20
228.264249
 42
0.028966
  0
VERTEX
  8
0
 10
269.805470
 20
232.045353
 42
0.049405
  0
VERTEX
  8
0
 10
265.790146
 20
234.606341
 42
-0.007694
  0
VERTEX
  8
0
 10
262.274590
 20
236.456337
 42
-0.110373
  0
VERTEX
  8
0
 10
261.218153
 20
237.382260
 42
-0.655702
  0
VERTEX
  8
0
 10
261.462372
 20
237.799591
 42
-0.027421
  0
VERTEX
  8
0
 10
263.750000
 20
237.396914
 42
-0.074702
  0
VERTEX
  8
0
 10
265.133058
 20
236.847397
 42
-0.019374
  0
VERTEX
  8
0
 10
267.160937
 20
235.558824
 42
-0.019263
  0
VERTEX
  8
0
 10
269.383914
 20
233.892191
 42
-0.018577
  0
VERTEX
  8
0
 10
271.500000
 20
232.039981
 42
0.025271
  0
VERTEX
  8
0
 10
274.571869
 20
229.422937
 42
0.043266
  0
VERTEX
  8
0
 10
277.407122
 20
227.611183
 42
0.034254
  0
VERTEX
  8
0
 10
280.942254
 20
226.059334
 42
0.010364
  0
VERTEX
  8
0
 10
286.500000
 20
224.190109
 42
0.005210
  0
VERTEX
  8
0
 10
294.704155
 20
221.712406
 42
0.039220
  0
VERTEX
  8
0
 10
298.671412
 20
220.889699
 42
0.114596
  0
VERTEX
  8
0
 10
300.770007
 20
221.104758
 42
0.264752
  0
VERTEX
  8
0
 10
301.782919
 20
222.253024
 42
0.074378
  0
VERTEX
  8
0
 10
301.822812
 20
222.955384
 42
0.080613
  0
VERTEX
  8
0
 10
301.651728
 20
223.618147
 42
0.089083
  0
VERTEX
  8
0
 10
301.301456
 20
224.139935
 42
0.122137
  0
VERTEX
  8
0
 10
300.823907
 20
224.438558
 42
0.003188
  0
VERTEX
  8
0
 10
299.916954
 20
224.728466
 42
0.000164
  0
VERTEX
  8
0
 10
296.974769
 20
225.647246
 42
0.000260
  0
VERTEX
  8
0
 10
293.476139
 20
226.736536
 42
0.000189
  0
VERTEX
  8
0
 10
289.579561
 20
227.945885
 42
-0.010399
  0
VERTEX
  8
0
 10
283.838407
 20
229.857080
 42
-0.038950
  0
VERTEX
  8
0
 10
280.370557
 20
231.405778
 42
-0.046482
  0
VERTEX
  8
0
 10
277.500863
 20
233.330399
 42
-0.019530
  0
VERTEX
  8
0
 10
274.011080
 20
236.408021
 42
0.012289
  0
VERTEX
  8
0
 10
270.329470
 20
239.750803
 42
0.070065
  0
VERTEX
  8
0
 10
268.113904
 20
241.179431
 42
0.071738
  0
VERTEX
  8
0
 10
265.611954
 20
241.924923
 42
0.013231
  0
VERTEX
  8
0
 10
260.821690
 20
242.502023
 42
-0.010254
  0
VERTEX
  8
0
 10
257.832178
 20
242.844136
 42
-0.012986
  0
VERTEX
  8
0
 10
255.087250
 20
243.288296
 42
-0.011053
  0
VERTEX
  8
0
 10
252.824918
 20
243.766938
 42
-0.095867
  0
VERTEX
  8
0
 10
251.890171
 20
244.186334
 42
-0.394207
  0
VERTEX
  8
0
 10
251.817262
 20
244.533695
 42
-0.238160
  0
VERTEX
  8
0
 10
252.201631
 20
244.774179
 42
-0.041531
  0
VERTEX
  8
0
 10
253.579366
 20
244.785824
 42
-0.008555
  0
VERTEX
  8
0
 10
256.000000
 20
244.563296
 42
0.001195
  0
VERTEX
  8
0
 10
259.024767
 20
244.240266
 42
0.000273
  0
VERTEX
  8
0
 10
264.143750
 20
243.708777
 42
0.000282
  0
VERTEX
  8
0
 10
270.045311
 20
243.102657
 42
0.000275
  0
VERTEX
  8
0
 10
276.000000
 20
242.497786
 42
-0.001295
  0
VERTEX
  8
0
 10
281.808295
 20
241.895815
 42
-0.001555
  0
VERTEX
  8
0
 10
287.268750
 20
241.298423
 42
-0.001329
  0
VERTEX
  8
0
 10
291.866145
 20
240.768600
 42
-0.010391
  0
VERTEX
  8
0
 10
294.000000
 20
240.471860
 42
0.034376
  0
VERTEX
  8
0
 10
295.620178
 20
240.325269
 42
0.045085
  0
VERTEX
  8
0
 10
297.101798
 20
240.427070
 42
0.050311
  0
VERTEX
  8
0
 10
298.396857
 20
240.770542
 42
0.068131
  0
VERTEX
  8
0
 10
299.460428
 20
241.345841
 42
0.216203
  0
VERTEX
  8
0
 10
300.605390
 20
243.378173
 42
0.183310
  0
VERTEX
  8
0
 10
299.929653
 20
245.769544
 42
0.079617
  0
VERTEX
  8
0
 10
296.944810
 20
248.686582
 42
0.021216
  0
VERTEX
  8
0
 10
291.338338
 20
252.300630
 42
0.009492
  0
VERTEX
  8
0
 10
284.195057
 20
256.307306
 42
0.032517
  0
VERTEX
  8
0
 10
279.352726
 20
258.511591
 42
0.046947
  0
VERTEX
  8
0
 10
275.303633
 20
259.624994
 42
0.043658
  0
VERTEX
  8
0
 10
271.016970
 20
260.000000
 42
-0.031264
  0
VERTEX
  8
0
 10
268.298426
 20
260.170153
 42
-0.040687
  0
VERTEX
  8
0
 10
265.857949
 20
260.681008
 42
-0.036786
  0
VERTEX
  8
0
 10
263.350477
 20
261.628310
 42
-0.019765
  0
VERTEX
  8
0
 10
260.407283
 20
263.139235
 42
0.000000
  0
VERTEX
  8
0
 10
254.844864
 20
266.278470
 42
0.000000
  0
VERTEX
  8
0
 10
249.640987
 20
261.139235
 42
-0.018286
  0
VERTEX
  8
0
 10
246.232233
 20
258.010570
 42
-0.059106
  0
VERTEX
  8
0
 10
243.678867
 20
256.308566
 42
-0.296869
  0
VERTEX
  8
0
 10
242.601520
 20
256.424612
 42
-0.323843
  0
VERTEX
  8
0
 10
242.334376
 20
257.428986
 42
0.025357
  0
VERTEX
  8
0
 10
242.589135
 20
258.208951
 42
0.006539
  0
VERTEX
  8
0
 10
242.919240
 20
259.491448
 42
0.006638
  0
VERTEX
  8
0
 10
243.257603
 20
260.965957
 42
0.006712
  0
VERTEX
  8
0
 10
243.555373
 20
262.443471
 42
0.042866
  0
VERTEX
  8
0
 10
243.770176
 20
264.589371
 42
0.103080
  0
VERTEX
  8
0
 10
243.467903
 20
266.149760
 42
0.072968
  0
VERTEX
  8
0
 10
242.491087
 20
267.770286
 42
0.014145
  0
VERTEX
  8
0
 10
240.240391
 20
270.355033
 42
0.000000
  0
VERTEX
  8
0
 10
236.252765
 20
274.681096
 42
0.000000
  0
VERTEX
  8
0
 10
237.157509
 20
280.450579
 42
0.013352
  0
VERTEX
  8
0
 10
237.513065
 20
283.194813
 42
0.034235
  0
VERTEX
  8
0
 10
237.580501
 20
285.195030
 42
0.048636
  0
VERTEX
  8
0
 10
237.388138
 20
286.644564
 42
0.116420
  0
VERTEX
  8
0
 10
236.908682
 20
287.610031
 42
0.085295
  0
VERTEX
  8
0
 10
235.759652
 20
288.593457
 42
0.131357
  0
VERTEX
  8
0
 10
234.508124
 20
288.948599
 42
0.161357
  0
VERTEX
  8
0
 10
233.424173
 20
288.607731
 42
0.145962
  0
SEQEND
  0
POLYLINE
  8
0
 66
1
 70
1
  0
VERTEX
  8
0
 10
232.000000
 20
260.649191
 42
-0.188343
  0
VERTEX
  8
0
 10
231.359851
 20
259.010051
 42
-0.011971
  0
VERTEX
  8
0
 10
227.706944
 20
255.232238
 42
-0.012090
  0
VERTEX
  8
0
 10
223.879083
 20
251.636885
 42
-0.184530
  0
VERTEX
  8
0
 10
222.212148
 20
251.000000
 42
-0.438577
  0
VERTEX
  8
0
 10
221.238527
 20
252.057408
 42
-0.103469
  0
VERTEX
  8
0
 10
222.008798
 20
254.651278
 42
-0.060186
  0
VERTEX
  8
0
 10
224.343832
 20
257.956219
 42
-0.061211
  0
VERTEX
  8
0
 10
227.386762
 20
260.588720
 42
-0.025333
  0
VERTEX
  8
0
 10
229.526714
 20
261.872297
 42
-0.119697
  0
VERTEX
  8
0
 10
230.902555
 20
262.225613
 42
-0.268343
  0
VERTEX
  8
0
 10
231.688669
 20
261.784626
 42
-0.134613
  0
SEQEND
  0
POLYLINE
  8
0
 66
1
 70
1
  0
VERTEX
  8
0
 10
258.500000
 20
259.000000
 42
-0.210115
  0
VERTEX
  8
0
 10
258.553029
 20
258.621971
 42
-0.178861
  0
VERTEX
  8
0
 10
258.314314
 20
258.293750
 42
-0.100989
  0
VERTEX
  8
0
 10
257.768372
 20
258.071437
 42
-0.046386
  0
VERTEX
  8
0
 10
257.000000
 20
258.000000
 42
-0.046386
  0
VERTEX
  8
0
 10
256.231628
 20
258.071437
 42
-0.100989
  0
VERTEX
  8
0
 10
255.685686
 20
258.293750
 42
-0.178861
  0
VERTEX
  8
0
 10
255.446971
 20
258.621971
 42
-0.210115
  0
VERTEX
  8
0
 10
255.500000
 20
259.000000
 42
-0.057296
  0
VERTEX
  8
0
 10
255.801830
 20
259.382513
 42
-0.050113
  0
VERTEX
  8
0
 10
256.195564
 20
259.706250
 42
-0.052849
  0
VERTEX
  8
0
 10
256.617099
 20
259.926995
 42
-0.094481
  0
VERTEX
  8
0
 10
257.000000
 20
260.000000
 42
-0.094481
  0
VERTEX
  8
0
 10
257.382901
 20
259.926995
 42
-0.052849
  0
VERTEX
  8
0
 10
257.804436
 20
259.706250
 42
-0.050113
  0
VERTEX
  8
0
 10
258.198170
 20
259.382513
 42
-0.057296
  0
SEQEND
  0
POLYLINE
  8
0
 66
1
 70
1
  0
VERTEX
  8
0
 10
283.215936
 20
251.893169
 42
-0.008504
  0
VERTEX
  8
0
 10
290.030638
 20
248.274602
 42
-0.182958
  0
VERTEX
  8
0
 10
291.478161
 20
246.569035
 42
-0.533526
  0
VERTEX
  8
0
 10
290.747017
 20
245.583715
 42
-0.020001
  0
VERTEX
  8
0
 10
285.289900
 20
246.064085
 42
0.002363
  0
VERTEX
  8
0
 10
282.639676
 20
246.391908
 42
0.001352
  0
VERTEX
  8
0
 10
279.438283
 20
246.763782
 42
0.001351
  0
VERTEX
  8
0
 10
276.216823
 20
247.120347
 42
0.002246
  0
VERTEX
  8
0
 10
273.500000
 20
247.401289
 42
-0.002327
  0
VERTEX
  8
0
 10
261.928543
 20
248.599762
 42
-0.006449
  0
VERTEX
  8
0
 10
253.805364
 20
249.585463
 42
-0.002930
  0
VERTEX
  8
0
 10
247.701010
 20
250.442652
 42
-0.615391
  0
VERTEX
  8
0
 10
247.551683
 20
250.890100
 42
-0.138234
  0
VERTEX
  8
0
 10
248.050134
 20
251.172099
 42
-0.005806
  0
VERTEX
  8
0
 10
250.052720
 20
251.637857
 42
-0.009639
  0
VERTEX
  8
0
 10
252.467635
 20
252.121419
 42
-0.006666
  0
VERTEX
  8
0
 10
255.216534
 20
252.579200
 42
-0.005906
  0
VERTEX
  8
0
 10
259.345720
 20
253.160564
 42
-0.051938
  0
VERTEX
  8
0
 10
261.187870
 20
253.205301
 42
-0.147600
  0
VERTEX
  8
0
 10
262.162416
 20
252.824409
 42
-0.163778
  0
VERTEX
  8
0
 10
262.715010
 20
251.981803
 42
0.186504
  0
VERTEX
  8
0
 10
263.330542
 20
251.127847
 42
0.093209
  0
VERTEX
  8
0
 10
264.580264
 20
250.611814
 42
0.041904
  0
VERTEX
  8
0
 10
266.826736
 20
250.336487
 42
0.007397
  0
VERTEX
  8
0
 10
271.076725
 20
250.237025
 42
0.007214
  0
VERTEX
  8
0
 10
275.162675
 20
250.260815
 42
0.038029
  0
VERTEX
  8
0
 10
277.392830
 20
250.476179
 42
0.086506
  0
VERTEX
  8
0
 10
278.586736
 20
250.905065
 42
0.269596
  0
VERTEX
  8
0
 10
279.000000
 20
251.615807
 42
0.173566
  0
VERTEX
  8
0
 10
278.555150
 20
252.858702
 42
0.152474
  0
VERTEX
  8
0
 10
277.397984
 20
253.618103
 42
0.129548
  0
VERTEX
  8
0
 10
275.853498
 20
253.649750
 42
0.114383
  0
VERTEX
  8
0
 10
274.411050
 20
252.926178
 42
-0.031787
  0
VERTEX
  8
0
 10
273.549377
 20
252.299013
 42
-0.156709
  0
VERTEX
  8
0
 10
272.975303
 20
252.149534
 42
-0.190803
  0
VERTEX
  8
0
 10
272.487530
 20
252.375150
 42
-0.051022
  0
VERTEX
  8
0
 10
271.954297
 20
253.064302
 42
0.064743
  0
VERTEX
  8
0
 10
271.405635
 20
253.734685
 42
0.172707
  0
VERTEX
  8
0
 10
270.847959
 20
253.979440
 42
0.127991
  0
VERTEX
  8
0
 10
270.146509
 20
253.849573
 42
0.029281
  0
VERTEX
  8
0
 10
269.076873
 20
253.270479
 42
-0.039154
  0
VERTEX
  8
0
 10
268.225622
 20
252.831099
 42
-0.072633
  0
VERTEX
  8
0
 10
267.474535
 20
252.636744
 42
-0.103470
  0
VERTEX
  8
0
 10
266.887147
 20
252.694496
 42
-0.180165
  0
VERTEX
  8
0
 10
266.505462
 20
252.991162
 42
-0.234817
  0
VERTEX
  8
0
 10
266.468385
 20
253.391744
 42
-0.125626
  0
VERTEX
  8
0
 10
266.763662
 20
253.806294
 42
-0.079292
  0
VERTEX
  8
0
 10
267.373687
 20
254.175017
 42
-0.043665
  0
VERTEX
  8
0
 10
268.209102
 20
254.431749
 42
-0.018445
  0
VERTEX
  8
0
 10
272.664455
 20
255.214846
 42
-0.076317
  0
VERTEX
  8
0
 10
275.389953
 20
255.173315
 42
-0.064928
  0
VERTEX
  8
0
 10
278.186240
 20
254.316744
 42
-0.011051
  0
SEQEND
  0
POLYLINE
  8
0
 66
1
 70
1
  0
VERTEX
  8
0
 10
237.500000
 20
250.000000
 42
0.050071
  0
VERTEX
  8
0
 10
237.725283
 20
247.756018
 42
0.112069
  0
VERTEX
  8
0
 10
238.425275
 20
246.202431
 42
0.164013
  0
VERTEX
  8
0
 10
239.526706
 20
245.450299
 42
0.146366
  0
VERTEX
  8
0
 10
240.916376
 20
245.473459
 42
-0.106324
  0
VERTEX
  8
0
 10
241.752910
 20
245.553575
 42
-0.069427
  0
VERTEX
  8
0
 10
242.694563
 20
245.308106
 42
-0.061059
  0
VERTEX
  8
0
 10
243.648928
 20
244.767231
 42
-0.049456
  0
VERTEX
  8
0
 10
244.521547
 20
243.976191
 42
-0.027335
  0
VERTEX
  8
0
 10
245.601412
 20
242.643293
 42
-0.197054
  0
VERTEX
  8
0
 10
245.791653
 20
241.856117
 42
-0.146219
  0
VERTEX
  8
0
 10
245.401805
 20
241.033102
 42
-0.013162
  0
VERTEX
  8
0
 10
243.814452
 20
239.359906
 42
-0.022568
  0
VERTEX
  8
0
 10
242.348682
 20
238.020800
 42
-0.100647
  0
VERTEX
  8
0
 10
241.328578
 20
237.470746
 42
-0.138718
  0
VERTEX
  8
0
 10
240.350206
 20
237.452910
 42
-0.058554
  0
VERTEX
  8
0
 10
239.116113
 20
237.937858
 42
-0.054034
  0
VERTEX
  8
0
 10
238.135112
 20
238.608075
 42
-0.112281
  0
VERTEX
  8
0
 10
237.584769
 20
239.347478
 42
-0.112178
  0
VERTEX
  8
0
 10
237.408059
 20
240.252645
 42
-0.053873
  0
VERTEX
  8
0
 10
237.572016
 20
241.430912
 42
0.094324
  0
VERTEX
  8
0
 10
237.671736
 20
243.153841
 42
0.180152
  0
VERTEX
  8
0
 10
237.031986
 20
244.362670
 42
0.131345
  0
VERTEX
  8
0
 10
235.564340
 20
245.101482
 42
0.041771
  0
VERTEX
  8
0
 10
233.113740
 20
245.401137
 42
-0.124360
  0
VERTEX
  8
0
 10
231.225104
 20
245.955750
 42
-0.197527
  0
VERTEX
  8
0
 10
230.222599
 20
247.280833
 42
-0.164551
  0
VERTEX
  8
0
 10
230.349904
 20
249.135738
 42
-0.085422
  0
VERTEX
  8
0
 10
231.607172
 20
251.118424
 42
-0.097522
  0
VERTEX
  8
0
 10
233.509926
 20
252.537484
 42
-0.159825
  0
VERTEX
  8
0
 10
235.485050
 20
252.794511
 42
-0.199444
  0
VERTEX
  8
0
 10
236.934354
 20
251.842310
 42
-0.150059
  0
SEQEND
  0
POLYLINE
  8
0
 66
1
 70
1
  0
VERTEX
  8
0
 10
233.925877
 20
221.241526
 42
-0.011035
  0
VERTEX
  8
0
 10
233.927222
 20
219.246442
 42
-0.193007
  0
VERTEX
  8
0
 10
233.678087
 20
218.661621
 42
-0.317038
  0
VERTEX
  8
0
 10
233.172226
 20
218.573368
 42
-0.026311
  0
VERTEX
  8
0
 10
231.931281
 20
219.241526
 42
-0.076113
  0
VERTEX
  8
0
 10
230.844875
 20
220.153734
 42
-0.129755
  0
VERTEX
  8
0
 10
230.319476
 20
221.207985
 42
-0.070348
  0
VERTEX
  8
0
 10
230.216270
 20
222.823328
 42
-0.011080
  0
VERTEX
  8
0
 10
230.531211
 20
226.000000
 42
-0.008486
  0
VERTEX
  8
0
 10
230.833770
 20
228.179304
 42
-0.010793
  0
VERTEX
  8
0
 10
231.190289
 20
230.178125
 42
-0.008929
  0
VERTEX
  8
0
 10
231.552807
 20
231.830665
 42
-0.083370
  0
VERTEX
  8
0
 10
231.835926
 20
232.500000
 42
-0.654029
  0
VERTEX
  8
0
 10
232.388967
 20
232.414081
 42
-0.018683
  0
VERTEX
  8
0
 10
233.089822
 20
229.293213
 42
-0.019982
  0
VERTEX
  8
0
 10
233.670612
 20
225.276123
 42
-0.020223
  0
SEQEND
  0
POLYLINE
  8
0
 66
1
 70
1
  0
VERTEX
  8
0
 10
257.979167
 20
231.020833
 42
0.050289
  0
VERTEX
  8
0
 10
259.054270
 20
230.142681
 42
0.074716
  0
VERTEX
  8
0
 10
260.154662
 20
229.630999
 42
0.073652
  0
VERTEX
  8
0
 10
261.368707
 20
229.461072
 42
0.047391
  0
VERTEX
  8
0
 10
262.785180
 20
229.607036
 42
-0.042093
  0
VERTEX
  8
0
 10
264.140585
 20
229.761207
 42
-0.072180
  0
VERTEX
  8
0
 10
265.268467
 20
229.630940
 42
-0.082161
  0
VERTEX
  8
0
 10
266.210637
 20
229.206741
 42
-0.072896
  0
VERTEX
  8
0
 10
267.010769
 20
228.487024
 42
-0.163791
  0
VERTEX
  8
0
 10
267.462782
 20
227.314774
 42
-0.152788
  0
VERTEX
  8
0
 10
267.131650
 20
226.069531
 42
-0.053700
  0
VERTEX
  8
0
 10
265.722064
 20
224.291898
 42
-0.006173
  0
VERTEX
  8
0
 10
262.091643
 20
220.695270
 42
-0.004556
  0
VERTEX
  8
0
 10
258.082631
 20
216.890501
 42
-0.063989
  0
VERTEX
  8
0
 10
256.472571
 20
215.735341
 42
-0.231107
  0
VERTEX
  8
0
 10
255.395313
 20
215.691895
 42
-0.132134
  0
VERTEX
  8
0
 10
254.358067
 20
216.524992
 42
-0.064872
  0
VERTEX
  8
0
 10
253.833025
 20
217.481958
 42
-0.047290
  0
VERTEX
  8
0
 10
253.499996
 20
218.650055
 42
-0.046216
  0
VERTEX
  8
0
 10
253.386808
 20
219.892373
 42
-0.053726
  0
VERTEX
  8
0
 10
253.515638
 20
221.071201
 42
0.046945
  0
VERTEX
  8
0
 10
253.664089
 20
222.278144
 42
0.068383
  0
VERTEX
  8
0
 10
253.548701
 20
223.342472
 42
0.076904
  0
VERTEX
  8
0
 10
253.170567
 20
224.241726
 42
0.081810
  0
VERTEX
  8
0
 10
252.544458
 20
224.963103
 42
-0.107521
  0
VERTEX
  8
0
 10
251.448729
 20
226.363757
 42
-0.113941
  0
VERTEX
  8
0
 10
251.063743
 20
228.063555
 42
-0.107845
  0
VERTEX
  8
0
 10
251.457871
 20
229.834106
 42
-0.088104
  0
VERTEX
  8
0
 10
252.571429
 20
231.428571
 42
-0.050291
  0
VERTEX
  8
0
 10
253.994761
 20
232.591149
 42
-0.166427
  0
VERTEX
  8
0
 10
255.149610
 20
232.891663
 42
-0.143997
  0
VERTEX
  8
0
 10
256.352400
 20
232.437164
 42
-0.034535
  0
SEQEND
  0
POLYLINE
  8
0
 66
1
 70
1
  0
VERTEX
  8
0
 10
225.000000
 20
226.440983
 42
-0.067432
  0
VERTEX
  8
0
 10
224.925389
 20
225.890269
 42
-0.140899
  0
VERTEX
  8
0
 10
224.701458
 20
225.524436
 42
-0.190788
  0
VERTEX
  8
0
 10
224.369640
 20
225.397824
 42
-0.136093
  0
VERTEX
  8
0
 10
223.983688
 20
225.510081
 42
-0.090427
  0
VERTEX
  8
0
 10
223.639411
 20
225.820631
 42
-0.095498
  0
VERTEX
  8
0
 10
223.434921
 20
226.227140
 42
-0.099685
  0
VERTEX
  8
0
 10
223.401101
 20
226.665803
 42
-0.108373
  0
VERTEX
  8
0
 10
223.542705
 20
227.069098
 42
-0.050477
  0
VERTEX
  8
0
 10
224.133140
 20
227.838655
 42
-0.315493
  0
VERTEX
  8
0
 10
224.592818
 20
227.933879
 42
-0.257010
  0
VERTEX
  8
0
 10
224.914842
 20
227.519563
 42
-0.039415
  0
SEQEND
  0
POLYLINE
  8
0
 66
1
 70
1
  0
VERTEX
  8
0
 10
239.683114
 20
222.812500
 42
-0.054073
  0
VERTEX
  8
0
 10
239.461564
 20
222.395823
 42
-0.470617
  0
VERTEX
  8
0
 10
239.279315
 20
222.378580
 42
-0.168741
  0
VERTEX
  8
0
 10
239.137993
 20
222.670344
 42
-0.018894
  0
VERTEX
  8
0
 10
239.078947
 20
223.416667
 42
-0.028489
  0
VERTEX
  8
0
 10
239.089945
 20
224.112848
 42
-0.077125
  0
VERTEX
  8
0
 10
239.200665
 20
224.592839
 42
-0.208169
  0
VERTEX
  8
0
 10
239.385309
 20
224.775380
 42
-0.296942
  0
VERTEX
  8
0
 10
239.604167
 20
224.729167
 42
-0.126455
  0
VERTEX
  8
0
 10
239.797407
 20
224.402231
 42
-0.060344
  0
VERTEX
  8
0
 10
239.876576
 20
223.916927
 42
-0.054150
  0
VERTEX
  8
0
 10
239.839148
 20
223.359369
 42
-0.051402
  0
SEQEND
  0
POLYLINE
  8
0
 66
1
 70
1
  0
VERTEX
  8
0
 10
274.227873
 20
220.399218
 42
-0.081084
  0
VERTEX
  8
0
 10
274.681197
 20
218.733487
 42
-0.153700
  0
VERTEX
  8
0
 10
274.406112
 20
217.384190
 42
-0.067815
  0
VERTEX
  8
0
 10
273.190091
 20
215.756233
 42
-0.007081
  0
VERTEX
  8
0
 10
269.792619
 20
212.397531
 42
-0.020288
  0
VERTEX
  8
0
 10
266.057175
 20
209.088577
 42
-0.099050
  0
VERTEX
  8
0
 10
263.573478
 20
207.773666
 42
-0.227097
  0
VERTEX
  8
0
 10
261.843012
 20
208.047908
 42
-0.151288
  0
VERTEX
  8
0
 10
260.579385
 20
209.653722
 42
-0.267696
  0
VERTEX
  8
0
 10
260.850757
 20
211.371111
 42
-0.008856
  0
VERTEX
  8
0
 10
265.469082
 20
216.881464
 42
-0.009982
  0
VERTEX
  8
0
 10
270.251594
 20
222.169630
 42
-0.206774
  0
VERTEX
  8
0
 10
272.173659
 20
223.000000
 42
-0.191033
  0
VERTEX
  8
0
 10
272.584419
 20
222.837118
 42
-0.036827
  0
VERTEX
  8
0
 10
273.135637
 20
222.236020
 42
-0.034455
  0
VERTEX
  8
0
 10
273.710503
 20
221.395084
 42
-0.025812
  0
SEQEND
  0
POLYLINE
  8
0
 66
1
 70
1
  0
VERTEX
  8
0
 10
235.102945
 20
211.000000
 42
-0.006567
  0
VERTEX
  8
0
 10
235.384385
 20
208.728069
 42
-0.002331
  0
VERTEX
  8
0
 10
235.729042
 20
205.471875
 42
-0.002313
  0
VERTEX
  8
0
 10
236.074298
 20
201.892766
 42
-0.002722
  0
VERTEX
  8
0
 10
236.367129
 20
198.500000
 42
-0.002843
  0
VERTEX
  8
0
 10
236.739418
 20
193.543286
 42
-0.056231
  0
VERTEX
  8
0
 10
236.673865
 20
192.021946
 42
-0.522110
  0
VERTEX
  8
0
 10
236.238483
 20
191.810001
 42
-0.098016
  0
VERTEX
  8
0
 10
235.427111
 20
192.500000
 42
-0.025623
  0
VERTEX
  8
0
 10
234.655409
 20
193.582278
 42
-0.007659
  0
VERTEX
  8
0
 10
233.590650
 20
195.307812
 42
-0.007658
  0
VERTEX
  8
0
 10
232.452843
 20
197.284767
 42
-0.008218
  0
VERTEX
  8
0
 10
231.403387
 20
199.250000
 42
-0.004903
  0
VERTEX
  8
0
 10
229.880860
 20
202.290527
 42
-0.088702
  0
VERTEX
  8
0
 10
229.584127
 20
203.332264
 42
-0.347101
  0
VERTEX
  8
0
 10
229.899416
 20
203.826740
 42
-0.083944
  0
VERTEX
  8
0
 10
230.924137
 20
204.000000
 42
0.093945
  0
VERTEX
  8
0
 10
232.617751
 20
204.321046
 42
0.200250
  0
VERTEX
  8
0
 10
233.557203
 20
205.231915
 42
0.226216
  0
VERTEX
  8
0
 10
233.509327
 20
206.447316
 42
0.114271
  0
VERTEX
  8
0
 10
232.484820
 20
207.634758
 42
0.040874
  0
VERTEX
  8
0
 10
231.549376
 20
208.207859
 42
0.099440
  0
VERTEX
  8
0
 10
230.773109
 20
208.422481
 42
0.118590
  0
VERTEX
  8
0
 10
230.061018
 20
208.304227
 42
0.073150
  0
VERTEX
  8
0
 10
229.332045
 20
207.860610
 42
-0.044168
  0
VERTEX
  8
0
 10
228.661292
 20
207.397331
 42
-0.297394
  0
VERTEX
  8
0
 10
228.277003
 20
207.421172
 42
-0.210631
  0
VERTEX
  8
0
 10
228.051919
 20
207.818409
 42
-0.025086
  0
VERTEX
  8
0
 10
228.000000
 20
208.852555
 42
-0.058183
  0
VERTEX
  8
0
 10
228.128831
 20
209.955921
 42
-0.228760
  0
VERTEX
  8
0
 10
228.548833
 20
210.472916
 42
-0.140935
  0
VERTEX
  8
0
 10
229.377208
 20
210.605526
 42
-0.019029
  0
VERTEX
  8
0
 10
231.133929
 20
210.323214
 42
0.016540
  0
VERTEX
  8
0
 10
232.705801
 20
210.062576
 42
0.103420
  0
VERTEX
  8
0
 10
233.514148
 20
210.123206
 42
0.271458
  0
VERTEX
  8
0
 10
233.844402
 20
210.470897
 42
0.135643
  0
VERTEX
  8
0
 10
233.819236
 20
211.098214
 42
0.091768
  0
VERTEX
  8
0
 10
233.492836
 20
211.706106
 42
0.039610
  0
VERTEX
  8
0
 10
232.860463
 20
212.378194
 42
0.037460
  0
VERTEX
  8
0
 10
232.054638
 20
213.005890
 42
0.040675
  0
VERTEX
  8
0
 10
231.185307
 20
213.487128
 42
-0.041424
  0
VERTEX
  8
0
 10
229.417895
 20
214.468975
 42
-0.313669
  0
VERTEX
  8
0
 10
229.088680
 20
215.310221
 42
-0.330799
  0
VERTEX
  8
0
 10
229.760635
 20
215.872743
 42
-0.043254
  0
VERTEX
  8
0
 10
231.742695
 20
215.816422
 42
-0.057688
  0
VERTEX
  8
0
 10
233.258939
 20
215.461229
 42
-0.155301
  0
VERTEX
  8
0
 10
234.127750
 20
214.795947
 42
-0.101393
  0
VERTEX
  8
0
 10
234.662466
 20
213.555715
 42
-0.017147
  0
SEQEND
  0
POLYLINE
  8
0
 66
1
 70
1
  0
VERTEX
  8
0
 10
277.000000
 20
209.535184
 42
-0.130290
  0
VERTEX
  8
0
 10
276.534618
 20
207.779562
 42
-0.089569
  0
VERTEX
  8
0
 10
275.206105
 20
206.192345
 42
-0.093616
  0
VERTEX
  8
0
 10
273.467547
 20
205.223188
 42
-0.162305
  0
VERTEX
  8
0
 10
271.830697
 20
205.223101
 42
-0.483421
  0
VERTEX
  8
0
 10
271.585219
 20
205.898836
 42
-0.015003
  0
VERTEX
  8
0
 10
273.445856
 20
208.725535
 42
-0.015764
  0
VERTEX
  8
0
 10
275.515886
 20
211.484588
 42
-0.227718
  0
VERTEX
  8
0
 10
276.588894
 20
212.000000
 42
-0.340308
  0
VERTEX
  8
0
 10
276.750108
 20
211.875903
 42
-0.023371
  0
VERTEX
  8
0
 10
276.879238
 20
211.275960
 42
-0.025643
  0
VERTEX
  8
0
 10
276.970359
 20
210.480077
 42
-0.015681
  0
SEQEND
  0
POLYLINE
  8
0
 66
1
 70
1
  0
VERTEX
  8
0
 10
41.399704
 20
226.234687
 42
0.058276
  0
VERTEX
  8
0
 10
40.902201
 20
225.811246
 42
0.021546
  0
VERTEX
  8
0
 10
40.303906
 20
225.109712
 42
0.021009
  0
VERTEX
  8
0
 10
39.710610
 20
224.280488
 42
0.023735
  0
VERTEX
  8
0
 10
39.214424
 20
223.436672
 42
0.140830
  0
VERTEX
  8
0
 10
38.736108
 20
221.127936
 42
0.116921
  0
VERTEX
  8
0
 10
39.500159
 20
218.728837
 42
0.086348
  0
VERTEX
  8
0
 10
41.546082
 20
216.364722
 42
0.045296
  0
VERTEX
  8
0
 10
44.777320
 20
214.179514
 42
-0.050015
  0
VERTEX
  8
0
 10
47.578115
 20
212.246723
 42
-0.142982
  0
VERTEX
  8
0
 10
48.867539
 20
210.290480
 42
-0.221187
  0
VERTEX
  8
0
 10
48.621296
 20
208.499529
 42
-0.127534
  0
VERTEX
  8
0
 10
46.989878
 20
206.994583
 42
-0.062085
  0
VERTEX
  8
0
 10
45.859744
 20
206.559642
 42
-0.133959
  0
VERTEX
  8
0
 10
44.935234
 20
206.580872
 42
-0.102390
  0
VERTEX
  8
0
 10
43.990366
 20
207.088939
 42
-0.027505
  0
VERTEX
  8
0
 10
42.739878
 20
208.259563
 42
0.074301
  0
VERTEX
  8
0
 10
40.830774
 20
209.738442
 42
0.132036
  0
VERTEX
  8
0
 10
38.915544
 20
210.223821
 42
0.268097
  0
VERTEX
  8
0
 10
37.824656
 20
209.572543
 42
0.215375
  0
VERTEX
  8
0
 10
37.707425
 20
208.187350
 42
0.178664
  0
VERTEX
  8
0
 10
41.043132
 20
204.173887
 42
0.157758
  0
VERTEX
  8
0
 10
46.385123
 20
203.030660
 42
0.169910
  0
VERTEX
  8
0
 10
51.105776
 20
205.245640
 42
0.201533
  0
VERTEX
  8
0
 10
53.000000
 20
209.754303
 42
0.066292
  0
VERTEX
  8
0
 10
52.664247
 20
212.275539
 42
0.098084
  0
VERTEX
  8
0
 10
51.676291
 20
214.267979
 42
0.084506
  0
VERTEX
  8
0
 10
49.877623
 20
215.931288
 42
0.038538
  0
VERTEX
  8
0
 10
47.060761
 20
217.472601
 42
-0.027864
  0
VERTEX
  8
0
 10
45.382029
 20
218.345174
 42
-0.046641
  0
VERTEX
  8
0
 10
44.095986
 20
219.279455
 42
-0.059041
  0
VERTEX
  8
0
 10
43.266299
 20
220.204030
 42
-0.154567
  0
VERTEX
  8
0
 10
43.000000
 20
221.044886
 42
-0.141301
  0
VERTEX
  8
0
 10
43.409889
 20
222.466336
 42
-0.183171
  0
VERTEX
  8
0
 10
44.483476
 20
223.277381
 42
-0.143952
  0
VERTEX
  8
0
 10
46.050854
 20
223.275369
 42
-0.081125
  0
VERTEX
  8
0
 10
47.778004
 20
222.442938
 42
0.027405
  0
VERTEX
  8
0
 10
48.935086
 20
221.723592
 42
0.140045
  0
VERTEX
  8
0
 10
49.665945
 20
221.557748
 42
0.165090
  0
VERTEX
  8
0
 10
50.307998
 20
221.815960
 42
0.042142
  0
VERTEX
  8
0
 10
51.105060
 20
222.626590
 42
0.044425
  0
VERTEX
  8
0
 10
51.728150
 20
223.529715
 42
0.179011
  0
VERTEX
  8
0
 10
51.833694
 20
224.180119
 42
0.156095
  0
VERTEX
  8
0
 10
51.493831
 20
224.797694
 42
0.031672
  0
VERTEX
  8
0
 10
50.521124
 20
225.608213
 42
0.096801
  0
VERTEX
  8
0
 10
48.613058
 20
226.502699
 42
0.044228
  0
VERTEX
  8
0
 10
45.884117
 20
226.934621
 42
0.044110
  0
VERTEX
  8
0
 10
43.181868
 20
226.881678
 42
0.120827
  0
SEQEND
  0
POLYLINE
  8
0
 66
1
 70
1
  0
VERTEX
  8
0
 10
65.687500
 20
226.354167
 42
0.140464
  0
VERTEX
  8
0
 10
64.980466
 20
225.079097
 42
0.134437
  0
VERTEX
  8
0
 10
65.039802
 20
223.599402
 42
0.146074
  0
VERTEX
  8
0
 10
65.827558
 20
222.441612
 42
0.172494
  0
VERTEX
  8
0
 10
67.069551
 20
222.000000
 42
0.058126
  0
VERTEX
  8
0
 10
68.047239
 20
222.114044
 42
0.166583
  0
VERTEX
  8
0
 10
68.617936
 20
222.473735
 42
0.157193
  0
VERTEX
  8
0
 10
68.867505
 20
223.124014
 42
0.050220
  0
VERTEX
  8
0
 10
68.819551
 20
224.171672
 42
0.075186
  0
VERTEX
  8
0
 10
68.380942
 20
225.608964
 42
0.129702
  0
VERTEX
  8
0
 10
67.576397
 20
226.555974
 42
0.182706
  0
VERTEX
  8
0
 10
66.610317
 20
226.799742
 42
0.169378
  0
SEQEND
  0
POLYLINE
  8
0
 66
1
 70
1
  0
VERTEX
  8
0
 10
57.000000
 20
221.986431
 42
-0.048045
  0
VERTEX
  8
0
 10
56.912071
 20
221.073467
 42
-0.026731
  0
VERTEX
  8
0
 10
56.640168
 20
219.988166
 42
-0.026432
  0
VERTEX
  8
0
 10
56.244238
 20
218.909477
 42
-0.038423
  0
VERTEX
  8
0
 10
55.775041
 20
218.011391
 42
0.033247
  0
VERTEX
  8
0
 10
55.215675
 20
216.967160
 42
0.106729
  0
VERTEX
  8
0
 10
55.050081
 20
216.200232
 42
0.132680
  0
VERTEX
  8
0
 10
55.230766
 20
215.531315
 42
0.064530
  0
VERTEX
  8
0
 10
55.775041
 20
214.824959
 42
-0.125383
  0
VERTEX
  8
0
 10
56.249995
 20
214.025262
 42
-0.025230
  0
VERTEX
  8
0
 10
56.640168
 20
212.402957
 42
-0.025190
  0
VERTEX
  8
0
 10
56.910069
 20
210.418885
 42
-0.021212
  0
VERTEX
  8
0
 10
57.000000
 20
208.300000
 42
0.012836
  0
VERTEX
  8
0
 10
57.067604
 20
205.667123
 42
0.056175
  0
VERTEX
  8
0
 10
57.320755
 20
204.133333
 42
0.120157
  0
VERTEX
  8
0
 10
57.787724
 20
203.308162
 42
0.207049
  0
VERTEX
  8
0
 10
58.500000
 20
203.000000
 42
0.212123
  0
VERTEX
  8
0
 10
59.216041
 20
203.318091
 42
0.118015
  0
VERTEX
  8
0
 10
59.682205
 20
204.171897
 42
0.054243
  0
VERTEX
  8
0
 10
59.933531
 20
205.765390
 42
0.012014
  0
VERTEX
  8
0
 10
60.000000
 20
208.531385
 42
-0.014759
  0
VERTEX
  8
0
 10
60.077787
 20
211.166020
 42
-0.045486
  0
VERTEX
  8
0
 10
60.343810
 20
212.926871
 42
-0.074175
  0
VERTEX
  8
0
 10
60.805382
 20
214.053190
 42
-0.168410
  0
VERTEX
  8
0
 10
61.500000
 20
214.638374
 42
0.068785
  0
VERTEX
  8
0
 10
62.073469
 20
214.954467
 42
0.062945
  0
VERTEX
  8
0
 10
62.559375
 20
215.422663
 42
0.066733
  0
VERTEX
  8
0
 10
62.888365
 20
215.965369
 42
0.103290
  0
VERTEX
  8
0
 10
63.000000
 20
216.500000
 42
0.103290
  0
VERTEX
  8
0
 10
62.888365
 20
217.034631
 42
0.066733
  0
VERTEX
  8
0
 10
62.559375
 20
217.577337
 42
0.062945
  0
VERTEX
  8
0
 10
62.073469
 20
218.045533
 42
0.068785
  0
VERTEX
  8
0
 10
61.500000
 20
218.361626
 42
-0.125259
  0
VERTEX
  8
0
 10
60.925762
 20
218.767801
 42
-0.064130
  0
VERTEX
  8
0
 10
60.440625
 20
219.511741
 42
-0.057561
  0
VERTEX
  8
0
 10
60.111542
 20
220.457712
 42
-0.055002
  0
VERTEX
  8
0
 10
60.000000
 20
221.468615
 42
0.046062
  0
VERTEX
  8
0
 10
59.902073
 20
222.529365
 42
0.087930
  0
VERTEX
  8
0
 10
59.601860
 20
223.328103
 42
0.119192
  0
VERTEX
  8
0
 10
59.122150
 20
223.820648
 42
0.141262
  0
VERTEX
  8
0
 10
58.500000
 20
224.000000
 42
0.131003
  0
VERTEX
  8
0
 10
57.922742
 20
223.846114
 42
0.102732
  0
VERTEX
  8
0
 10
57.436236
 20
223.414405
 42
0.089043
  0
VERTEX
  8
0
 10
57.111455
 20
222.763204
 42
0.071377
  0
SEQEND
  0
POLYLINE
  8
0
 66
1
 70
1
  0
VERTEX
  8
0
 10
76.250000
 20
218.276604
 42
0.000000
  0
VERTEX
  8
0
 10
73.000000
 20
217.873283
 42
0.000000
  0
VERTEX
  8
0
 10
73.000000
 20
210.436642
 42
0.006115
  0
VERTEX
  8
0
 10
73.053570
 20
206.056344
 42
0.058064
  0
VERTEX
  8
0
 10
73.315557
 20
204.203369
 42
0.174149
  0
VERTEX
  8
0
 10
73.910913
 20
203.335552
 42
0.157447
  0
VERTEX
  8
0
 10
74.950096
 20
203.000000
 42
0.134449
  0
VERTEX
  8
0
 10
75.971798
 20
203.279792
 42
0.167341
  0
VERTEX
  8
0
 10
76.605858
 20
204.025590
 42
0.070168
  0
VERTEX
  8
0
 10
76.968075
 20
205.552747
 42
0.010166
  0
VERTEX
  8
0
 10
77.200096
 20
208.750000
 42
-0.008679
  0
VERTEX
  8
0
 10
77.436145
 20
212.142466
 42
-0.082915
  0
VERTEX
  8
0
 10
77.797162
 20
213.543005
 42
-0.212965
  0
VERTEX
  8
0
 10
78.474883
 20
214.153679
 42
-0.104397
  0
VERTEX
  8
0
 10
79.654059
 20
214.278789
 42
0.142254
  0
VERTEX
  8
0
 10
81.242090
 20
214.568214
 42
0.152530
  0
VERTEX
  8
0
 10
82.377068
 20
215.659149
 42
0.184087
  0
VERTEX
  8
0
 10
82.569823
 20
217.043425
 42
0.197417
  0
VERTEX
  8
0
 10
81.783870
 20
218.154738
 42
0.023574
  0
VERTEX
  8
0
 10
81.255670
 20
218.455955
 42
0.027980
  0
VERTEX
  8
0
 10
80.730262
 20
218.687562
 42
0.028633
  0
VERTEX
  8
0
 10
80.273931
 20
218.829719
 42
0.132389
  0
VERTEX
  8
0
 10
80.000000
 20
218.824650
 42
-0.032007
  0
VERTEX
  8
0
 10
79.663700
 20
218.750238
 42
-0.002162
  0
VERTEX
  8
0
 10
78.692187
 20
218.603963
 42
-0.003097
  0
VERTEX
  8
0
 10
77.531276
 20
218.441639
 42
-0.002316
  0
SEQEND
  0
POLYLINE
  8
0
 66
1
 70
1
  0
VERTEX
  8
0
 10
118.682134
 20
218.348801
 42
-0.142839
  0
VERTEX
  8
0
 10
118.218223
 20
218.094376
 42
-0.022252
  0
VERTEX
  8
0
 10
117.177251
 20
217.912056
 42
-0.023245
  0
VERTEX
  8
0
 10
115.895617
 20
217.806202
 42
-0.018377
  0
VERTEX
  8
0
 10
114.504469
 20
217.807351
 42
0.000000
  0
VERTEX
  8
0
 10
111.000000
 20
217.939097
 42
0.000000
  0
VERTEX
  8
0
 10
111.000000
 20
206.469549
 42
0.003179
  0
VERTEX
  8
0
 10
111.045222
 20
199.356008
 42
0.040003
  0
VERTEX
  8
0
 10
111.293594
 20
196.683694
 42
0.147368
  0
VERTEX
  8
0
 10
111.901488
 20
195.472817
 42
0.206069
  0
VERTEX
  8
0
 10
113.000000
 20
195.000000
 42
0.099138
  0
VERTEX
  8
0
 10
114.029804
 20
195.206212
 42
0.186642
  0
VERTEX
  8
0
 10
114.633080
 20
195.784553
 42
0.094305
  0
VERTEX
  8
0
 10
114.928434
 20
196.944133
 42
0.015339
  0
VERTEX
  8
0
 10
115.000000
 20
199.276426
 42
0.000000
  0
VERTEX
  8
0
 10
115.000000
 20
203.552852
 42
0.000000
  0
VERTEX
  8
0
 10
118.874353
 20
203.183373
 42
0.029636
  0
VERTEX
  8
0
 10
120.907630
 20
203.110504
 42
0.071391
  0
VERTEX
  8
0
 10
122.389335
 20
203.358711
 42
0.080988
  0
VERTEX
  8
0
 10
123.627075
 20
203.987655
 42
0.047288
  0
VERTEX
  8
0
 10
124.874353
 20
205.095508
 42
0.098763
  0
VERTEX
  8
0
 10
126.353134
 20
207.490574
 42
0.080467
  0
VERTEX
  8
0
 10
126.940200
 20
210.452639
 42
0.081507
  0
VERTEX
  8
0
 10
126.560500
 20
213.412535
 42
0.106073
  0
VERTEX
  8
0
 10
125.250000
 20
215.802320
 42
0.063643
  0
VERTEX
  8
0
 10
123.627100
 20
217.256820
 42
0.058502
  0
VERTEX
  8
0
 10
121.645342
 20
218.305596
 42
0.066501
  0
VERTEX
  8
0
 10
119.810915
 20
218.748814
 42
0.226157
  0
SEQEND
  0
POLYLINE
  8
0
 66
1
 70
1
  0
VERTEX
  8
0
 10
121.800000
 20
213.800000
 42
-0.122569
  0
VERTEX
  8
0
 10
122.694204
 20
212.313227
 42
-0.083901
  0
VERTEX
  8
0
 10
122.951029
 20
210.351046
 42
-0.084388
  0
VERTEX
  8
0
 10
122.549165
 20
208.424443
 42
-0.126686
  0
VERTEX
  8
0
 10
121.547988
 20
207.039826
 42
-0.141804
  0
VERTEX
  8
0
 10
119.969360
 20
206.351837
 42
-0.111580
  0
VERTEX
  8
0
 10
118.103555
 20
206.525811
 42
-0.108842
  0
VERTEX
  8
0
 10
116.457737
 20
207.494650
 42
-0.129362
  0
VERTEX
  8
0
 10
115.495753
 20
209.013380
 42
-0.148761
  0
VERTEX
  8
0
 10
115.461817
 20
211.846912
 42
-0.160869
  0
VERTEX
  8
0
 10
117.022605
 20
214.116677
 42
-0.180632
  0
VERTEX
  8
0
 10
119.474409
 20
214.853661
 42
-0.181966
  0
SEQEND
  0
POLYLINE
  8
0
 66
1
 70
1
  0
VERTEX
  8
0
 10
143.315372
 20
217.993877
 42
0.142832
  0
VERTEX
  8
0
 10
140.726949
 20
215.955401
 42
0.101749
  0
VERTEX
  8
0
 10
139.222849
 20
212.561412
 42
0.096019
  0
VERTEX
  8
0
 10
139.133701
 20
208.669868
 42
0.111070
  0
VERTEX
  8
0
 10
140.540178
 20
205.246101
 42
0.073324
  0
VERTEX
  8
0
 10
141.618417
 20
204.105724
 42
0.098352
  0
VERTEX
  8
0
 10
142.883096
 20
203.461816
 42
0.059585
  0
VERTEX
  8
0
 10
144.750189
 20
203.168478
 42
0.012721
  0
VERTEX
  8
0
 10
148.040178
 20
203.131084
 42
0.000000
  0
VERTEX
  8
0
 10
154.000000
 20
203.214978
 42
0.000000
  0
VERTEX
  8
0
 10
154.000000
 20
210.607489
 42
0.000000
  0
VERTEX
  8
0
 10
154.000000
 20
218.000000
 42
0.000000
  0
VERTEX
  8
0
 10
151.081787
 20
218.000000
 42
-0.013224
  0
VERTEX
  8
0
 10
149.866852
 20
218.032137
 42
-0.012421
  0
VERTEX
  8
0
 10
148.629587
 20
218.128507
 42
-0.012492
  0
VERTEX
  8
0
 10
147.537193
 20
218.268610
 42
-0.041233
  0
VERTEX
  8
0
 10
146.831787
 20
218.437470
 42
0.079001
  0
VERTEX
  8
0
 10
146.167995
 20
218.544392
 42
0.031890
  0
VERTEX
  8
0
 10
145.249478
 20
218.487621
 42
0.030568
  0
VERTEX
  8
0
 10
144.249585
 20
218.298842
 42
0.033920
  0
SEQEND
  0
POLYLINE
  8
0
 66
1
 70
1
  0
VERTEX
  8
0
 10
149.882981
 20
212.787295
 42
-0.066196
  0
VERTEX
  8
0
 10
150.365844
 20
210.649219
 42
-0.100641
  0
VERTEX
  8
0
 10
150.156136
 20
208.762465
 42
-0.118856
  0
VERTEX
  8
0
 10
149.277964
 20
207.323367
 42
-0.120315
  0
VERTEX
  8
0
 10
147.844042
 20
206.450501
 42
-0.124297
  0
VERTEX
  8
0
 10
146.085578
 20
206.344854
 42
-0.125523
  0
VERTEX
  8
0
 10
144.495031
 20
207.087943
 42
-0.118612
  0
VERTEX
  8
0
 10
143.392021
 20
208.545288
 42
-0.103304
  0
VERTEX
  8
0
 10
143.000000
 20
210.422445
 42
-0.142211
  0
VERTEX
  8
0
 10
143.793170
 20
213.154747
 42
-0.170318
  0
VERTEX
  8
0
 10
145.884751
 20
214.806173
 42
-0.205023
  0
VERTEX
  8
0
 10
148.253524
 20
214.631759
 42
-0.186763
  0
SEQEND
  0
POLYLINE
  8
0
 66
1
 70
1
  0
VERTEX
  8
0
 10
65.000000
 20
210.500000
 42
0.005909
  0
VERTEX
  8
0
 10
65.052806
 20
206.031606
 42
0.059311
  0
VERTEX
  8
0
 10
65.316667
 20
204.187500
 42
0.180365
  0
VERTEX
  8
0
 10
65.925391
 20
203.330303
 42
0.150217
  0
VERTEX
  8
0
 10
67.000000
 20
203.000000
 42
0.150217
  0
VERTEX
  8
0
 10
68.074609
 20
203.330303
 42
0.180365
  0
VERTEX
  8
0
 10
68.683333
 20
204.187500
 42
0.059311
  0
VERTEX
  8
0
 10
68.947194
 20
206.031606
 42
0.005909
  0
VERTEX
  8
0
 10
69.000000
 20
210.500000
 42
0.005909
  0
VERTEX
  8
0
 10
68.947194
 20
214.968394
 42
0.059311
  0
VERTEX
  8
0
 10
68.683333
 20
216.812500
 42
0.180365
  0
VERTEX
  8
0
 10
68.074609
 20
217.669697
 42
0.150217
  0
VERTEX
  8
0
 10
67.000000
 20
218.000000
 42
0.150217
  0
VERTEX
  8
0
 10
65.925391
 20
217.669697
 42
0.180365
  0
VERTEX
  8
0
 10
65.316667
 20
216.812500
 42
0.059311
  0
VERTEX
  8
0
 10
65.052806
 20
214.968394
 42
0.005909
  0
SEQEND
  0
POLYLINE
  8
0
 66
1
 70
1
  0
VERTEX
  8
0
 10
94.000000
 20
212.154988
 42
0.040132
  0
VERTEX
  8
0
 10
94.349533
 20
207.807214
 42
0.117908
  0
VERTEX
  8
0
 10
95.497717
 20
205.054553
 42
0.152515
  0
VERTEX
  8
0
 10
97.555814
 20
203.527988
 42
0.084071
  0
VERTEX
  8
0
 10
100.673753
 20
203.000000
 42
0.097432
  0
VERTEX
  8
0
 10
103.558429
 20
203.567509
 42
0.147656
  0
VERTEX
  8
0
 10
105.530129
 20
205.167485
 42
0.109534
  0
VERTEX
  8
0
 10
106.654036
 20
208.000194
 42
0.039899
  0
VERTEX
  8
0
 10
107.000000
 20
212.328741
 42
0.009456
  0
VERTEX
  8
0
 10
106.939092
 20
215.549139
 42
0.073474
  0
VERTEX
  8
0
 10
106.664036
 20
217.022951
 42
0.184243
  0
VERTEX
  8
0
 10
106.070974
 20
217.733394
 42
0.128400
  0
VERTEX
  8
0
 10
105.049904
 20
218.000000
 42
0.134449
  0
VERTEX
  8
0
 10
104.028202
 20
217.720208
 42
0.167341
  0
VERTEX
  8
0
 10
103.394142
 20
216.974410
 42
0.070168
  0
VERTEX
  8
0
 10
103.031925
 20
215.447253
 42
0.010166
  0
VERTEX
  8
0
 10
102.799904
 20
212.250000
 42
-0.009988
  0
VERTEX
  8
0
 10
102.566535
 20
209.018229
 42
-0.072233
  0
VERTEX
  8
0
 10
102.202487
 20
207.506238
 42
-0.172705
  0
VERTEX
  8
0
 10
101.556300
 20
206.773226
 42
-0.127238
  0
VERTEX
  8
0
 10
100.500000
 20
206.500000
 42
-0.127238
  0
VERTEX
  8
0
 10
99.443700
 20
206.773226
 42
-0.172705
  0
VERTEX
  8
0
 10
98.797513
 20
207.506238
 42
-0.072233
  0
VERTEX
  8
0
 10
98.433465
 20
209.018229
 42
-0.009988
  0
VERTEX
  8
0
 10
98.200096
 20
212.250000
 42
0.010166
  0
VERTEX
  8
0
 10
97.968075
 20
215.447253
 42
0.070168
  0
VERTEX
  8
0
 10
97.605858
 20
216.974410
 42
0.167341
  0
VERTEX
  8
0
 10
96.971798
 20
217.720208
 42
0.134449
  0
VERTEX
  8
0
 10
95.950096
 20
218.000000
 42
0.131310
  0
VERTEX
  8
0
 10
94.926751
 20
217.726534
 42
0.183655
  0
VERTEX
  8
0
 10
94.333409
 20
217.000676
 42
0.071637
  0
VERTEX
  8
0
 10
94.059962
 20
215.489324
 42
0.008991
  0
SEQEND
  0
POLYLINE
  8
0
 66
1
 70
1
  0
VERTEX
  8
0
 10
38.000000
 20
175.000000
 42
0.002754
  0
VERTEX
  8
0
 10
38.044338
 20
166.951280
 42
0.034484
  0
VERTEX
  8
0
 10
38.287502
 20
163.916584
 42
0.126905
  0
VERTEX
  8
0
 10
38.875874
 20
162.530203
 42
0.233347
  0
VERTEX
  8
0
 10
39.950096
 20
162.000000
 42
0.134449
  0
VERTEX
  8
0
 10
40.971798
 20
162.279792
 42
0.167341
  0
VERTEX
  8
0
 10
41.605858
 20
163.025590
 42
0.070168
  0
VERTEX
  8
0
 10
41.968075
 20
164.552747
 42
0.010166
  0
VERTEX
  8
0
 10
42.200096
 20
167.750000
 42
-0.009988
  0
VERTEX
  8
0
 10
42.433465
 20
170.981771
 42
-0.072233
  0
VERTEX
  8
0
 10
42.797513
 20
172.493762
 42
-0.172705
  0
VERTEX
  8
0
 10
43.443700
 20
173.226774
 42
-0.127238
  0
VERTEX
  8
0
 10
44.500000
 20
173.500000
 42
-0.127238
  0
VERTEX
  8
0
 10
45.556300
 20
173.226774
 42
-0.172705
  0
VERTEX
  8
0
 10
46.202487
 20
172.493762
 42
-0.072233
  0
VERTEX
  8
0
 10
46.566535
 20
170.981771
 42
-0.009988
  0
VERTEX
  8
0
 10
46.799904
 20
167.750000
 42
0.010166
  0
VERTEX
  8
0
 10
47.031925
 20
164.552747
 42
0.070168
  0
VERTEX
  8
0
 10
47.394142
 20
163.025590
 42
0.167341
  0
VERTEX
  8
0
 10
48.028202
 20
162.279792
 42
0.134449
  0
VERTEX
  8
0
 10
49.049904
 20
162.000000
 42
0.141829
  0
VERTEX
  8
0
 10
50.080426
 20
162.298317
 42
0.180624
  0
VERTEX
  8
0
 10
50.674729
 20
163.080337
 42
0.065605
  0
VERTEX
  8
0
 10
50.942999
 20
164.727741
 42
0.007601
  0
VERTEX
  8
0
 10
51.000000
 20
168.476947
 42
0.010602
  0
VERTEX
  8
0
 10
50.920586
 20
172.221570
 42
0.063087
  0
VERTEX
  8
0
 10
50.593405
 20
174.145865
 42
0.109622
  0
VERTEX
  8
0
 10
49.876453
 20
175.419240
 42
0.064989
  0
VERTEX
  8
0
 10
48.548963
 20
176.559875
 42
0.046128
  0
VERTEX
  8
0
 10
47.422783
 20
177.157460
 42
0.046634
  0
VERTEX
  8
0
 10
46.210198
 20
177.535828
 42
0.049917
  0
VERTEX
  8
0
 10
45.041531
 20
177.664321
 42
0.079439
  0
VERTEX
  8
0
 10
44.048963
 20
177.515540
 42
-0.094395
  0
VERTEX
  8
0
 10
42.917832
 20
177.380182
 42
-0.283996
  0
VERTEX
  8
0
 10
42.312805
 20
177.814452
 42
-0.091842
  0
VERTEX
  8
0
 10
42.048236
 20
179.045747
 42
-0.007121
  0
VERTEX
  8
0
 10
42.000000
 20
182.432612
 42
0.009591
  0
VERTEX
  8
0
 10
41.938906
 20
185.617400
 42
0.076780
  0
VERTEX
  8
0
 10
41.660191
 20
187.054077
 42
0.189740
  0
VERTEX
  8
0
 10
41.055112
 20
187.744103
 42
0.119533
  0
VERTEX
  8
0
 10
40.000000
 20
188.000000
 42
0.224251
  0
VERTEX
  8
0
 10
38.893213
 20
187.477318
 42
0.134742
  0
VERTEX
  8
0
 10
38.288462
 20
186.125000
 42
0.035495
  0
VERTEX
  8
0
 10
38.043630
 20
183.134523
 42
0.002682
  0
SEQEND
  0
POLYLINE
  8
0
 66
1
 70
1
  0
VERTEX
  8
0
 10
128.846513
 20
181.000622
 42
0.031903
  0
VERTEX
  8
0
 10
129.343280
 20
177.286693
 42
0.263858
  0
VERTEX
  8
0
 10
130.415398
 20
176.046177
 42
0.415693
  0
VERTEX
  8
0
 10
131.549265
 20
176.588024
 42
0.043346
  0
VERTEX
  8
0
 10
132.358152
 20
179.750000
 42
0.008768
  0
VERTEX
  8
0
 10
132.911380
 20
183.505157
 42
0.095427
  0
VERTEX
  8
0
 10
132.817755
 20
185.024583
 42
0.246429
  0
VERTEX
  8
0
 10
132.163084
 20
185.748739
 42
0.088289
  0
VERTEX
  8
0
 10
130.750000
 20
186.000622
 42
0.076759
  0
VERTEX
  8
0
 10
129.507407
 20
185.809083
 42
0.229108
  0
VERTEX
  8
0
 10
128.898291
 20
185.234079
 42
0.099112
  0
VERTEX
  8
0
 10
128.694564
 20
184.019426
 42
0.009446
  0
SEQEND
  0
POLYLINE
  8
0
 66
1
 70
1
  0
VERTEX
  8
0
 10
121.000000
 20
180.986431
 42
-0.048045
  0
VERTEX
  8
0
 10
120.912071
 20
180.073467
 42
-0.026731
  0
VERTEX
  8
0
 10
120.640168
 20
178.988166
 42
-0.026432
  0
VERTEX
  8
0
 10
120.244238
 20
177.909477
 42
-0.038423
  0
VERTEX
  8
0
 10
119.775041
 20
177.011391
 42
0.033247
  0
VERTEX
  8
0
 10
119.215675
 20
175.967160
 42
0.106729
  0
VERTEX
  8
0
 10
119.050081
 20
175.200232
 42
0.132680
  0
VERTEX
  8
0
 10
119.230766
 20
174.531315
 42
0.064530
  0
VERTEX
  8
0
 10
119.775041
 20
173.824959
 42
-0.125383
  0
VERTEX
  8
0
 10
120.249995
 20
173.025262
 42
-0.025230
  0
VERTEX
  8
0
 10
120.640168
 20
171.402957
 42
-0.025190
  0
VERTEX
  8
0
 10
120.910069
 20
169.418885
 42
-0.021212
  0
VERTEX
  8
0
 10
121.000000
 20
167.300000
 42
0.012836
  0
VERTEX
  8
0
 10
121.067604
 20
164.667123
 42
0.056175
  0
VERTEX
  8
0
 10
121.320755
 20
163.133333
 42
0.120157
  0
VERTEX
  8
0
 10
121.787724
 20
162.308162
 42
0.207049
  0
VERTEX
  8
0
 10
122.500000
 20
162.000000
 42
0.212123
  0
VERTEX
  8
0
 10
123.216041
 20
162.318091
 42
0.118015
  0
VERTEX
  8
0
 10
123.682205
 20
163.171897
 42
0.054243
  0
VERTEX
  8
0
 10
123.933531
 20
164.765390
 42
0.012014
  0
VERTEX
  8
0
 10
124.000000
 20
167.531385
 42
-0.014759
  0
VERTEX
  8
0
 10
124.077787
 20
170.166020
 42
-0.045486
  0
VERTEX
  8
0
 10
124.343810
 20
171.926871
 42
-0.074175
  0
VERTEX
  8
0
 10
124.805382
 20
173.053190
 42
-0.168410
  0
VERTEX
  8
0
 10
125.500000
 20
173.638374
 42
0.068785
  0
VERTEX
  8
0
 10
126.073469
 20
173.954467
 42
0.062945
  0
VERTEX
  8
0
 10
126.559375
 20
174.422663
 42
0.066733
  0
VERTEX
  8
0
 10
126.888365
 20
174.965369
 42
0.103290
  0
VERTEX
  8
0
 10
127.000000
 20
175.500000
 42
0.103290
  0
VERTEX
  8
0
 10
126.888365
 20
176.034631
 42
0.066733
  0
VERTEX
  8
0
 10
126.559375
 20
176.577337
 42
0.062945
  0
VERTEX
  8
0
 10
126.073469
 20
177.045533
 42
0.068785
  0
VERTEX
  8
0
 10
125.500000
 20
177.361626
 42
-0.125259
  0
VERTEX
  8
0
 10
124.925762
 20
177.767801
 42
-0.064130
  0
VERTEX
  8
0
 10
124.440625
 20
178.511741
 42
-0.057561
  0
VERTEX
  8
0
 10
124.111542
 20
179.457712
 42
-0.055002
  0
VERTEX
  8
0
 10
124.000000
 20
180.468615
 42
0.046062
  0
VERTEX
  8
0
 10
123.902073
 20
181.529365
 42
0.087930
  0
VERTEX
  8
0
 10
123.601860
 20
182.328103
 42
0.119192
  0
VERTEX
  8
0
 10
123.122150
 20
182.820648
 42
0.141262
  0
VERTEX
  8
0
 10
122.500000
 20
183.000000
 42
0.131003
  0
VERTEX
  8
0
 10
121.922742
 20
182.846114
 42
0.102732
  0
VERTEX
  8
0
 10
121.436236
 20
182.414405
 42
0.089043
  0
VERTEX
  8
0
 10
121.111455
 20
181.763204
 42
0.071377
  0
SEQEND
  0
POLYLINE
  8
0
 66
1
 70
1
  0
VERTEX
  8
0
 10
205.821332
 20
179.595299
 42
0.022392
  0
VERTEX
  8
0
 10
205.694078
 20
177.817076
 42
0.006748
  0
VERTEX
  8
0
 10
205.658383
 20
175.106485
 42
0.006747
  0
VERTEX
  8
0
 10
205.700474
 20
172.061489
 42
0.007282
  0
VERTEX
  8
0
 10
205.824773
 20
169.095299
 42
0.007530
  0
VERTEX
  8
0
 10
206.110868
 20
165.101091
 42
0.056405
  0
VERTEX
  8
0
 10
206.486073
 20
163.243059
 42
0.150131
  0
VERTEX
  8
0
 10
207.114849
 20
162.343388
 42
0.167227
  0
VERTEX
  8
0
 10
208.112847
 20
162.000000
 42
0.143908
  0
VERTEX
  8
0
 10
209.094002
 20
162.288363
 42
0.175355
  0
VERTEX
  8
0
 10
209.671369
 20
163.044848
 42
0.067465
  0
VERTEX
  8
0
 10
209.940214
 20
164.610991
 42
0.008820
  0
VERTEX
  8
0
 10
210.000000
 20
168.000000
 42
-0.010614
  0
VERTEX
  8
0
 10
210.064452
 20
171.035942
 42
-0.050675
  0
VERTEX
  8
0
 10
210.312500
 20
172.750000
 42
-0.113455
  0
VERTEX
  8
0
 10
210.776970
 20
173.662288
 42
-0.222027
  0
VERTEX
  8
0
 10
211.500000
 20
174.000000
 42
0.099038
  0
VERTEX
  8
0
 10
212.072457
 20
174.114514
 42
0.097945
  0
VERTEX
  8
0
 10
212.559375
 20
174.440625
 42
0.097945
  0
VERTEX
  8
0
 10
212.885486
 20
174.927543
 42
0.099038
  0
VERTEX
  8
0
 10
213.000000
 20
175.500000
 42
0.099038
  0
VERTEX
  8
0
 10
212.885486
 20
176.072457
 42
0.097945
  0
VERTEX
  8
0
 10
212.559375
 20
176.559375
 42
0.097945
  0
VERTEX
  8
0
 10
212.072457
 20
176.885486
 42
0.099038
  0
VERTEX
  8
0
 10
211.500000
 20
177.000000
 42
-0.152103
  0
VERTEX
  8
0
 10
210.851045
 20
177.202091
 42
-0.126510
  0
VERTEX
  8
0
 10
210.375000
 20
177.750000
 42
-0.082504
  0
VERTEX
  8
0
 10
210.088963
 20
178.677925
 42
-0.033607
  0
VERTEX
  8
0
 10
210.000000
 20
180.000000
 42
0.031083
  0
VERTEX
  8
0
 10
209.908597
 20
181.468890
 42
0.109949
  0
VERTEX
  8
0
 10
209.592451
 20
182.353299
 42
0.161275
  0
VERTEX
  8
0
 10
209.011148
 20
182.831773
 42
0.092481
  0
VERTEX
  8
0
 10
208.109406
 20
183.000000
 42
0.108113
  0
VERTEX
  8
0
 10
207.199870
 20
182.801009
 42
0.137942
  0
VERTEX
  8
0
 10
206.548938
 20
182.247224
 42
0.090740
  0
VERTEX
  8
0
 10
206.107637
 20
181.233890
 42
0.028389
  0
SEQEND
  0
POLYLINE
  8
0
 66
1
 70
1
  0
VERTEX
  8
0
 10
59.019708
 20
176.739713
 42
0.155488
  0
VERTEX
  8
0
 10
55.247060
 20
172.972726
 42
0.173518
  0
VERTEX
  8
0
 10
54.562681
 20
167.897124
 42
0.179300
  0
VERTEX
  8
0
 10
57.246453
 20
163.658156
 42
0.164343
  0
VERTEX
  8
0
 10
62.154988
 20
162.000000
 42
0.081789
  0
VERTEX
  8
0
 10
65.899814
 20
162.616696
 42
0.138840
  0
VERTEX
  8
0
 10
68.497998
 20
164.403170
 42
0.130285
  0
VERTEX
  8
0
 10
69.876408
 20
167.381762
 42
0.067865
  0
VERTEX
  8
0
 10
70.036243
 20
171.500000
 42
0.147723
  0
VERTEX
  8
0
 10
68.810691
 20
174.481020
 42
0.111322
  0
VERTEX
  8
0
 10
66.008955
 20
176.681103
 42
0.106406
  0
VERTEX
  8
0
 10
62.419385
 20
177.528936
 42
0.124658
  0
SEQEND
  0
POLYLINE
  8
0
 66
1
 70
1
  0
VERTEX
  8
0
 10
64.572942
 20
173.234687
 42
-0.107095
  0
VERTEX
  8
0
 10
65.765375
 20
171.972547
 42
-0.114089
  0
VERTEX
  8
0
 10
66.293945
 20
170.358280
 42
-0.107307
  0
VERTEX
  8
0
 10
66.073334
 20
168.596305
 42
-0.085785
  0
VERTEX
  8
0
 10
65.137789
 20
166.921834
 42
-0.180966
  0
VERTEX
  8
0
 10
62.550947
 20
165.398923
 42
-0.218362
  0
VERTEX
  8
0
 10
59.848666
 20
166.106088
 42
-0.192071
  0
VERTEX
  8
0
 10
58.385979
 20
168.749803
 42
-0.155543
  0
VERTEX
  8
0
 10
58.979785
 20
171.962227
 42
-0.104173
  0
VERTEX
  8
0
 10
60.018638
 20
173.198120
 42
-0.110575
  0
VERTEX
  8
0
 10
61.446812
 20
173.877381
 42
-0.108761
  0
VERTEX
  8
0
 10
63.047652
 20
173.888629
 42
-0.098004
  0
SEQEND
  0
POLYLINE
  8
0
 66
1
 70
1
  0
VERTEX
  8
0
 10
76.250000
 20
177.276604
 42
0.000000
  0
VERTEX
  8
0
 10
73.000000
 20
176.873283
 42
0.000000
  0
VERTEX
  8
0
 10
73.000000
 20
169.436642
 42
0.005987
  0
VERTEX
  8
0
 10
73.053002
 20
165.010401
 42
0.059765
  0
VERTEX
  8
0
 10
73.317235
 20
163.179580
 42
0.180810
  0
VERTEX
  8
0
 10
73.925872
 20
162.327897
 42
0.149235
  0
VERTEX
  8
0
 10
75.000000
 20
162.000000
 42
0.095943
  0
VERTEX
  8
0
 10
76.023669
 20
162.198253
 42
0.184821
  0
VERTEX
  8
0
 10
76.627021
 20
162.758218
 42
0.097741
  0
VERTEX
  8
0
 10
76.925998
 20
163.871800
 42
0.016860
  0
VERTEX
  8
0
 10
77.000000
 20
166.065741
 42
-0.038967
  0
VERTEX
  8
0
 10
77.257962
 20
169.370680
 42
-0.071376
  0
VERTEX
  8
0
 10
78.050544
 20
171.948384
 42
-0.116122
  0
VERTEX
  8
0
 10
79.213553
 20
173.410284
 42
-0.264410
  0
VERTEX
  8
0
 10
80.561438
 20
173.614798
 42
0.131340
  0
VERTEX
  8
0
 10
81.174754
 20
173.550023
 42
0.086917
  0
VERTEX
  8
0
 10
81.848727
 20
173.780394
 42
0.076525
  0
VERTEX
  8
0
 10
82.479920
 20
174.265741
 42
0.067888
  0
VERTEX
  8
0
 10
82.966432
 20
174.937277
 42
0.039856
  0
VERTEX
  8
0
 10
83.376484
 20
175.876288
 42
0.140453
  0
VERTEX
  8
0
 10
83.411022
 20
176.527649
 42
0.175710
  0
VERTEX
  8
0
 10
83.098087
 20
177.011625
 42
0.070754
  0
VERTEX
  8
0
 10
82.399899
 20
177.400039
 42
0.020938
  0
VERTEX
  8
0
 10
81.752305
 20
177.617910
 42
0.022013
  0
VERTEX
  8
0
 10
81.099408
 20
177.776751
 42
0.022322
  0
VERTEX
  8
0
 10
80.526968
 20
177.863263
 42
0.085314
  0
VERTEX
  8
0
 10
80.168213
 20
177.839963
 42
-0.020909
  0
VERTEX
  8
0
 10
79.745475
 20
177.757231
 42
-0.002162
  0
VERTEX
  8
0
 10
78.741600
 20
177.608461
 42
-0.002688
  0
VERTEX
  8
0
 10
77.543411
 20
177.442755
 42
-0.002146
  0
SEQEND
  0
POLYLINE
  8
0
 66
1
 70
1
  0
VERTEX
  8
0
 10
89.750000
 20
177.271532
 42
0.000000
  0
VERTEX
  8
0
 10
86.000000
 20
176.879269
 42
0.000000
  0
VERTEX
  8
0
 10
86.000000
 20
169.439635
 42
0.006111
  0
VERTEX
  8
0
 10
86.053561
 20
165.057368
 42
0.058043
  0
VERTEX
  8
0
 10
86.315531
 20
163.203752
 42
0.174127
  0
VERTEX
  8
0
 10
86.910889
 20
162.335667
 42
0.157495
  0
VERTEX
  8
0
 10
87.950096
 20
162.000000
 42
0.134449
  0
VERTEX
  8
0
 10
88.971798
 20
162.279792
 42
0.167341
  0
VERTEX
  8
0
 10
89.605858
 20
163.025590
 42
0.070168
  0
VERTEX
  8
0
 10
89.968075
 20
164.552747
 42
0.010166
  0
VERTEX
  8
0
 10
90.200096
 20
167.750000
 42
-0.009988
  0
VERTEX
  8
0
 10
90.433465
 20
170.981771
 42
-0.072233
  0
VERTEX
  8
0
 10
90.797513
 20
172.493762
 42
-0.172705
  0
VERTEX
  8
0
 10
91.443700
 20
173.226774
 42
-0.127238
  0
VERTEX
  8
0
 10
92.500000
 20
173.500000
 42
-0.127238
  0
VERTEX
  8
0
 10
93.556300
 20
173.226774
 42
-0.172705
  0
VERTEX
  8
0
 10
94.202487
 20
172.493762
 42
-0.072233
  0
VERTEX
  8
0
 10
94.566535
 20
170.981771
 42
-0.009988
  0
VERTEX
  8
0
 10
94.799904
 20
167.750000
 42
0.010166
  0
VERTEX
  8
0
 10
95.031925
 20
164.552747
 42
0.070168
  0
VERTEX
  8
0
 10
95.394142
 20
163.025590
 42
0.167341
  0
VERTEX
  8
0
 10
96.028202
 20
162.279792
 42
0.134449
  0
VERTEX
  8
0
 10
97.049904
 20
162.000000
 42
0.141273
  0
VERTEX
  8
0
 10
98.080081
 20
162.296999
 42
0.180815
  0
VERTEX
  8
0
 10
98.674336
 20
163.076023
 42
0.065903
  0
VERTEX
  8
0
 10
98.942858
 20
164.716199
 42
0.007665
  0
VERTEX
  8
0
 10
99.000000
 20
168.443296
 42
0.011265
  0
VERTEX
  8
0
 10
98.919116
 20
172.032995
 42
0.056541
  0
VERTEX
  8
0
 10
98.603367
 20
174.014520
 42
0.097244
  0
VERTEX
  8
0
 10
97.942173
 20
175.332915
 42
0.075404
  0
VERTEX
  8
0
 10
96.777494
 20
176.443296
 42
0.015085
  0
VERTEX
  8
0
 10
95.887757
 20
177.027298
 42
0.020773
  0
VERTEX
  8
0
 10
95.052897
 20
177.493338
 42
0.018002
  0
VERTEX
  8
0
 10
94.348120
 20
177.817926
 42
0.177867
  0
VERTEX
  8
0
 10
94.027494
 20
177.831897
 42
-0.042084
  0
VERTEX
  8
0
 10
93.665757
 20
177.749337
 42
-0.002502
  0
VERTEX
  8
0
 10
92.553389
 20
177.597947
 42
-0.003752
  0
VERTEX
  8
0
 10
91.224852
 20
177.434034
 42
-0.002758
  0
SEQEND
  0
POLYLINE
  8
0
 66
1
 70
1
  0
VERTEX
  8
0
 10
106.281802
 20
176.815641
 42
0.126071
  0
VERTEX
  8
0
 10
104.528517
 20
175.312895
 42
0.060277
  0
VERTEX
  8
0
 10
103.119907
 20
172.678147
 42
0.060041
  0
VERTEX
  8
0
 10
102.373500
 20
169.762485
 42
0.118944
  0
VERTEX
  8
0
 10
102.624818
 20
167.402623
 42
0.057926
  0
VERTEX
  8
0
 10
103.818868
 20
164.984046
 42
0.091314
  0
VERTEX
  8
0
 10
105.403259
 20
163.305130
 42
0.093924
  0
VERTEX
  8
0
 10
107.446789
 20
162.330729
 42
0.064498
  0
VERTEX
  8
0
 10
110.000000
 20
162.000000
 42
0.072502
  0
VERTEX
  8
0
 10
112.398977
 20
162.349700
 42
0.063385
  0
VERTEX
  8
0
 10
114.719727
 20
163.375250
 42
0.070935
  0
VERTEX
  8
0
 10
116.434563
 20
164.774305
 42
0.188390
  0
VERTEX
  8
0
 10
117.000000
 20
166.221752
 42
0.280477
  0
VERTEX
  8
0
 10
116.503805
 20
167.036720
 42
0.107668
  0
VERTEX
  8
0
 10
115.170035
 20
167.395076
 42
0.086244
  0
VERTEX
  8
0
 10
113.545407
 20
167.192432
 42
0.122925
  0
VERTEX
  8
0
 10
112.304321
 20
166.447178
 42
-0.100349
  0
VERTEX
  8
0
 10
110.799319
 20
165.449557
 42
-0.136636
  0
VERTEX
  8
0
 10
109.189347
 20
165.265627
 42
-0.159563
  0
VERTEX
  8
0
 10
107.888159
 20
165.933638
 42
-0.148524
  0
VERTEX
  8
0
 10
107.188159
 20
167.261484
 42
-0.148575
  0
VERTEX
  8
0
 10
107.280710
 20
168.141881
 42
-0.207770
  0
VERTEX
  8
0
 10
107.846221
 20
168.680829
 42
-0.077439
  0
VERTEX
  8
0
 10
109.149086
 20
168.940964
 42
-0.010626
  0
VERTEX
  8
0
 10
111.926676
 20
169.000000
 42
0.011670
  0
VERTEX
  8
0
 10
114.718629
 20
169.065174
 42
0.077604
  0
VERTEX
  8
0
 10
116.078647
 20
169.343096
 42
0.178889
  0
VERTEX
  8
0
 10
116.749326
 20
169.920154
 42
0.127245
  0
VERTEX
  8
0
 10
117.000000
 20
170.889216
 42
0.156171
  0
VERTEX
  8
0
 10
116.013193
 20
173.971533
 42
0.111971
  0
VERTEX
  8
0
 10
113.294124
 20
176.395606
 42
0.107495
  0
VERTEX
  8
0
 10
109.693700
 20
177.473637
 42
0.134436
  0
SEQEND
  0
POLYLINE
  8
0
 66
1
 70
1
  0
VERTEX
  8
0
 10
112.000000
 20
173.000000
 42
-0.230178
  0
VERTEX
  8
0
 10
111.813779
 20
172.616918
 42
-0.073461
  0
VERTEX
  8
0
 10
111.248289
 20
172.293750
 42
-0.055981
  0
VERTEX
  8
0
 10
110.420991
 20
172.073066
 42
-0.037227
  0
VERTEX
  8
0
 10
109.440983
 20
172.000000
 42
-0.035659
  0
VERTEX
  8
0
 10
108.479336
 20
172.068671
 42
-0.083483
  0
VERTEX
  8
0
 10
107.794783
 20
172.287316
 42
-0.165100
  0
VERTEX
  8
0
 10
107.478234
 20
172.615199
 42
-0.253782
  0
VERTEX
  8
0
 10
107.500000
 20
173.000000
 42
-0.111412
  0
VERTEX
  8
0
 10
107.876024
 20
173.383556
 42
-0.050262
  0
VERTEX
  8
0
 10
108.506650
 20
173.706250
 42
-0.046318
  0
VERTEX
  8
0
 10
109.270704
 20
173.925923
 42
-0.046881
  0
VERTEX
  8
0
 10
110.059017
 20
174.000000
 42
-0.049547
  0
VERTEX
  8
0
 10
110.801778
 20
173.926216
 42
-0.069539
  0
VERTEX
  8
0
 10
111.429836
 20
173.706250
 42
-0.089706
  0
VERTEX
  8
0
 10
111.852535
 20
173.381787
 42
-0.186414
  0
SEQEND
  0
POLYLINE
  8
0
 66
1
 70
1
  0
VERTEX
  8
0
 10
137.896745
 20
176.117473
 42
0.030378
  0
VERTEX
  8
0
 10
136.663960
 20
174.988670
 42
0.127979
  0
VERTEX
  8
0
 10
136.174839
 20
174.122574
 42
0.136323
  0
VERTEX
  8
0
 10
136.185885
 20
173.158601
 42
0.036289
  0
VERTEX
  8
0
 10
136.725003
 20
171.704207
 42
0.050374
  0
VERTEX
  8
0
 10
137.318249
 20
170.687484
 42
0.040298
  0
VERTEX
  8
0
 10
138.144773
 20
169.724726
 42
0.041678
  0
VERTEX
  8
0
 10
139.065792
 20
168.952843
 42
0.076873
  0
VERTEX
  8
0
 10
139.939042
 20
168.519347
 42
-0.059006
  0
VERTEX
  8
0
 10
140.727111
 20
168.162484
 42
-0.062213
  0
VERTEX
  8
0
 10
141.394594
 20
167.636543
 42
-0.069519
  0
VERTEX
  8
0
 10
141.847192
 20
167.029124
 42
-0.126050
  0
VERTEX
  8
0
 10
142.000000
 20
166.432612
 42
-0.109610
  0
VERTEX
  8
0
 10
141.784212
 20
165.460092
 42
-0.269026
  0
VERTEX
  8
0
 10
141.204812
 20
165.056437
 42
-0.169456
  0
VERTEX
  8
0
 10
140.313336
 20
165.286764
 42
-0.049249
  0
VERTEX
  8
0
 10
139.200000
 20
166.200000
 42
0.172542
  0
VERTEX
  8
0
 10
137.896498
 20
166.819533
 42
0.248293
  0
VERTEX
  8
0
 10
136.735883
 20
166.349521
 42
0.207142
  0
VERTEX
  8
0
 10
136.335126
 20
165.010298
 42
0.144744
  0
VERTEX
  8
0
 10
136.964826
 20
163.542382
 42
0.138427
  0
VERTEX
  8
0
 10
138.502044
 20
162.484006
 42
0.071167
  0
VERTEX
  8
0
 10
140.818155
 20
162.048734
 42
0.071094
  0
VERTEX
  8
0
 10
143.166552
 20
162.280276
 42
0.137143
  0
VERTEX
  8
0
 10
144.800000
 20
163.200000
 42
0.133582
  0
VERTEX
  8
0
 10
145.807790
 20
164.960935
 42
0.088104
  0
VERTEX
  8
0
 10
145.991701
 20
167.300135
 42
0.095729
  0
VERTEX
  8
0
 10
145.371191
 20
169.393470
 42
0.198657
  0
VERTEX
  8
0
 10
144.090305
 20
170.471338
 42
-0.045436
  0
VERTEX
  8
0
 10
143.262041
 20
170.819709
 42
-0.027431
  0
VERTEX
  8
0
 10
142.350172
 20
171.371027
 42
-0.027336
  0
VERTEX
  8
0
 10
141.497339
 20
172.023812
 42
-0.042553
  0
VERTEX
  8
0
 10
140.848147
 20
172.682972
 42
-0.011115
  0
VERTEX
  8
0
 10
140.101460
 20
173.624499
 42
-0.359169
  0
VERTEX
  8
0
 10
140.112729
 20
173.896710
 42
-0.285538
  0
VERTEX
  8
0
 10
140.405608
 20
173.982044
 42
-0.008642
  0
VERTEX
  8
0
 10
141.673685
 20
173.603568
 42
0.102903
  0
VERTEX
  8
0
 10
143.451968
 20
173.421106
 42
0.238755
  0
VERTEX
  8
0
 10
144.549147
 20
174.126797
 42
0.260284
  0
VERTEX
  8
0
 10
144.575441
 20
175.365632
 42
0.113326
  0
VERTEX
  8
0
 10
143.461646
 20
176.651704
 42
0.032102
  0
VERTEX
  8
0
 10
141.870933
 20
177.665006
 42
0.150807
  0
VERTEX
  8
0
 10
140.821735
 20
177.881680
 42
0.126858
  0
VERTEX
  8
0
 10
139.734092
 20
177.487031
 42
0.020057
  0
SEQEND
  0
POLYLINE
  8
0
 66
1
 70
1
  0
VERTEX
  8
0
 10
162.750000
 20
177.271532
 42
0.000000
  0
VERTEX
  8
0
 10
159.000000
 20
176.879269
 42
0.000000
  0
VERTEX
  8
0
 10
159.000000
 20
169.439635
 42
0.006111
  0
VERTEX
  8
0
 10
159.053561
 20
165.057368
 42
0.058043
  0
VERTEX
  8
0
 10
159.315531
 20
163.203752
 42
0.174127
  0
VERTEX
  8
0
 10
159.910889
 20
162.335667
 42
0.157495
  0
VERTEX
  8
0
 10
160.950096
 20
162.000000
 42
0.134449
  0
VERTEX
  8
0
 10
161.971798
 20
162.279792
 42
0.167341
  0
VERTEX
  8
0
 10
162.605858
 20
163.025590
 42
0.070168
  0
VERTEX
  8
0
 10
162.968075
 20
164.552747
 42
0.010166
  0
VERTEX
  8
0
 10
163.200096
 20
167.750000
 42
-0.009988
  0
VERTEX
  8
0
 10
163.433465
 20
170.981771
 42
-0.072233
  0
VERTEX
  8
0
 10
163.797513
 20
172.493762
 42
-0.172705
  0
VERTEX
  8
0
 10
164.443700
 20
173.226774
 42
-0.127238
  0
VERTEX
  8
0
 10
165.500000
 20
173.500000
 42
-0.127238
  0
VERTEX
  8
0
 10
166.556300
 20
173.226774
 42
-0.172705
  0
VERTEX
  8
0
 10
167.202487
 20
172.493762
 42
-0.072233
  0
VERTEX
  8
0
 10
167.566535
 20
170.981771
 42
-0.009988
  0
VERTEX
  8
0
 10
167.799904
 20
167.750000
 42
0.010166
  0
VERTEX
  8
0
 10
168.031925
 20
164.552747
 42
0.070168
  0
VERTEX
  8
0
 10
168.394142
 20
163.025590
 42
0.167341
  0
VERTEX
  8
0
 10
169.028202
 20
162.279792
 42
0.134449
  0
VERTEX
  8
0
 10
170.049904
 20
162.000000
 42
0.141273
  0
VERTEX
  8
0
 10
171.080081
 20
162.296999
 42
0.180815
  0
VERTEX
  8
0
 10
171.674336
 20
163.076023
 42
0.065903
  0
VERTEX
  8
0
 10
171.942858
 20
164.716199
 42
0.007665
  0
VERTEX
  8
0
 10
172.000000
 20
168.443296
 42
0.011265
  0
VERTEX
  8
0
 10
171.919116
 20
172.032995
 42
0.056541
  0
VERTEX
  8
0
 10
171.603367
 20
174.014520
 42
0.097244
  0
VERTEX
  8
0
 10
170.942173
 20
175.332915
 42
0.075404
  0
VERTEX
  8
0
 10
169.777494
 20
176.443296
 42
0.015085
  0
VERTEX
  8
0
 10
168.887757
 20
177.027298
 42
0.020773
  0
VERTEX
  8
0
 10
168.052897
 20
177.493338
 42
0.018002
  0
VERTEX
  8
0
 10
167.348120
 20
177.817926
 42
0.177867
  0
VERTEX
  8
0
 10
167.027494
 20
177.831897
 42
-0.042084
  0
VERTEX
  8
0
 10
166.665757
 20
177.749337
 42
-0.002502
  0
VERTEX
  8
0
 10
165.553389
 20
177.597947
 42
-0.003752
  0
VERTEX
  8
0
 10
164.224852
 20
177.434034
 42
-0.002758
  0
SEQEND
  0
POLYLINE
  8
0
 66
1
 70
1
  0
VERTEX
  8
0
 10
179.281802
 20
176.815641
 42
0.126071
  0
VERTEX
  8
0
 10
177.528517
 20
175.312895
 42
0.060277
  0
VERTEX
  8
0
 10
176.119907
 20
172.678147
 42
0.060041
  0
VERTEX
  8
0
 10
175.373500
 20
169.762485
 42
0.118944
  0
VERTEX
  8
0
 10
175.624818
 20
167.402623
 42
0.057926
  0
VERTEX
  8
0
 10
176.818868
 20
164.984046
 42
0.091314
  0
VERTEX
  8
0
 10
178.403259
 20
163.305130
 42
0.093924
  0
VERTEX
  8
0
 10
180.446789
 20
162.330729
 42
0.064498
  0
VERTEX
  8
0
 10
183.000000
 20
162.000000
 42
0.072502
  0
VERTEX
  8
0
 10
185.398977
 20
162.349700
 42
0.063385
  0
VERTEX
  8
0
 10
187.719727
 20
163.375250
 42
0.070935
  0
VERTEX
  8
0
 10
189.434563
 20
164.774305
 42
0.188390
  0
VERTEX
  8
0
 10
190.000000
 20
166.221752
 42
0.280477
  0
VERTEX
  8
0
 10
189.503805
 20
167.036720
 42
0.107668
  0
VERTEX
  8
0
 10
188.170035
 20
167.395076
 42
0.086244
  0
VERTEX
  8
0
 10
186.545407
 20
167.192432
 42
0.122925
  0
VERTEX
  8
0
 10
185.304321
 20
166.447178
 42
-0.100349
  0
VERTEX
  8
0
 10
183.799319
 20
165.449557
 42
-0.136636
  0
VERTEX
  8
0
 10
182.189347
 20
165.265627
 42
-0.159563
  0
VERTEX
  8
0
 10
180.888159
 20
165.933638
 42
-0.148524
  0
VERTEX
  8
0
 10
180.188159
 20
167.261484
 42
-0.148575
  0
VERTEX
  8
0
 10
180.280710
 20
168.141881
 42
-0.207770
  0
VERTEX
  8
0
 10
180.846221
 20
168.680829
 42
-0.077439
  0
VERTEX
  8
0
 10
182.149086
 20
168.940964
 42
-0.010626
  0
VERTEX
  8
0
 10
184.926676
 20
169.000000
 42
0.011670
  0
VERTEX
  8
0
 10
187.718629
 20
169.065174
 42
0.077604
  0
VERTEX
  8
0
 10
189.078647
 20
169.343096
 42
0.178889
  0
VERTEX
  8
0
 10
189.749326
 20
169.920154
 42
0.127245
  0
VERTEX
  8
0
 10
190.000000
 20
170.889216
 42
0.156171
  0
VERTEX
  8
0
 10
189.013193
 20
173.971533
 42
0.111971
  0
VERTEX
  8
0
 10
186.294124
 20
176.395606
 42
0.107495
  0
VERTEX
  8
0
 10
182.693700
 20
177.473637
 42
0.134436
  0
SEQEND
  0
POLYLINE
  8
0
 66
1
 70
1
  0
VERTEX
  8
0
 10
185.000000
 20
173.000000
 42
-0.230178
  0
VERTEX
  8
0
 10
184.813779
 20
172.616918
 42
-0.073461
  0
VERTEX
  8
0
 10
184.248289
 20
172.293750
 42
-0.055981
  0
VERTEX
  8
0
 10
183.420991
 20
172.073066
 42
-0.037227
  0
VERTEX
  8
0
 10
182.440983
 20
172.000000
 42
-0.035659
  0
VERTEX
  8
0
 10
181.479336
 20
172.068671
 42
-0.083483
  0
VERTEX
  8
0
 10
180.794783
 20
172.287316
 42
-0.165100
  0
VERTEX
  8
0
 10
180.478234
 20
172.615199
 42
-0.253782
  0
VERTEX
  8
0
 10
180.500000
 20
173.000000
 42
-0.111412
  0
VERTEX
  8
0
 10
180.876024
 20
173.383556
 42
-0.050262
  0
VERTEX
  8
0
 10
181.506650
 20
173.706250
 42
-0.046318
  0
VERTEX
  8
0
 10
182.270704
 20
173.925923
 42
-0.046881
  0
VERTEX
  8
0
 10
183.059017
 20
174.000000
 42
-0.049547
  0
VERTEX
  8
0
 10
183.801778
 20
173.926216
 42
-0.069539
  0
VERTEX
  8
0
 10
184.429836
 20
173.706250
 42
-0.089706
  0
VERTEX
  8
0
 10
184.852535
 20
173.381787
 42
-0.186414
  0
SEQEND
  0
POLYLINE
  8
0
 66
1
 70
1
  0
VERTEX
  8
0
 10
194.750000
 20
176.911729
 42
0.157723
  0
VERTEX
  8
0
 10
193.353837
 20
175.364155
 42
0.143623
  0
VERTEX
  8
0
 10
193.061880
 20
173.228197
 42
0.115284
  0
VERTEX
  8
0
 10
193.989997
 20
170.897771
 42
0.081579
  0
VERTEX
  8
0
 10
195.960733
 20
168.870910
 42
-0.026710
  0
VERTEX
  8
0
 10
197.055074
 20
167.967626
 42
-0.040760
  0
VERTEX
  8
0
 10
197.890258
 20
167.063654
 42
-0.048179
  0
VERTEX
  8
0
 10
198.391575
 20
166.278262
 42
-0.262116
  0
VERTEX
  8
0
 10
198.371705
 20
165.792415
 42
-0.163363
  0
VERTEX
  8
0
 10
198.060388
 20
165.533711
 42
-0.116857
  0
VERTEX
  8
0
 10
197.608372
 20
165.471471
 42
-0.089858
  0
VERTEX
  8
0
 10
197.074051
 20
165.622263
 42
-0.059679
  0
VERTEX
  8
0
 10
196.537721
 20
165.968695
 42
0.143427
  0
VERTEX
  8
0
 10
195.365224
 20
166.475254
 42
0.078546
  0
VERTEX
  8
0
 10
193.787993
 20
166.421819
 42
0.088487
  0
VERTEX
  8
0
 10
192.461835
 20
165.911795
 42
0.262580
  0
VERTEX
  8
0
 10
192.000000
 20
165.093011
 42
0.181212
  0
VERTEX
  8
0
 10
192.428709
 20
163.948965
 42
0.085568
  0
VERTEX
  8
0
 10
193.669883
 20
162.939085
 42
0.070000
  0
VERTEX
  8
0
 10
195.464041
 20
162.238002
 42
0.058251
  0
VERTEX
  8
0
 10
197.500000
 20
162.000000
 42
0.123656
  0
VERTEX
  8
0
 10
201.067140
 20
162.895893
 42
0.202998
  0
VERTEX
  8
0
 10
202.990209
 20
165.283149
 42
0.208007
  0
VERTEX
  8
0
 10
202.590916
 20
168.276811
 42
0.128373
  0
VERTEX
  8
0
 10
200.006323
 20
170.796510
 42
-0.020748
  0
VERTEX
  8
0
 10
197.896275
 20
172.115954
 42
-0.139120
  0
VERTEX
  8
0
 10
197.113327
 20
173.056875
 42
-0.544180
  0
VERTEX
  8
0
 10
197.411531
 20
173.512847
 42
-0.062749
  0
VERTEX
  8
0
 10
198.887141
 20
173.319262
 42
0.088351
  0
VERTEX
  8
0
 10
200.253535
 20
173.210359
 42
0.176493
  0
VERTEX
  8
0
 10
201.218461
 20
173.671840
 42
0.214204
  0
VERTEX
  8
0
 10
201.547400
 20
174.563884
 42
0.125938
  0
VERTEX
  8
0
 10
201.184017
 20
175.662965
 42
0.129003
  0
VERTEX
  8
0
 10
200.047039
 20
176.710211
 42
0.074147
  0
VERTEX
  8
0
 10
198.279403
 20
177.334948
 42
0.072305
  0
VERTEX
  8
0
 10
196.353500
 20
177.426198
 42
0.107133
  0
SEQEND
  0
POLYLINE
  8
0
 66
1
 70
1
  0
VERTEX
  8
0
 10
215.634571
 20
164.215589
 42
0.010926
  0
VERTEX
  8
0
 10
215.054954
 20
163.011598
 42
0.007737
  0
VERTEX
  8
0
 10
214.455214
 20
161.636767
 42
0.007814
  0
VERTEX
  8
0
 10
213.922913
 20
160.304984
 42
0.016351
  0
VERTEX
  8
0
 10
213.559298
 20
159.250000
 42
0.143792
  0
VERTEX
  8
0
 10
213.535186
 20
157.475754
 42
0.442951
  0
VERTEX
  8
0
 10
214.483992
 20
156.999975
 42
0.133072
  0
VERTEX
  8
0
 10
216.278882
 20
158.318955
 42
0.050224
  0
VERTEX
  8
0
 10
217.979676
 20
160.960162
 42
0.004404
  0
VERTEX
  8
0
 10
219.563700
 20
164.133854
 42
0.089385
  0
VERTEX
  8
0
 10
219.855374
 20
165.164334
 42
0.269257
  0
VERTEX
  8
0
 10
219.569261
 20
165.790659
 42
0.062543
  0
VERTEX
  8
0
 10
218.507886
 20
166.358600
 42
0.145625
  0
VERTEX
  8
0
 10
217.782012
 20
166.414742
 42
0.107613
  0
VERTEX
  8
0
 10
217.044493
 20
166.079684
 42
0.076990
  0
VERTEX
  8
0
 10
216.319449
 20
165.341310
 42
0.038042
  0
SEQEND
  0
POLYLINE
  8
0
 66
1
 70
1
  0
VERTEX
  8
0
 10
121.057331
 20
136.250000
 42
-0.000940
  0
VERTEX
  8
0
 10
120.560684
 20
132.242187
 42
-0.000958
  0
VERTEX
  8
0
 10
120.052176
 20
128.262500
 42
-0.000929
  0
VERTEX
  8
0
 10
119.597288
 20
124.806294
 42
-0.003988
  0
VERTEX
  8
0
 10
119.306050
 20
122.750000
 42
0.013924
  0
VERTEX
  8
0
 10
119.031065
 20
120.485211
 42
0.143178
  0
VERTEX
  8
0
 10
119.208534
 20
119.569562
 42
0.234615
  0
VERTEX
  8
0
 10
119.815098
 20
119.123548
 42
0.043312
  0
VERTEX
  8
0
 10
121.238686
 20
119.000000
 42
0.137975
  0
VERTEX
  8
0
 10
122.700657
 20
119.411261
 42
0.178497
  0
VERTEX
  8
0
 10
123.558426
 20
120.495997
 42
0.049600
  0
VERTEX
  8
0
 10
124.101610
 20
122.963369
 42
0.003232
  0
VERTEX
  8
0
 10
124.914564
 20
130.250000
 42
-0.000622
  0
VERTEX
  8
0
 10
125.389946
 20
134.722650
 42
-0.000787
  0
VERTEX
  8
0
 10
125.841071
 20
138.856250
 42
-0.000620
  0
VERTEX
  8
0
 10
126.229233
 20
142.322509
 42
-0.006395
  0
VERTEX
  8
0
 10
126.409397
 20
143.750000
 42
0.047426
  0
VERTEX
  8
0
 10
126.458239
 20
144.870652
 42
0.165584
  0
VERTEX
  8
0
 10
126.193883
 20
145.533639
 42
0.168141
  0
VERTEX
  8
0
 10
125.583060
 20
145.891549
 42
0.049254
  0
VERTEX
  8
0
 10
124.484802
 20
146.000000
 42
0.155185
  0
VERTEX
  8
0
 10
123.210325
 20
145.594679
 42
0.155466
  0
VERTEX
  8
0
 10
122.405216
 20
144.527890
 42
0.049680
  0
VERTEX
  8
0
 10
121.837173
 20
142.194180
 42
0.004519
  0
SEQEND
  0
POLYLINE
  8
0
 66
1
 70
1
  0
VERTEX
  8
0
 10
131.563971
 20
143.750000
 42
0.019228
  0
VERTEX
  8
0
 10
130.890445
 20
139.808273
 42
0.003572
  0
VERTEX
  8
0
 10
129.983879
 20
132.513472
 42
0.003166
  0
VERTEX
  8
0
 10
129.174232
 20
125.193930
 42
0.025965
  0
VERTEX
  8
0
 10
129.000000
 20
121.840996
 42
0.034478
  0
VERTEX
  8
0
 10
129.095766
 20
120.453853
 42
0.116723
  0
VERTEX
  8
0
 10
129.422007
 20
119.613357
 42
0.159937
  0
VERTEX
  8
0
 10
130.020672
 20
119.157339
 42
0.083638
  0
VERTEX
  8
0
 10
130.954687
 20
119.000000
 42
0.101858
  0
VERTEX
  8
0
 10
131.892374
 20
119.193025
 42
0.127942
  0
VERTEX
  8
0
 10
132.590517
 20
119.735454
 42
0.090413
  0
VERTEX
  8
0
 10
133.094165
 20
120.713775
 42
0.032198
  0
VERTEX
  8
0
 10
133.455020
 20
122.250000
 42
0.010136
  0
VERTEX
  8
0
 10
134.126834
 20
126.816545
 42
0.002623
  0
VERTEX
  8
0
 10
135.021238
 20
134.199822
 42
0.001697
  0
VERTEX
  8
0
 10
135.861828
 20
141.679692
 42
0.027136
  0
VERTEX
  8
0
 10
136.000000
 20
144.223766
 42
0.211873
  0
VERTEX
  8
0
 10
135.400598
 20
145.574795
 42
0.213678
  0
VERTEX
  8
0
 10
133.999776
 20
146.030676
 42
0.164989
  0
VERTEX
  8
0
 10
132.431783
 20
145.305046
 42
0.151813
  0
SEQEND
  0
POLYLINE
  8
0
 66
1
 70
1
  0
VERTEX
  8
0
 10
214.057331
 20
136.250000
 42
-0.000940
  0
VERTEX
  8
0
 10
213.560684
 20
132.242187
 42
-0.000958
  0
VERTEX
  8
0
 10
213.052176
 20
128.262500
 42
-0.000929
  0
VERTEX
  8
0
 10
212.597288
 20
124.806294
 42
-0.003988
  0
VERTEX
  8
0
 10
212.306050
 20
122.750000
 42
0.013861
  0
VERTEX
  8
0
 10
212.027196
 20
120.455777
 42
0.150322
  0
VERTEX
  8
0
 10
212.215002
 20
119.553326
 42
0.233213
  0
VERTEX
  8
0
 10
212.842834
 20
119.115483
 42
0.037702
  0
VERTEX
  8
0
 10
214.372192
 20
119.000000
 42
0.040350
  0
VERTEX
  8
0
 10
215.700322
 20
119.107355
 42
0.141730
  0
VERTEX
  8
0
 10
216.467523
 20
119.471257
 42
0.158564
  0
VERTEX
  8
0
 10
216.872875
 20
120.160227
 42
0.054377
  0
VERTEX
  8
0
 10
217.000000
 20
121.325686
 42
-0.083440
  0
VERTEX
  8
0
 10
217.178078
 20
122.385358
 42
-0.039555
  0
VERTEX
  8
0
 10
217.734375
 20
123.658111
 42
-0.037766
  0
VERTEX
  8
0
 10
218.543333
 20
124.929628
 42
-0.043650
  0
VERTEX
  8
0
 10
219.500000
 20
126.000000
 42
0.000000
  0
VERTEX
  8
0
 10
222.000000
 20
128.348628
 42
0.000000
  0
VERTEX
  8
0
 10
222.000000
 20
123.674314
 42
0.013484
  0
VERTEX
  8
0
 10
222.068290
 20
121.142605
 42
0.082458
  0
VERTEX
  8
0
 10
222.350730
 20
119.870473
 42
0.178324
  0
VERTEX
  8
0
 10
222.926072
 20
119.235231
 42
0.121061
  0
VERTEX
  8
0
 10
223.883369
 20
119.000000
 42
0.196236
  0
VERTEX
  8
0
 10
225.288126
 20
119.573409
 42
0.118270
  0
VERTEX
  8
0
 10
226.258144
 20
121.119728
 42
0.062463
  0
VERTEX
  8
0
 10
226.816567
 20
123.873837
 42
0.018099
  0
VERTEX
  8
0
 10
226.986345
 20
128.214816
 42
0.049420
  0
VERTEX
  8
0
 10
226.675728
 20
131.445056
 42
0.133414
  0
VERTEX
  8
0
 10
225.661498
 20
133.492733
 42
0.147316
  0
VERTEX
  8
0
 10
223.825606
 20
134.626224
 42
0.065240
  0
VERTEX
  8
0
 10
220.973192
 20
135.000000
 42
-0.092844
  0
VERTEX
  8
0
 10
219.795702
 20
135.220546
 42
-0.224063
  0
VERTEX
  8
0
 10
219.200188
 20
135.847558
 42
-0.087237
  0
VERTEX
  8
0
 10
219.005576
 20
137.182522
 42
-0.008228
  0
VERTEX
  8
0
 10
219.157450
 20
140.501363
 42
0.008297
  0
VERTEX
  8
0
 10
219.308095
 20
143.803205
 42
0.085873
  0
VERTEX
  8
0
 10
219.115657
 20
145.146157
 42
0.221887
  0
VERTEX
  8
0
 10
218.526922
 20
145.777675
 42
0.096394
  0
VERTEX
  8
0
 10
217.373473
 20
146.001363
 42
0.170938
  0
VERTEX
  8
0
 10
216.173957
 20
145.578070
 42
0.142235
  0
VERTEX
  8
0
 10
215.394582
 20
144.463845
 42
0.046892
  0
VERTEX
  8
0
 10
214.823179
 20
142.067590
 42
0.004740
  0
SEQEND
  0
POLYLINE
  8
0
 66
1
 70
1
  0
VERTEX
  8
0
 10
169.000000
 20
138.500000
 42
0.012588
  0
VERTEX
  8
0
 10
169.067481
 20
135.820156
 42
0.051160
  0
VERTEX
  8
0
 10
169.315119
 20
134.209785
 42
0.105560
  0
VERTEX
  8
0
 10
169.760264
 20
133.322836
 42
0.227640
  0
VERTEX
  8
0
 10
170.432612
 20
133.000000
 42
0.179413
  0
VERTEX
  8
0
 10
171.427402
 20
133.368828
 42
0.113911
  0
VERTEX
  8
0
 10
172.167634
 20
134.375895
 42
0.049417
  0
VERTEX
  8
0
 10
172.800806
 20
136.364452
 42
0.008524
  0
VERTEX
  8
0
 10
173.557973
 20
140.250000
 42
0.013042
  0
VERTEX
  8
0
 10
173.906136
 20
142.564220
 42
0.151663
  0
VERTEX
  8
0
 10
173.746144
 20
143.454611
 42
0.240719
  0
VERTEX
  8
0
 10
173.139265
 20
143.887432
 42
0.036786
  0
VERTEX
  8
0
 10
171.611291
 20
144.000000
 42
0.060488
  0
VERTEX
  8
0
 10
170.094392
 20
143.815817
 42
0.225161
  0
VERTEX
  8
0
 10
169.368695
 20
143.223441
 42
0.102734
  0
VERTEX
  8
0
 10
169.058198
 20
141.946451
 42
0.008443
  0
SEQEND
  0
POLYLINE
  8
0
 66
1
 70
1
  0
VERTEX
  8
0
 10
254.000000
 20
138.500000
 42
0.012588
  0
VERTEX
  8
0
 10
254.067481
 20
135.820156
 42
0.051160
  0
VERTEX
  8
0
 10
254.315119
 20
134.209785
 42
0.105560
  0
VERTEX
  8
0
 10
254.760264
 20
133.322836
 42
0.227640
  0
VERTEX
  8
0
 10
255.432612
 20
133.000000
 42
0.179413
  0
VERTEX
  8
0
 10
256.427402
 20
133.368828
 42
0.113911
  0
VERTEX
  8
0
 10
257.167634
 20
134.375895
 42
0.049417
  0
VERTEX
  8
0
 10
257.800806
 20
136.364452
 42
0.008524
  0
VERTEX
  8
0
 10
258.557973
 20
140.250000
 42
0.013042
  0
VERTEX
  8
0
 10
258.906136
 20
142.564220
 42
0.151663
  0
VERTEX
  8
0
 10
258.746144
 20
143.454611
 42
0.240719
  0
VERTEX
  8
0
 10
258.139265
 20
143.887432
 42
0.036786
  0
VERTEX
  8
0
 10
256.611291
 20
144.000000
 42
0.060488
  0
VERTEX
  8
0
 10
255.094392
 20
143.815817
 42
0.225161
  0
VERTEX
  8
0
 10
254.368695
 20
143.223441
 42
0.102734
  0
VERTEX
  8
0
 10
254.058198
 20
141.946451
 42
0.008443
  0
SEQEND
  0
POLYLINE
  8
0
 66
1
 70
1
  0
VERTEX
  8
0
 10
141.190371
 20
141.250000
 42
0.076985
  0
VERTEX
  8
0
 10
141.429863
 20
140.581313
 42
0.076288
  0
VERTEX
  8
0
 10
141.860970
 20
140.014062
 42
0.081628
  0
VERTEX
  8
0
 10
142.412083
 20
139.632352
 42
0.111169
  0
VERTEX
  8
0
 10
143.000000
 20
139.500000
 42
0.111169
  0
VERTEX
  8
0
 10
143.587917
 20
139.632352
 42
0.081628
  0
VERTEX
  8
0
 10
144.139030
 20
140.014062
 42
0.076288
  0
VERTEX
  8
0
 10
144.570137
 20
140.581313
 42
0.076985
  0
VERTEX
  8
0
 10
144.809629
 20
141.250000
 42
0.080835
  0
VERTEX
  8
0
 10
144.832547
 20
142.041863
 42
0.169023
  0
VERTEX
  8
0
 10
144.558294
 20
142.585443
 42
0.141833
  0
VERTEX
  8
0
 10
143.962207
 20
142.900990
 42
0.051314
  0
VERTEX
  8
0
 10
143.000000
 20
143.000000
 42
0.051314
  0
VERTEX
  8
0
 10
142.037793
 20
142.900990
 42
0.141833
  0
VERTEX
  8
0
 10
141.441706
 20
142.585443
 42
0.169023
  0
VERTEX
  8
0
 10
141.167453
 20
142.041863
 42
0.080835
  0
SEQEND
  0
POLYLINE
  8
0
 66
1
 70
1
  0
VERTEX
  8
0
 10
90.565978
 20
137.500000
 42
-0.019864
  0
VERTEX
  8
0
 10
90.258791
 20
136.158882
 42
-0.030326
  0
VERTEX
  8
0
 10
89.877125
 20
135.028125
 42
-0.030519
  0
VERTEX
  8
0
 10
89.478666
 20
134.197269
 42
-0.272081
  0
VERTEX
  8
0
 10
89.142985
 20
134.000000
 42
0.375885
  0
VERTEX
  8
0
 10
88.839994
 20
133.734742
 42
0.009724
  0
VERTEX
  8
0
 10
88.619848
 20
131.797666
 42
0.015898
  0
VERTEX
  8
0
 10
88.469777
 20
129.377284
 42
0.009590
  0
VERTEX
  8
0
 10
88.438298
 20
126.502693
 42
0.005476
  0
VERTEX
  8
0
 10
88.527653
 20
121.844858
 42
0.067315
  0
VERTEX
  8
0
 10
88.818205
 20
120.095194
 42
0.205307
  0
VERTEX
  8
0
 10
89.494547
 20
119.298658
 42
0.115672
  0
VERTEX
  8
0
 10
90.750000
 20
119.002693
 42
0.056281
  0
VERTEX
  8
0
 10
91.793887
 20
119.119303
 42
0.132151
  0
VERTEX
  8
0
 10
92.481905
 20
119.483169
 42
0.139976
  0
VERTEX
  8
0
 10
92.870758
 20
120.126895
 42
0.066412
  0
VERTEX
  8
0
 10
93.000000
 20
121.095630
 42
-0.067400
  0
VERTEX
  8
0
 10
93.134681
 20
122.090208
 42
-0.028244
  0
VERTEX
  8
0
 10
93.567969
 20
123.373306
 42
-0.027313
  0
VERTEX
  8
0
 10
94.193426
 20
124.713139
 42
-0.031864
  0
VERTEX
  8
0
 10
94.933511
 20
125.906624
 42
0.039020
  0
VERTEX
  8
0
 10
96.685883
 20
128.824896
 42
0.068269
  0
VERTEX
  8
0
 10
97.588309
 20
131.490373
 42
0.103984
  0
VERTEX
  8
0
 10
97.553856
 20
133.504660
 42
0.250039
  0
VERTEX
  8
0
 10
96.606069
 20
134.597671
 42
-0.121082
  0
VERTEX
  8
0
 10
95.955316
 20
135.049979
 42
-0.073432
  0
VERTEX
  8
0
 10
95.442047
 20
135.840607
 42
-0.061917
  0
VERTEX
  8
0
 10
95.110920
 20
136.890456
 42
-0.045494
  0
VERTEX
  8
0
 10
95.000000
 20
138.106989
 42
0.033446
  0
VERTEX
  8
0
 10
94.906155
 20
139.508335
 42
0.111621
  0
VERTEX
  8
0
 10
94.586787
 20
140.367065
 42
0.158483
  0
VERTEX
  8
0
 10
94.005034
 20
140.835650
 42
0.091181
  0
VERTEX
  8
0
 10
93.111291
 20
141.000000
 42
0.114939
  0
VERTEX
  8
0
 10
92.203339
 20
140.788488
 42
0.121665
  0
VERTEX
  8
0
 10
91.504273
 20
140.199809
 42
0.081963
  0
VERTEX
  8
0
 10
90.974649
 20
139.144685
 42
0.029059
  0
SEQEND
  0
POLYLINE
  8
0
 66
1
 70
1
  0
VERTEX
  8
0
 10
42.316631
 20
134.281574
 42
0.076407
  0
VERTEX
  8
0
 10
40.239190
 20
133.690923
 42
0.180049
  0
VERTEX
  8
0
 10
39.117567
 20
132.568385
 42
0.069390
  0
VERTEX
  8
0
 10
38.429465
 20
130.263797
 42
0.005160
  0
VERTEX
  8
0
 10
37.503063
 20
123.750000
 42
0.008660
  0
VERTEX
  8
0
 10
37.158047
 20
120.726897
 42
0.121411
  0
VERTEX
  8
0
 10
37.315280
 20
119.652572
 42
0.253301
  0
VERTEX
  8
0
 10
37.933749
 20
119.144546
 42
0.047913
  0
VERTEX
  8
0
 10
39.438727
 20
119.000000
 42
0.042702
  0
VERTEX
  8
0
 10
40.720021
 20
119.109628
 42
0.141806
  0
VERTEX
  8
0
 10
41.472978
 20
119.475614
 42
0.155651
  0
VERTEX
  8
0
 10
41.873766
 20
120.163110
 42
0.054799
  0
VERTEX
  8
0
 10
42.000000
 20
121.311439
 42
-0.120290
  0
VERTEX
  8
0
 10
42.527032
 20
123.470418
 42
-0.053147
  0
VERTEX
  8
0
 10
44.159304
 20
125.934544
 42
-0.077599
  0
VERTEX
  8
0
 10
45.859787
 20
127.440063
 42
-0.488871
  0
VERTEX
  8
0
 10
46.797031
 20
127.108908
 42
-0.065296
  0
VERTEX
  8
0
 10
46.930290
 20
126.420985
 42
-0.014892
  0
VERTEX
  8
0
 10
46.967320
 20
125.232808
 42
-0.015162
  0
VERTEX
  8
0
 10
46.927270
 20
123.849676
 42
-0.014238
  0
VERTEX
  8
0
 10
46.803444
 20
122.442071
 42
0.018430
  0
VERTEX
  8
0
 10
46.649866
 20
120.510989
 42
0.130232
  0
VERTEX
  8
0
 10
46.850327
 20
119.599580
 42
0.215082
  0
VERTEX
  8
0
 10
47.424177
 20
119.143465
 42
0.062048
  0
VERTEX
  8
0
 10
48.575801
 20
119.000000
 42
0.081361
  0
VERTEX
  8
0
 10
49.643876
 20
119.174957
 42
0.129621
  0
VERTEX
  8
0
 10
50.412303
 20
119.681193
 42
0.099057
  0
VERTEX
  8
0
 10
50.962551
 20
120.613912
 42
0.034545
  0
VERTEX
  8
0
 10
51.375000
 20
122.125000
 42
0.027717
  0
VERTEX
  8
0
 10
51.910733
 20
125.873048
 42
0.042548
  0
VERTEX
  8
0
 10
51.915683
 20
129.150143
 42
0.051449
  0
VERTEX
  8
0
 10
51.424146
 20
131.757383
 42
0.124703
  0
VERTEX
  8
0
 10
50.428571
 20
133.428571
 42
0.064167
  0
VERTEX
  8
0
 10
49.251232
 20
134.337114
 42
0.106478
  0
VERTEX
  8
0
 10
48.064368
 20
134.726382
 42
0.051395
  0
VERTEX
  8
0
 10
46.284247
 20
134.730064
 42
0.005964
  0
SEQEND
  0
POLYLINE
  8
0
 66
1
 70
1
  0
VERTEX
  8
0
 10
58.923077
 20
132.076923
 42
0.106210
  0
VERTEX
  8
0
 10
56.653860
 20
128.565846
 42
0.132595
  0
VERTEX
  8
0
 10
56.273514
 20
124.716694
 42
0.137239
  0
VERTEX
  8
0
 10
57.875847
 20
121.294787
 42
0.117382
  0
VERTEX
  8
0
 10
61.110308
 20
118.954309
 42
0.106503
  0
VERTEX
  8
0
 10
65.475079
 20
118.157828
 42
0.135499
  0
VERTEX
  8
0
 10
69.369045
 20
119.366940
 42
0.138366
  0
VERTEX
  8
0
 10
72.036161
 20
122.375065
 42
0.113078
  0
VERTEX
  8
0
 10
73.000000
 20
126.582407
 42
0.027117
  0
VERTEX
  8
0
 10
72.877140
 20
128.846118
 42
0.071410
  0
VERTEX
  8
0
 10
72.474546
 20
130.416136
 42
0.082382
  0
VERTEX
  8
0
 10
71.687768
 20
131.676692
 42
0.045506
  0
VERTEX
  8
0
 10
70.365141
 20
132.927420
 42
0.079413
  0
VERTEX
  8
0
 10
67.491529
 20
134.527350
 42
0.106329
  0
VERTEX
  8
0
 10
64.544972
 20
134.935578
 42
0.104296
  0
VERTEX
  8
0
 10
61.648890
 20
134.096414
 42
0.074016
  0
SEQEND
  0
POLYLINE
  8
0
 66
1
 70
1
  0
VERTEX
  8
0
 10
68.020215
 20
128.962227
 42
-0.094367
  0
VERTEX
  8
0
 10
68.637178
 20
126.990270
 42
-0.108046
  0
VERTEX
  8
0
 10
68.439900
 20
125.028291
 42
-0.116025
  0
VERTEX
  8
0
 10
67.467520
 20
123.429731
 42
-0.122091
  0
VERTEX
  8
0
 10
65.900860
 20
122.468534
 42
-0.121266
  0
VERTEX
  8
0
 10
64.112027
 20
122.350341
 42
-0.126540
  0
VERTEX
  8
0
 10
62.504557
 20
123.081963
 42
-0.120461
  0
VERTEX
  8
0
 10
61.394745
 20
124.535293
 42
-0.103468
  0
VERTEX
  8
0
 10
61.000000
 20
126.422445
 42
-0.137374
  0
VERTEX
  8
0
 10
61.756220
 20
129.122917
 42
-0.171036
  0
VERTEX
  8
0
 10
63.760785
 20
130.763671
 42
-0.192801
  0
VERTEX
  8
0
 10
66.162763
 20
130.682460
 42
-0.167715
  0
SEQEND
  0
POLYLINE
  8
0
 66
1
 70
1
  0
VERTEX
  8
0
 10
102.454545
 20
132.545455
 42
0.102811
  0
VERTEX
  8
0
 10
100.516620
 20
129.590750
 42
0.097823
  0
VERTEX
  8
0
 10
99.871056
 20
126.054535
 42
0.101796
  0
VERTEX
  8
0
 10
100.622007
 20
122.654045
 42
0.121604
  0
VERTEX
  8
0
 10
102.634859
 20
120.072580
 42
0.092623
  0
VERTEX
  8
0
 10
106.011578
 20
118.306903
 42
0.142644
  0
VERTEX
  8
0
 10
109.285479
 20
118.262046
 42
0.135507
  0
VERTEX
  8
0
 10
112.189800
 20
119.999236
 42
0.079997
  0
VERTEX
  8
0
 10
114.496433
 20
123.351239
 42
0.161940
  0
VERTEX
  8
0
 10
115.176382
 20
128.898108
 42
0.181861
  0
VERTEX
  8
0
 10
112.337328
 20
133.437475
 42
0.190283
  0
VERTEX
  8
0
 10
107.328541
 20
134.856255
 42
0.173035
  0
SEQEND
  0
POLYLINE
  8
0
 66
1
 70
1
  0
VERTEX
  8
0
 10
109.000000
 20
130.616631
 42
-0.269441
  0
VERTEX
  8
0
 10
108.897105
 20
130.439552
 42
-0.023164
  0
VERTEX
  8
0
 10
108.412095
 20
130.192137
 42
-0.025605
  0
VERTEX
  8
0
 10
107.765536
 20
129.938235
 42
-0.016806
  0
VERTEX
  8
0
 10
106.998620
 20
129.709890
 42
-0.033809
  0
VERTEX
  8
0
 10
106.266748
 20
129.570513
 42
-0.095442
  0
VERTEX
  8
0
 10
105.749762
 20
129.606613
 42
-0.238295
  0
VERTEX
  8
0
 10
105.531490
 20
129.801120
 42
-0.236417
  0
VERTEX
  8
0
 10
105.557637
 20
130.093259
 42
-0.164455
  0
VERTEX
  8
0
 10
106.226012
 20
130.646277
 42
-0.053640
  0
VERTEX
  8
0
 10
107.480663
 20
130.977438
 42
-0.060354
  0
VERTEX
  8
0
 10
108.638289
 20
131.012550
 42
-0.388023
  0
SEQEND
  0
POLYLINE
  8
0
 66
1
 70
1
  0
VERTEX
  8
0
 10
153.316631
 20
134.281574
 42
0.077865
  0
VERTEX
  8
0
 10
151.235041
 20
133.683218
 42
0.176963
  0
VERTEX
  8
0
 10
150.094554
 20
132.542223
 42
0.069333
  0
VERTEX
  8
0
 10
149.381347
 20
130.207142
 42
0.005424
  0
VERTEX
  8
0
 10
148.424331
 20
123.750000
 42
0.008502
  0
VERTEX
  8
0
 10
148.059345
 20
120.704818
 42
0.124136
  0
VERTEX
  8
0
 10
148.214234
 20
119.642052
 42
0.255191
  0
VERTEX
  8
0
 10
148.836407
 20
119.139594
 42
0.044938
  0
VERTEX
  8
0
 10
150.386456
 20
119.000000
 42
0.040827
  0
VERTEX
  8
0
 10
151.702603
 20
119.107647
 42
0.141156
  0
VERTEX
  8
0
 10
152.467325
 20
119.471102
 42
0.157935
  0
VERTEX
  8
0
 10
152.872466
 20
120.157237
 42
0.055080
  0
VERTEX
  8
0
 10
153.000000
 20
121.311439
 42
-0.120290
  0
VERTEX
  8
0
 10
153.527032
 20
123.470418
 42
-0.053147
  0
VERTEX
  8
0
 10
155.159304
 20
125.934544
 42
-0.077599
  0
VERTEX
  8
0
 10
156.859787
 20
127.440063
 42
-0.488871
  0
VERTEX
  8
0
 10
157.797031
 20
127.108908
 42
-0.065296
  0
VERTEX
  8
0
 10
157.930290
 20
126.420985
 42
-0.014892
  0
VERTEX
  8
0
 10
157.967320
 20
125.232808
 42
-0.015162
  0
VERTEX
  8
0
 10
157.927270
 20
123.849676
 42
-0.014238
  0
VERTEX
  8
0
 10
157.803444
 20
122.442071
 42
0.018430
  0
VERTEX
  8
0
 10
157.649866
 20
120.510989
 42
0.130232
  0
VERTEX
  8
0
 10
157.850327
 20
119.599580
 42
0.215082
  0
VERTEX
  8
0
 10
158.424177
 20
119.143465
 42
0.062048
  0
VERTEX
  8
0
 10
159.575801
 20
119.000000
 42
0.081361
  0
VERTEX
  8
0
 10
160.643876
 20
119.174957
 42
0.129621
  0
VERTEX
  8
0
 10
161.412303
 20
119.681193
 42
0.099057
  0
VERTEX
  8
0
 10
161.962551
 20
120.613912
 42
0.034545
  0
VERTEX
  8
0
 10
162.375000
 20
122.125000
 42
0.027717
  0
VERTEX
  8
0
 10
162.910733
 20
125.873048
 42
0.042548
  0
VERTEX
  8
0
 10
162.915683
 20
129.150143
 42
0.051449
  0
VERTEX
  8
0
 10
162.424146
 20
131.757383
 42
0.124703
  0
VERTEX
  8
0
 10
161.428571
 20
133.428571
 42
0.064167
  0
VERTEX
  8
0
 10
160.251232
 20
134.337114
 42
0.106478
  0
VERTEX
  8
0
 10
159.064368
 20
134.726382
 42
0.051395
  0
VERTEX
  8
0
 10
157.284247
 20
134.730064
 42
0.005964
  0
SEQEND
  0
POLYLINE
  8
0
 66
1
 70
1
  0
VERTEX
  8
0
 10
195.775032
 20
130.888577
 42
0.000000
  0
VERTEX
  8
0
 10
193.271072
 20
126.648615
 42
0.000000
  0
VERTEX
  8
0
 10
192.057984
 20
130.324308
 42
0.029360
  0
VERTEX
  8
0
 10
191.399237
 20
131.985748
 42
0.067622
  0
VERTEX
  8
0
 10
190.673958
 20
133.114251
 42
0.095116
  0
VERTEX
  8
0
 10
189.855703
 20
133.769036
 42
0.121902
  0
VERTEX
  8
0
 10
188.922448
 20
134.000000
 42
0.127152
  0
VERTEX
  8
0
 10
187.637829
 20
133.667947
 42
0.278463
  0
VERTEX
  8
0
 10
187.150270
 20
132.819827
 42
0.065468
  0
VERTEX
  8
0
 10
187.439695
 20
130.932641
 42
0.003839
  0
VERTEX
  8
0
 10
189.107711
 20
125.355335
 42
0.003289
  0
VERTEX
  8
0
 10
190.879664
 20
119.724198
 42
0.058058
  0
VERTEX
  8
0
 10
191.669959
 20
117.989225
 42
0.344078
  0
VERTEX
  8
0
 10
192.417275
 20
117.703996
 42
0.151999
  0
VERTEX
  8
0
 10
193.346001
 20
118.339184
 42
-0.083481
  0
VERTEX
  8
0
 10
194.976176
 20
119.812728
 42
-0.113021
  0
VERTEX
  8
0
 10
196.839838
 20
120.478929
 42
-0.143907
  0
VERTEX
  8
0
 10
198.490028
 20
120.199694
 42
-0.171928
  0
VERTEX
  8
0
 10
199.589804
 20
119.080824
 42
0.026201
  0
VERTEX
  8
0
 10
200.216340
 20
117.902373
 42
0.259583
  0
VERTEX
  8
0
 10
200.684992
 20
117.632921
 42
0.166502
  0
VERTEX
  8
0
 10
201.296258
 20
117.832869
 42
0.010192
  0
VERTEX
  8
0
 10
202.825891
 20
119.036025
 42
0.059725
  0
VERTEX
  8
0
 10
203.844520
 20
120.097909
 42
0.023029
  0
VERTEX
  8
0
 10
204.998094
 20
121.786785
 42
0.022409
  0
VERTEX
  8
0
 10
206.093489
 20
123.752491
 42
0.025712
  0
VERTEX
  8
0
 10
206.954480
 20
125.721745
 42
-0.001118
  0
VERTEX
  8
0
 10
207.698067
 20
127.679438
 42
-0.001159
  0
VERTEX
  8
0
 10
208.441603
 20
129.610450
 42
-0.001116
  0
VERTEX
  8
0
 10
209.092810
 20
131.278997
 42
-0.005021
  0
VERTEX
  8
0
 10
209.485578
 20
132.250000
 42
0.057127
  0
VERTEX
  8
0
 10
209.737698
 20
133.125829
 42
0.233468
  0
VERTEX
  8
0
 10
209.582640
 20
133.640618
 42
0.175726
  0
VERTEX
  8
0
 10
209.029684
 20
133.922625
 42
0.031609
  0
VERTEX
  8
0
 10
207.856989
 20
133.993677
 42
0.087186
  0
VERTEX
  8
0
 10
206.697615
 20
133.786758
 42
0.075820
  0
VERTEX
  8
0
 10
205.614785
 20
133.192532
 42
0.062408
  0
VERTEX
  8
0
 10
204.592086
 20
132.185050
 42
0.035210
  0
VERTEX
  8
0
 10
203.610536
 20
130.743677
 42
0.000000
  0
VERTEX
  8
0
 10
201.721071
 20
127.500000
 42
0.000000
  0
VERTEX
  8
0
 10
200.000032
 20
131.314269
 42
0.000000
  0
VERTEX
  8
0
 10
198.278993
 20
135.128538
 42
0.000000
  0
SEQEND
  0
POLYLINE
  8
0
 66
1
 70
1
  0
VERTEX
  8
0
 10
233.923077
 20
132.076923
 42
0.106210
  0
VERTEX
  8
0
 10
231.653860
 20
128.565846
 42
0.132595
  0
VERTEX
  8
0
 10
231.273514
 20
124.716694
 42
0.137239
  0
VERTEX
  8
0
 10
232.875847
 20
121.294787
 42
0.117382
  0
VERTEX
  8
0
 10
236.110308
 20
118.954309
 42
0.106503
  0
VERTEX
  8
0
 10
240.475079
 20
118.157828
 42
0.135499
  0
VERTEX
  8
0
 10
244.369045
 20
119.366940
 42
0.138366
  0
VERTEX
  8
0
 10
247.036161
 20
122.375065
 42
0.113078
  0
VERTEX
  8
0
 10
248.000000
 20
126.582407
 42
0.027117
  0
VERTEX
  8
0
 10
247.877140
 20
128.846118
 42
0.071410
  0
VERTEX
  8
0
 10
247.474546
 20
130.416136
 42
0.082382
  0
VERTEX
  8
0
 10
246.687768
 20
131.676692
 42
0.045506
  0
VERTEX
  8
0
 10
245.365141
 20
132.927420
 42
0.079413
  0
VERTEX
  8
0
 10
242.491529
 20
134.527350
 42
0.106329
  0
VERTEX
  8
0
 10
239.544972
 20
134.935578
 42
0.104296
  0
VERTEX
  8
0
 10
236.648890
 20
134.096414
 42
0.074016
  0
SEQEND
  0
POLYLINE
  8
0
 66
1
 70
1
  0
VERTEX
  8
0
 10
243.020215
 20
128.962227
 42
-0.094367
  0
VERTEX
  8
0
 10
243.637178
 20
126.990270
 42
-0.108046
  0
VERTEX
  8
0
 10
243.439900
 20
125.028291
 42
-0.116025
  0
VERTEX
  8
0
 10
242.467520
 20
123.429731
 42
-0.122091
  0
VERTEX
  8
0
 10
240.900860
 20
122.468534
 42
-0.121266
  0
VERTEX
  8
0
 10
239.112027
 20
122.350341
 42
-0.126540
  0
VERTEX
  8
0
 10
237.504557
 20
123.081963
 42
-0.120461
  0
VERTEX
  8
0
 10
236.394745
 20
124.535293
 42
-0.103468
  0
VERTEX
  8
0
 10
236.000000
 20
126.422445
 42
-0.137374
  0
VERTEX
  8
0
 10
236.756220
 20
129.122917
 42
-0.171036
  0
VERTEX
  8
0
 10
238.760785
 20
130.763671
 42
-0.192801
  0
VERTEX
  8
0
 10
241.162763
 20
130.682460
 42
-0.167715
  0
SEQEND
  0
POLYLINE
  8
0
 66
1
 70
1
  0
VERTEX
  8
0
 10
263.000000
 20
133.000000
 42
0.044299
  0
VERTEX
  8
0
 10
261.514162
 20
131.224662
 42
0.172696
  0
VERTEX
  8
0
 10
261.143105
 20
129.864379
 42
0.148375
  0
VERTEX
  8
0
 10
261.692937
 20
128.448122
 42
0.030129
  0
VERTEX
  8
0
 10
263.500000
 20
126.409091
 42
-0.027710
  0
VERTEX
  8
0
 10
265.045592
 20
124.681986
 42
-0.076796
  0
VERTEX
  8
0
 10
265.855204
 20
123.272204
 42
-0.202357
  0
VERTEX
  8
0
 10
265.827958
 20
122.402570
 42
-0.293018
  0
VERTEX
  8
0
 10
265.200000
 20
122.000000
 42
-0.093912
  0
VERTEX
  8
0
 10
264.820383
 20
122.071936
 42
-0.035096
  0
VERTEX
  8
0
 10
264.328800
 20
122.306200
 42
-0.033259
  0
VERTEX
  8
0
 10
263.815530
 20
122.643484
 42
-0.034397
  0
VERTEX
  8
0
 10
263.357618
 20
123.042382
 42
0.090873
  0
VERTEX
  8
0
 10
262.814898
 20
123.416993
 42
0.154123
  0
VERTEX
  8
0
 10
262.271549
 20
123.480891
 42
0.123965
  0
VERTEX
  8
0
 10
261.705400
 20
123.217501
 42
0.049028
  0
VERTEX
  8
0
 10
261.090697
 20
122.609283
 42
0.289885
  0
VERTEX
  8
0
 10
260.880616
 20
120.982429
 42
0.148437
  0
VERTEX
  8
0
 10
262.308644
 20
119.388652
 42
0.096652
  0
VERTEX
  8
0
 10
265.003721
 20
118.396417
 42
0.094344
  0
VERTEX
  8
0
 10
267.898468
 20
118.477700
 42
0.108290
  0
VERTEX
  8
0
 10
269.998816
 20
119.445907
 42
0.158608
  0
VERTEX
  8
0
 10
271.153146
 20
121.102719
 42
0.127518
  0
VERTEX
  8
0
 10
271.246352
 20
123.416743
 42
0.059201
  0
VERTEX
  8
0
 10
270.260204
 20
126.280155
 42
-0.023503
  0
VERTEX
  8
0
 10
269.581583
 20
127.872184
 42
-0.106813
  0
VERTEX
  8
0
 10
269.438654
 20
128.864009
 42
-0.134006
  0
VERTEX
  8
0
 10
269.733285
 20
129.707309
 42
-0.045745
  0
VERTEX
  8
0
 10
270.569623
 20
130.712481
 42
0.022201
  0
VERTEX
  8
0
 10
271.505286
 20
131.735138
 42
0.188959
  0
VERTEX
  8
0
 10
271.699119
 20
132.314037
 42
0.199705
  0
VERTEX
  8
0
 10
271.442614
 20
132.852391
 42
0.025146
  0
VERTEX
  8
0
 10
270.419768
 20
133.682326
 42
0.074671
  0
VERTEX
  8
0
 10
268.511674
 20
134.681300
 42
0.106637
  0
VERTEX
  8
0
 10
266.620314
 20
134.910835
 42
0.104491
  0
VERTEX
  8
0
 10
264.774540
 20
134.340012
 42
0.069421
  0
SEQEND
  0
POLYLINE
  8
0
 66
1
 70
1
  0
VERTEX
  8
0
 10
139.649302
 20
132.250000
 42
0.025382
  0
VERTEX
  8
0
 10
139.422416
 20
131.234710
 42
0.004586
  0
VERTEX
  8
0
 10
139.114361
 20
129.325000
 42
0.004933
  0
VERTEX
  8
0
 10
138.795906
 20
127.079721
 42
0.004449
  0
VERTEX
  8
0
 10
138.509958
 20
124.750000
 42
0.006166
  0
VERTEX
  8
0
 10
138.128840
 20
120.985614
 42
0.102997
  0
VERTEX
  8
0
 10
138.274242
 20
119.745355
 42
0.261617
  0
VERTEX
  8
0
 10
138.905642
 20
119.172225
 42
0.056384
  0
VERTEX
  8
0
 10
140.428044
 20
119.000000
 42
0.042418
  0
VERTEX
  8
0
 10
141.704707
 20
119.108501
 42
0.137733
  0
VERTEX
  8
0
 10
142.465075
 20
119.469550
 42
0.155181
  0
VERTEX
  8
0
 10
142.874227
 20
120.143175
 42
0.058583
  0
VERTEX
  8
0
 10
143.008692
 20
121.250000
 42
-0.016088
  0
VERTEX
  8
0
 10
143.052086
 20
122.453662
 42
-0.004206
  0
VERTEX
  8
0
 10
143.200069
 20
124.381250
 42
-0.004269
  0
VERTEX
  8
0
 10
143.405944
 20
126.575000
 42
-0.004358
  0
VERTEX
  8
0
 10
143.647983
 20
128.750000
 42
0.008050
  0
VERTEX
  8
0
 10
143.977670
 20
131.925783
 42
0.089053
  0
VERTEX
  8
0
 10
143.862970
 20
133.192614
 42
0.237013
  0
VERTEX
  8
0
 10
143.325133
 20
133.789542
 42
0.093266
  0
VERTEX
  8
0
 10
142.206679
 20
134.000000
 42
0.078803
  0
VERTEX
  8
0
 10
141.378447
 20
133.868650
 42
0.071508
  0
VERTEX
  8
0
 10
140.600789
 20
133.485938
 42
0.074530
  0
VERTEX
  8
0
 10
139.990547
 20
132.918698
 42
0.100968
  0
SEQEND
  0
POLYLINE
  8
0
 66
1
 70
1
  0
VERTEX
  8
0
 10
100.000000
 20
94.500000
 42
0.012588
  0
VERTEX
  8
0
 10
100.067481
 20
91.820156
 42
0.051160
  0
VERTEX
  8
0
 10
100.315119
 20
90.209785
 42
0.105560
  0
VERTEX
  8
0
 10
100.760264
 20
89.322836
 42
0.227640
  0
VERTEX
  8
0
 10
101.432612
 20
89.000000
 42
0.179413
  0
VERTEX
  8
0
 10
102.427402
 20
89.368828
 42
0.113911
  0
VERTEX
  8
0
 10
103.167634
 20
90.375895
 42
0.049417
  0
VERTEX
  8
0
 10
103.800806
 20
92.364452
 42
0.008524
  0
VERTEX
  8
0
 10
104.557973
 20
96.250000
 42
0.013042
  0
VERTEX
  8
0
 10
104.906136
 20
98.564220
 42
0.151663
  0
VERTEX
  8
0
 10
104.746144
 20
99.454611
 42
0.240719
  0
VERTEX
  8
0
 10
104.139265
 20
99.887432
 42
0.036786
  0
VERTEX
  8
0
 10
102.611291
 20
100.000000
 42
0.060488
  0
VERTEX
  8
0
 10
101.094392
 20
99.815817
 42
0.225161
  0
VERTEX
  8
0
 10
100.368695
 20
99.223441
 42
0.102734
  0
VERTEX
  8
0
 10
100.058198
 20
97.946451
 42
0.008443
  0
SEQEND
  0
POLYLINE
  8
0
 66
1
 70
1
  0
VERTEX
  8
0
 10
268.588985
 20
93.750000
 42
-0.003072
  0
VERTEX
  8
0
 10
268.290836
 20
91.118815
 42
-0.002716
  0
VERTEX
  8
0
 10
267.948495
 20
88.381250
 42
-0.002728
  0
VERTEX
  8
0
 10
267.613210
 20
85.918216
 42
-0.008300
  0
VERTEX
  8
0
 10
267.348528
 20
84.250000
 42
0.018332
  0
VERTEX
  8
0
 10
267.085525
 20
82.346374
 42
0.158780
  0
VERTEX
  8
0
 10
267.265180
 20
81.520923
 42
0.224031
  0
VERTEX
  8
0
 10
267.863173
 20
81.111132
 42
0.040020
  0
VERTEX
  8
0
 10
269.249418
 20
81.000000
 42
0.076582
  0
VERTEX
  8
0
 10
270.629576
 20
81.212636
 42
0.184893
  0
VERTEX
  8
0
 10
271.425138
 20
81.844721
 42
0.092348
  0
VERTEX
  8
0
 10
271.911456
 20
83.178733
 42
0.011467
  0
VERTEX
  8
0
 10
272.352017
 20
86.250000
 42
0.007753
  0
VERTEX
  8
0
 10
272.594262
 20
88.570094
 42
0.005334
  0
VERTEX
  8
0
 10
272.799931
 20
91.206250
 42
0.005378
  0
VERTEX
  8
0
 10
272.943526
 20
93.747947
 42
0.010909
  0
VERTEX
  8
0
 10
272.991308
 20
95.750000
 42
0.015985
  0
VERTEX
  8
0
 10
272.923799
 20
98.005455
 42
0.087993
  0
VERTEX
  8
0
 10
272.638792
 20
99.183233
 42
0.176588
  0
VERTEX
  8
0
 10
272.067908
 20
99.780845
 42
0.115179
  0
VERTEX
  8
0
 10
271.129166
 20
100.000000
 42
0.159493
  0
VERTEX
  8
0
 10
270.149889
 20
99.679471
 42
0.138913
  0
VERTEX
  8
0
 10
269.484142
 20
98.825366
 42
0.059865
  0
VERTEX
  8
0
 10
269.018375
 20
97.118872
 42
0.010043
  0
SEQEND
  0
POLYLINE
  8
0
 66
1
 70
1
  0
VERTEX
  8
0
 10
161.000000
 20
94.328741
 42
-0.051747
  0
VERTEX
  8
0
 10
160.880109
 20
93.173407
 42
-0.035924
  0
VERTEX
  8
0
 10
160.518834
 20
91.910481
 42
-0.036302
  0
VERTEX
  8
0
 10
159.989602
 20
90.734904
 42
-0.060068
  0
VERTEX
  8
0
 10
159.361988
 20
89.847498
 42
0.036749
  0
VERTEX
  8
0
 10
158.627584
 20
88.905317
 42
0.106194
  0
VERTEX
  8
0
 10
158.324599
 20
88.140168
 42
0.136325
  0
VERTEX
  8
0
 10
158.399283
 20
87.435153
 42
0.079217
  0
VERTEX
  8
0
 10
158.836048
 20
86.697550
 42
-0.118929
  0
VERTEX
  8
0
 10
159.267182
 20
85.818493
 42
-0.035734
  0
VERTEX
  8
0
 10
159.488160
 20
84.334236
 42
-0.030292
  0
VERTEX
  8
0
 10
159.518238
 20
82.429659
 42
-0.018280
  0
VERTEX
  8
0
 10
159.334769
 20
80.178792
 42
0.008710
  0
VERTEX
  8
0
 10
159.030007
 20
77.155528
 42
0.081481
  0
VERTEX
  8
0
 10
159.133670
 20
75.855250
 42
0.221291
  0
VERTEX
  8
0
 10
159.630713
 20
75.237727
 42
0.116642
  0
VERTEX
  8
0
 10
160.610709
 20
75.013144
 42
0.160909
  0
VERTEX
  8
0
 10
161.624394
 20
75.355877
 42
0.061734
  0
VERTEX
  8
0
 10
162.707332
 20
76.402686
 42
0.041790
  0
VERTEX
  8
0
 10
163.896053
 20
78.157053
 42
0.016197
  0
VERTEX
  8
0
 10
165.251477
 20
80.763144
 42
0.021258
  0
VERTEX
  8
0
 10
167.125383
 20
85.137955
 42
0.062199
  0
VERTEX
  8
0
 10
167.897414
 20
88.321027
 42
0.133863
  0
VERTEX
  8
0
 10
167.603958
 20
90.231229
 42
0.296296
  0
VERTEX
  8
0
 10
166.420545
 20
91.000000
 42
-0.113344
  0
VERTEX
  8
0
 10
165.692658
 20
91.167151
 42
-0.208343
  0
VERTEX
  8
0
 10
165.304098
 20
91.620553
 42
-0.107617
  0
VERTEX
  8
0
 10
165.232661
 20
92.475944
 42
-0.021282
  0
VERTEX
  8
0
 10
165.500000
 20
94.000000
 42
0.020343
  0
VERTEX
  8
0
 10
165.812343
 20
95.761174
 42
0.177914
  0
VERTEX
  8
0
 10
165.644121
 20
96.523102
 42
0.221052
  0
VERTEX
  8
0
 10
165.045334
 20
96.903744
 42
0.032797
  0
VERTEX
  8
0
 10
163.579455
 20
97.000000
 42
0.042876
  0
VERTEX
  8
0
 10
162.233875
 20
96.884401
 42
0.159195
  0
VERTEX
  8
0
 10
161.491408
 20
96.491102
 42
0.153905
  0
VERTEX
  8
0
 10
161.109977
 20
95.726051
 42
0.039292
  0
SEQEND
  0
POLYLINE
  8
0
 66
1
 70
1
  0
VERTEX
  8
0
 10
198.000000
 20
94.328741
 42
-0.051747
  0
VERTEX
  8
0
 10
197.880109
 20
93.173407
 42
-0.035924
  0
VERTEX
  8
0
 10
197.518834
 20
91.910481
 42
-0.036302
  0
VERTEX
  8
0
 10
196.989602
 20
90.734904
 42
-0.060068
  0
VERTEX
  8
0
 10
196.361988
 20
89.847498
 42
0.036749
  0
VERTEX
  8
0
 10
195.627584
 20
88.905317
 42
0.106194
  0
VERTEX
  8
0
 10
195.324599
 20
88.140168
 42
0.136325
  0
VERTEX
  8
0
 10
195.399283
 20
87.435153
 42
0.079217
  0
VERTEX
  8
0
 10
195.836048
 20
86.697550
 42
-0.118929
  0
VERTEX
  8
0
 10
196.267182
 20
85.818493
 42
-0.035734
  0
VERTEX
  8
0
 10
196.488160
 20
84.334236
 42
-0.030292
  0
VERTEX
  8
0
 10
196.518238
 20
82.429659
 42
-0.018280
  0
VERTEX
  8
0
 10
196.334769
 20
80.178792
 42
0.008710
  0
VERTEX
  8
0
 10
196.030007
 20
77.155528
 42
0.081481
  0
VERTEX
  8
0
 10
196.133670
 20
75.855250
 42
0.221291
  0
VERTEX
  8
0
 10
196.630713
 20
75.237727
 42
0.116642
  0
VERTEX
  8
0
 10
197.610709
 20
75.013144
 42
0.160909
  0
VERTEX
  8
0
 10
198.624394
 20
75.355877
 42
0.061734
  0
VERTEX
  8
0
 10
199.707332
 20
76.402686
 42
0.041790
  0
VERTEX
  8
0
 10
200.896053
 20
78.157053
 42
0.016197
  0
VERTEX
  8
0
 10
202.251477
 20
80.763144
 42
0.021258
  0
VERTEX
  8
0
 10
204.125383
 20
85.137955
 42
0.062199
  0
VERTEX
  8
0
 10
204.897414
 20
88.321027
 42
0.133863
  0
VERTEX
  8
0
 10
204.603958
 20
90.231229
 42
0.296296
  0
VERTEX
  8
0
 10
203.420545
 20
91.000000
 42
-0.113344
  0
VERTEX
  8
0
 10
202.692658
 20
91.167151
 42
-0.208343
  0
VERTEX
  8
0
 10
202.304098
 20
91.620553
 42
-0.107617
  0
VERTEX
  8
0
 10
202.232661
 20
92.475944
 42
-0.021282
  0
VERTEX
  8
0
 10
202.500000
 20
94.000000
 42
0.020343
  0
VERTEX
  8
0
 10
202.812343
 20
95.761174
 42
0.177914
  0
VERTEX
  8
0
 10
202.644121
 20
96.523102
 42
0.221052
  0
VERTEX
  8
0
 10
202.045334
 20
96.903744
 42
0.032797
  0
VERTEX
  8
0
 10
200.579455
 20
97.000000
 42
0.042876
  0
VERTEX
  8
0
 10
199.233875
 20
96.884401
 42
0.159195
  0
VERTEX
  8
0
 10
198.491408
 20
96.491102
 42
0.153905
  0
VERTEX
  8
0
 10
198.109977
 20
95.726051
 42
0.039292
  0
SEQEND
  0
POLYLINE
  8
0
 66
1
 70
1
  0
VERTEX
  8
0
 10
42.356999
 20
90.046263
 42
0.084612
  0
VERTEX
  8
0
 10
40.335843
 20
88.757949
 42
0.061857
  0
VERTEX
  8
0
 10
38.595738
 20
86.737311
 42
0.061914
  0
VERTEX
  8
0
 10
37.404265
 20
84.354765
 42
0.085216
  0
VERTEX
  8
0
 10
37.000000
 20
82.000000
 42
0.086628
  0
VERTEX
  8
0
 10
37.485039
 20
79.221444
 42
0.100569
  0
VERTEX
  8
0
 10
38.876745
 20
76.931578
 42
0.095651
  0
VERTEX
  8
0
 10
41.117008
 20
75.286132
 42
0.071173
  0
VERTEX
  8
0
 10
44.054535
 20
74.375289
 42
-0.024699
  0
VERTEX
  8
0
 10
46.782545
 20
73.799675
 42
-0.194789
  0
VERTEX
  8
0
 10
47.797516
 20
73.040669
 42
-0.363123
  0
VERTEX
  8
0
 10
47.658763
 20
72.139069
 42
-0.057580
  0
VERTEX
  8
0
 10
46.072442
 20
71.038770
 42
-0.090477
  0
VERTEX
  8
0
 10
44.359324
 20
70.488245
 42
-0.107996
  0
VERTEX
  8
0
 10
42.672560
 20
70.631431
 42
-0.135511
  0
VERTEX
  8
0
 10
41.459906
 20
71.407376
 42
-0.185120
  0
VERTEX
  8
0
 10
41.000000
 20
72.606989
 42
0.163887
  0
VERTEX
  8
0
 10
40.811662
 20
73.166155
 42
0.106373
  0
VERTEX
  8
0
 10
40.289238
 20
73.614355
 42
0.078501
  0
VERTEX
  8
0
 10
39.470570
 20
73.904360
 42
0.045974
  0
VERTEX
  8
0
 10
38.432612
 20
74.000000
 42
0.029120
  0
VERTEX
  8
0
 10
37.047832
 20
73.919283
 42
0.190595
  0
VERTEX
  8
0
 10
36.446239
 20
73.595988
 42
0.213460
  0
VERTEX
  8
0
 10
36.267030
 20
72.973704
 42
0.037152
  0
VERTEX
  8
0
 10
36.533587
 20
71.750000
 42
0.116175
  0
VERTEX
  8
0
 10
38.187676
 20
68.861480
 42
0.108581
  0
VERTEX
  8
0
 10
40.994264
 20
66.928552
 42
0.102514
  0
VERTEX
  8
0
 10
44.494599
 20
66.282621
 42
0.092983
  0
VERTEX
  8
0
 10
48.096874
 20
67.040127
 42
0.079680
  0
VERTEX
  8
0
 10
50.980595
 20
68.814995
 42
0.111940
  0
VERTEX
  8
0
 10
52.771939
 20
71.235590
 42
0.072799
  0
VERTEX
  8
0
 10
53.801118
 20
74.971638
 42
0.018465
  0
VERTEX
  8
0
 10
54.346455
 20
81.257604
 42
0.003776
  0
VERTEX
  8
0
 10
54.584880
 20
86.922924
 42
0.060319
  0
VERTEX
  8
0
 10
54.420232
 20
88.833077
 42
0.221269
  0
VERTEX
  8
0
 10
53.787198
 20
89.679773
 42
0.123948
  0
VERTEX
  8
0
 10
52.515269
 20
90.000000
 42
-0.015547
  0
VERTEX
  8
0
 10
51.443152
 20
90.033344
 42
-0.007465
  0
VERTEX
  8
0
 10
50.070892
 20
90.139372
 42
-0.007393
  0
VERTEX
  8
0
 10
48.641149
 20
90.292692
 42
-0.010486
  0
VERTEX
  8
0
 10
47.375000
 20
90.474458
 42
0.035930
  0
VERTEX
  8
0
 10
46.117346
 20
90.590142
 42
0.026262
  0
VERTEX
  8
0
 10
44.715025
 20
90.544390
 42
0.026733
  0
VERTEX
  8
0
 10
43.384176
 20
90.358773
 42
0.051702
  0
SEQEND
  0
POLYLINE
  8
0
 66
1
 70
1
  0
VERTEX
  8
0
 10
48.428571
 20
85.428571
 42
-0.050276
  0
VERTEX
  8
0
 10
49.591059
 20
84.005438
 42
-0.166362
  0
VERTEX
  8
0
 10
49.891769
 20
82.850725
 42
-0.144032
  0
VERTEX
  8
0
 10
49.437740
 20
81.648283
 42
-0.034580
  0
VERTEX
  8
0
 10
48.022681
 20
80.022681
 42
-0.090726
  0
VERTEX
  8
0
 10
46.280587
 20
78.819459
 42
-0.176775
  0
VERTEX
  8
0
 10
44.618259
 20
78.696976
 42
-0.175189
  0
VERTEX
  8
0
 10
43.257385
 20
79.675197
 42
-0.088931
  0
VERTEX
  8
0
 10
42.379701
 20
81.623287
 42
-0.126500
  0
VERTEX
  8
0
 10
42.395756
 20
84.411230
 42
-0.190205
  0
VERTEX
  8
0
 10
43.817720
 20
86.347863
 42
-0.201444
  0
VERTEX
  8
0
 10
46.105627
 20
86.726404
 42
-0.138831
  0
SEQEND
  0
POLYLINE
  8
0
 66
1
 70
1
  0
VERTEX
  8
0
 10
60.923077
 20
88.076923
 42
0.106210
  0
VERTEX
  8
0
 10
58.653860
 20
84.565846
 42
0.132595
  0
VERTEX
  8
0
 10
58.273514
 20
80.716694
 42
0.137239
  0
VERTEX
  8
0
 10
59.875847
 20
77.294787
 42
0.117382
  0
VERTEX
  8
0
 10
63.110308
 20
74.954309
 42
0.106503
  0
VERTEX
  8
0
 10
67.475079
 20
74.157828
 42
0.135499
  0
VERTEX
  8
0
 10
71.369045
 20
75.366940
 42
0.138366
  0
VERTEX
  8
0
 10
74.036161
 20
78.375065
 42
0.113078
  0
VERTEX
  8
0
 10
75.000000
 20
82.582407
 42
0.027117
  0
VERTEX
  8
0
 10
74.877140
 20
84.846118
 42
0.071410
  0
VERTEX
  8
0
 10
74.474546
 20
86.416136
 42
0.082382
  0
VERTEX
  8
0
 10
73.687768
 20
87.676692
 42
0.045506
  0
VERTEX
  8
0
 10
72.365141
 20
88.927420
 42
0.079413
  0
VERTEX
  8
0
 10
69.491529
 20
90.527350
 42
0.106329
  0
VERTEX
  8
0
 10
66.544972
 20
90.935578
 42
0.104296
  0
VERTEX
  8
0
 10
63.648890
 20
90.096414
 42
0.074016
  0
SEQEND
  0
POLYLINE
  8
0
 66
1
 70
1
  0
VERTEX
  8
0
 10
70.020215
 20
84.962227
 42
-0.094367
  0
VERTEX
  8
0
 10
70.637178
 20
82.990270
 42
-0.108046
  0
VERTEX
  8
0
 10
70.439900
 20
81.028291
 42
-0.116025
  0
VERTEX
  8
0
 10
69.467520
 20
79.429731
 42
-0.122091
  0
VERTEX
  8
0
 10
67.900860
 20
78.468534
 42
-0.121266
  0
VERTEX
  8
0
 10
66.112027
 20
78.350341
 42
-0.126540
  0
VERTEX
  8
0
 10
64.504557
 20
79.081963
 42
-0.120461
  0
VERTEX
  8
0
 10
63.394745
 20
80.535293
 42
-0.103468
  0
VERTEX
  8
0
 10
63.000000
 20
82.422445
 42
-0.137374
  0
VERTEX
  8
0
 10
63.756220
 20
85.122917
 42
-0.171036
  0
VERTEX
  8
0
 10
65.760785
 20
86.763671
 42
-0.192801
  0
VERTEX
  8
0
 10
68.162763
 20
86.682460
 42
-0.167715
  0
SEQEND
  0
POLYLINE
  8
0
 66
1
 70
1
  0
VERTEX
  8
0
 10
83.378554
 20
90.286192
 42
0.043058
  0
VERTEX
  8
0
 10
81.583165
 20
89.900630
 42
0.158232
  0
VERTEX
  8
0
 10
80.643864
 20
89.242086
 42
0.111420
  0
VERTEX
  8
0
 10
80.090316
 20
88.014249
 42
0.016352
  0
VERTEX
  8
0
 10
79.628554
 20
85.306658
 42
0.010417
  0
VERTEX
  8
0
 10
79.018525
 20
80.043192
 42
0.054175
  0
VERTEX
  8
0
 10
79.058497
 20
77.124220
 42
0.134274
  0
VERTEX
  8
0
 10
79.685637
 20
75.593705
 42
0.232813
  0
VERTEX
  8
0
 10
80.891592
 20
75.000000
 42
0.106194
  0
VERTEX
  8
0
 10
81.745980
 20
75.183531
 42
0.098945
  0
VERTEX
  8
0
 10
82.474565
 20
75.704157
 42
0.080830
  0
VERTEX
  8
0
 10
83.054063
 20
76.566290
 42
0.046513
  0
VERTEX
  8
0
 10
83.469503
 20
77.750000
 42
-0.055037
  0
VERTEX
  8
0
 10
84.256027
 20
79.874707
 42
-0.044236
  0
VERTEX
  8
0
 10
85.536673
 20
81.949884
 42
-0.045147
  0
VERTEX
  8
0
 10
86.963451
 20
83.539187
 42
-0.189470
  0
VERTEX
  8
0
 10
88.135857
 20
84.000000
 42
-0.367204
  0
VERTEX
  8
0
 10
88.424730
 20
83.754785
 42
-0.029181
  0
VERTEX
  8
0
 10
88.537953
 20
82.678125
 42
-0.028701
  0
VERTEX
  8
0
 10
88.522037
 20
81.225407
 42
-0.016970
  0
VERTEX
  8
0
 10
88.344946
 20
79.500000
 42
0.009510
  0
VERTEX
  8
0
 10
88.008258
 20
76.640304
 42
0.130723
  0
VERTEX
  8
0
 10
88.175073
 20
75.618297
 42
0.249997
  0
VERTEX
  8
0
 10
88.802370
 20
75.132377
 42
0.042306
  0
VERTEX
  8
0
 10
90.364076
 20
75.000000
 42
0.040231
  0
VERTEX
  8
0
 10
91.682677
 20
75.106269
 42
0.136764
  0
VERTEX
  8
0
 10
92.458168
 20
75.464441
 42
0.157671
  0
VERTEX
  8
0
 10
92.873579
 20
76.136684
 42
0.059032
  0
VERTEX
  8
0
 10
93.011006
 20
77.250000
 42
-0.017846
  0
VERTEX
  8
0
 10
93.056238
 20
78.364023
 42
-0.006851
  0
VERTEX
  8
0
 10
93.195489
 20
79.907556
 42
-0.006774
  0
VERTEX
  8
0
 10
93.392430
 20
81.579919
 42
-0.008283
  0
VERTEX
  8
0
 10
93.623580
 20
83.137426
 42
0.029980
  0
VERTEX
  8
0
 10
93.824694
 20
85.065050
 42
0.075389
  0
VERTEX
  8
0
 10
93.674981
 20
86.465758
 42
0.085382
  0
VERTEX
  8
0
 10
93.134016
 20
87.653684
 42
0.046965
  0
VERTEX
  8
0
 10
92.112574
 20
88.887426
 42
0.040624
  0
VERTEX
  8
0
 10
91.174935
 20
89.683936
 42
0.038757
  0
VERTEX
  8
0
 10
90.106506
 20
90.332420
 42
0.041291
  0
VERTEX
  8
0
 10
89.070777
 20
90.752728
 42
0.098861
  0
VERTEX
  8
0
 10
88.250000
 20
90.839963
 42
0.004073
  0
VERTEX
  8
0
 10
87.366155
 20
90.751871
 42
0.001426
  0
VERTEX
  8
0
 10
86.097138
 20
90.611278
 42
0.001416
  0
VERTEX
  8
0
 10
84.701926
 20
90.448671
 42
0.001655
  0
SEQEND
  0
POLYLINE
  8
0
 66
1
 70
1
  0
VERTEX
  8
0
 10
123.356999
 20
90.046263
 42
0.084612
  0
VERTEX
  8
0
 10
121.335843
 20
88.757949
 42
0.061857
  0
VERTEX
  8
0
 10
119.595738
 20
86.737311
 42
0.061914
  0
VERTEX
  8
0
 10
118.404265
 20
84.354765
 42
0.085216
  0
VERTEX
  8
0
 10
118.000000
 20
82.000000
 42
0.086628
  0
VERTEX
  8
0
 10
118.485039
 20
79.221444
 42
0.100569
  0
VERTEX
  8
0
 10
119.876745
 20
76.931578
 42
0.095651
  0
VERTEX
  8
0
 10
122.117008
 20
75.286132
 42
0.071173
  0
VERTEX
  8
0
 10
125.054535
 20
74.375289
 42
-0.024699
  0
VERTEX
  8
0
 10
127.782545
 20
73.799675
 42
-0.194789
  0
VERTEX
  8
0
 10
128.797516
 20
73.040669
 42
-0.363123
  0
VERTEX
  8
0
 10
128.658763
 20
72.139069
 42
-0.057580
  0
VERTEX
  8
0
 10
127.072442
 20
71.038770
 42
-0.090477
  0
VERTEX
  8
0
 10
125.359324
 20
70.488245
 42
-0.107996
  0
VERTEX
  8
0
 10
123.672560
 20
70.631431
 42
-0.135511
  0
VERTEX
  8
0
 10
122.459906
 20
71.407376
 42
-0.185120
  0
VERTEX
  8
0
 10
122.000000
 20
72.606989
 42
0.163887
  0
VERTEX
  8
0
 10
121.811662
 20
73.166155
 42
0.106373
  0
VERTEX
  8
0
 10
121.289238
 20
73.614355
 42
0.078501
  0
VERTEX
  8
0
 10
120.470570
 20
73.904360
 42
0.045974
  0
VERTEX
  8
0
 10
119.432612
 20
74.000000
 42
0.029120
  0
VERTEX
  8
0
 10
118.047832
 20
73.919283
 42
0.190595
  0
VERTEX
  8
0
 10
117.446239
 20
73.595988
 42
0.213460
  0
VERTEX
  8
0
 10
117.267030
 20
72.973704
 42
0.037152
  0
VERTEX
  8
0
 10
117.533587
 20
71.750000
 42
0.116175
  0
VERTEX
  8
0
 10
119.187676
 20
68.861480
 42
0.108581
  0
VERTEX
  8
0
 10
121.994264
 20
66.928552
 42
0.102514
  0
VERTEX
  8
0
 10
125.494599
 20
66.282621
 42
0.092983
  0
VERTEX
  8
0
 10
129.096874
 20
67.040127
 42
0.079680
  0
VERTEX
  8
0
 10
131.980595
 20
68.814995
 42
0.111940
  0
VERTEX
  8
0
 10
133.771939
 20
71.235590
 42
0.072799
  0
VERTEX
  8
0
 10
134.801118
 20
74.971638
 42
0.018465
  0
VERTEX
  8
0
 10
135.346455
 20
81.257604
 42
0.003776
  0
VERTEX
  8
0
 10
135.584880
 20
86.922924
 42
0.060319
  0
VERTEX
  8
0
 10
135.420232
 20
88.833077
 42
0.221269
  0
VERTEX
  8
0
 10
134.787198
 20
89.679773
 42
0.123948
  0
VERTEX
  8
0
 10
133.515269
 20
90.000000
 42
-0.015547
  0
VERTEX
  8
0
 10
132.443152
 20
90.033344
 42
-0.007465
  0
VERTEX
  8
0
 10
131.070892
 20
90.139372
 42
-0.007393
  0
VERTEX
  8
0
 10
129.641149
 20
90.292692
 42
-0.010486
  0
VERTEX
  8
0
 10
128.375000
 20
90.474458
 42
0.035930
  0
VERTEX
  8
0
 10
127.117346
 20
90.590142
 42
0.026262
  0
VERTEX
  8
0
 10
125.715025
 20
90.544390
 42
0.026733
  0
VERTEX
  8
0
 10
124.384176
 20
90.358773
 42
0.051702
  0
SEQEND
  0
POLYLINE
  8
0
 66
1
 70
1
  0
VERTEX
  8
0
 10
129.428571
 20
85.428571
 42
-0.050276
  0
VERTEX
  8
0
 10
130.591059
 20
84.005438
 42
-0.166362
  0
VERTEX
  8
0
 10
130.891769
 20
82.850725
 42
-0.144032
  0
VERTEX
  8
0
 10
130.437740
 20
81.648283
 42
-0.034580
  0
VERTEX
  8
0
 10
129.022681
 20
80.022681
 42
-0.090726
  0
VERTEX
  8
0
 10
127.280587
 20
78.819459
 42
-0.176775
  0
VERTEX
  8
0
 10
125.618259
 20
78.696976
 42
-0.175189
  0
VERTEX
  8
0
 10
124.257385
 20
79.675197
 42
-0.088931
  0
VERTEX
  8
0
 10
123.379701
 20
81.623287
 42
-0.126500
  0
VERTEX
  8
0
 10
123.395756
 20
84.411230
 42
-0.190205
  0
VERTEX
  8
0
 10
124.817720
 20
86.347863
 42
-0.201444
  0
VERTEX
  8
0
 10
127.105627
 20
86.726404
 42
-0.138831
  0
SEQEND
  0
POLYLINE
  8
0
 66
1
 70
1
  0
VERTEX
  8
0
 10
141.923077
 20
88.076923
 42
0.120994
  0
VERTEX
  8
0
 10
139.293849
 20
83.735930
 42
0.165210
  0
VERTEX
  8
0
 10
139.401406
 20
79.198115
 42
0.173458
  0
VERTEX
  8
0
 10
142.218358
 20
75.817223
 42
0.133953
  0
VERTEX
  8
0
 10
146.880256
 20
74.545455
 42
0.057388
  0
VERTEX
  8
0
 10
150.120882
 20
74.918629
 42
0.130378
  0
VERTEX
  8
0
 10
152.281157
 20
76.066995
 42
0.121060
  0
VERTEX
  8
0
 10
153.685094
 20
78.200711
 42
0.045963
  0
VERTEX
  8
0
 10
154.570111
 20
81.679000
 42
0.023700
  0
VERTEX
  8
0
 10
154.832886
 20
84.060361
 42
0.084707
  0
VERTEX
  8
0
 10
154.670605
 20
85.578395
 42
0.094253
  0
VERTEX
  8
0
 10
154.025443
 20
86.869331
 42
0.033510
  0
VERTEX
  8
0
 10
152.661909
 20
88.429000
 42
0.079585
  0
VERTEX
  8
0
 10
150.057249
 20
90.314421
 42
0.125783
  0
VERTEX
  8
0
 10
147.379478
 20
90.906135
 42
0.120097
  0
VERTEX
  8
0
 10
144.657194
 20
90.147376
 42
0.068740
  0
SEQEND
  0
POLYLINE
  8
0
 66
1
 70
1
  0
VERTEX
  8
0
 10
148.729167
 20
86.395833
 42
-0.126455
  0
VERTEX
  8
0
 10
148.402231
 20
86.202593
 42
-0.060344
  0
VERTEX
  8
0
 10
147.916927
 20
86.123424
 42
-0.054150
  0
VERTEX
  8
0
 10
147.359369
 20
86.160852
 42
-0.051402
  0
VERTEX
  8
0
 10
146.812500
 20
86.316886
 42
-0.054073
  0
VERTEX
  8
0
 10
146.395823
 20
86.538436
 42
-0.470617
  0
VERTEX
  8
0
 10
146.378580
 20
86.720685
 42
-0.168741
  0
VERTEX
  8
0
 10
146.670344
 20
86.862007
 42
-0.018894
  0
VERTEX
  8
0
 10
147.416667
 20
86.921053
 42
-0.028489
  0
VERTEX
  8
0
 10
148.112848
 20
86.910055
 42
-0.077125
  0
VERTEX
  8
0
 10
148.592839
 20
86.799335
 42
-0.208169
  0
VERTEX
  8
0
 10
148.775380
 20
86.614691
 42
-0.296942
  0
SEQEND
  0
POLYLINE
  8
0
 66
1
 70
1
  0
VERTEX
  8
0
 10
183.000000
 20
89.000000
 42
0.044299
  0
VERTEX
  8
0
 10
181.514162
 20
87.224662
 42
0.172696
  0
VERTEX
  8
0
 10
181.143105
 20
85.864379
 42
0.148375
  0
VERTEX
  8
0
 10
181.692937
 20
84.448122
 42
0.030129
  0
VERTEX
  8
0
 10
183.500000
 20
82.409091
 42
-0.027710
  0
VERTEX
  8
0
 10
185.045592
 20
80.681986
 42
-0.076796
  0
VERTEX
  8
0
 10
185.855204
 20
79.272204
 42
-0.202357
  0
VERTEX
  8
0
 10
185.827958
 20
78.402570
 42
-0.293018
  0
VERTEX
  8
0
 10
185.200000
 20
78.000000
 42
-0.093912
  0
VERTEX
  8
0
 10
184.820383
 20
78.071936
 42
-0.035096
  0
VERTEX
  8
0
 10
184.328800
 20
78.306200
 42
-0.033259
  0
VERTEX
  8
0
 10
183.815530
 20
78.643484
 42
-0.034397
  0
VERTEX
  8
0
 10
183.357618
 20
79.042382
 42
0.090873
  0
VERTEX
  8
0
 10
182.814898
 20
79.416993
 42
0.154123
  0
VERTEX
  8
0
 10
182.271549
 20
79.480891
 42
0.123965
  0
VERTEX
  8
0
 10
181.705400
 20
79.217501
 42
0.049028
  0
VERTEX
  8
0
 10
181.090697
 20
78.609283
 42
0.289885
  0
VERTEX
  8
0
 10
180.880616
 20
76.982429
 42
0.148437
  0
VERTEX
  8
0
 10
182.308644
 20
75.388652
 42
0.096652
  0
VERTEX
  8
0
 10
185.003721
 20
74.396417
 42
0.094344
  0
VERTEX
  8
0
 10
187.898468
 20
74.477700
 42
0.108290
  0
VERTEX
  8
0
 10
189.998816
 20
75.445907
 42
0.158608
  0
VERTEX
  8
0
 10
191.153146
 20
77.102719
 42
0.127518
  0
VERTEX
  8
0
 10
191.246352
 20
79.416743
 42
0.059201
  0
VERTEX
  8
0
 10
190.260204
 20
82.280155
 42
-0.023503
  0
VERTEX
  8
0
 10
189.581583
 20
83.872184
 42
-0.106813
  0
VERTEX
  8
0
 10
189.438654
 20
84.864009
 42
-0.134006
  0
VERTEX
  8
0
 10
189.733285
 20
85.707309
 42
-0.045745
  0
VERTEX
  8
0
 10
190.569623
 20
86.712481
 42
0.022201
  0
VERTEX
  8
0
 10
191.505286
 20
87.735138
 42
0.188959
  0
VERTEX
  8
0
 10
191.699119
 20
88.314037
 42
0.199705
  0
VERTEX
  8
0
 10
191.442614
 20
88.852391
 42
0.025146
  0
VERTEX
  8
0
 10
190.419768
 20
89.682326
 42
0.074671
  0
VERTEX
  8
0
 10
188.511674
 20
90.681300
 42
0.106637
  0
VERTEX
  8
0
 10
186.620314
 20
90.910835
 42
0.104491
  0
VERTEX
  8
0
 10
184.774540
 20
90.340012
 42
0.069421
  0
SEQEND
  0
POLYLINE
  8
0
 66
1
 70
1
  0
VERTEX
  8
0
 10
230.378554
 20
90.286192
 42
0.043058
  0
VERTEX
  8
0
 10
228.583165
 20
89.900630
 42
0.158232
  0
VERTEX
  8
0
 10
227.643864
 20
89.242086
 42
0.111420
  0
VERTEX
  8
0
 10
227.090316
 20
88.014249
 42
0.016352
  0
VERTEX
  8
0
 10
226.628554
 20
85.306658
 42
0.010417
  0
VERTEX
  8
0
 10
226.018525
 20
80.043192
 42
0.054175
  0
VERTEX
  8
0
 10
226.058497
 20
77.124220
 42
0.134274
  0
VERTEX
  8
0
 10
226.685637
 20
75.593705
 42
0.232813
  0
VERTEX
  8
0
 10
227.891592
 20
75.000000
 42
0.106194
  0
VERTEX
  8
0
 10
228.745980
 20
75.183531
 42
0.098945
  0
VERTEX
  8
0
 10
229.474565
 20
75.704157
 42
0.080830
  0
VERTEX
  8
0
 10
230.054063
 20
76.566290
 42
0.046513
  0
VERTEX
  8
0
 10
230.469503
 20
77.750000
 42
-0.055037
  0
VERTEX
  8
0
 10
231.256027
 20
79.874707
 42
-0.044236
  0
VERTEX
  8
0
 10
232.536673
 20
81.949884
 42
-0.045147
  0
VERTEX
  8
0
 10
233.963451
 20
83.539187
 42
-0.189470
  0
VERTEX
  8
0
 10
235.135857
 20
84.000000
 42
-0.367204
  0
VERTEX
  8
0
 10
235.424730
 20
83.754785
 42
-0.029181
  0
VERTEX
  8
0
 10
235.537953
 20
82.678125
 42
-0.028701
  0
VERTEX
  8
0
 10
235.522037
 20
81.225407
 42
-0.016970
  0
VERTEX
  8
0
 10
235.344946
 20
79.500000
 42
0.009510
  0
VERTEX
  8
0
 10
235.008258
 20
76.640304
 42
0.130723
  0
VERTEX
  8
0
 10
235.175073
 20
75.618297
 42
0.249997
  0
VERTEX
  8
0
 10
235.802370
 20
75.132377
 42
0.042306
  0
VERTEX
  8
0
 10
237.364076
 20
75.000000
 42
0.040231
  0
VERTEX
  8
0
 10
238.682677
 20
75.106269
 42
0.136764
  0
VERTEX
  8
0
 10
239.458168
 20
75.464441
 42
0.157671
  0
VERTEX
  8
0
 10
239.873579
 20
76.136684
 42
0.059032
  0
VERTEX
  8
0
 10
240.011006
 20
77.250000
 42
-0.017846
  0
VERTEX
  8
0
 10
240.056238
 20
78.364023
 42
-0.006851
  0
VERTEX
  8
0
 10
240.195489
 20
79.907556
 42
-0.006774
  0
VERTEX
  8
0
 10
240.392430
 20
81.579919
 42
-0.008283
  0
VERTEX
  8
0
 10
240.623580
 20
83.137426
 42
0.029980
  0
VERTEX
  8
0
 10
240.824694
 20
85.065050
 42
0.075389
  0
VERTEX
  8
0
 10
240.674981
 20
86.465758
 42
0.085382
  0
VERTEX
  8
0
 10
240.134016
 20
87.653684
 42
0.046965
  0
VERTEX
  8
0
 10
239.112574
 20
88.887426
 42
0.040624
  0
VERTEX
  8
0
 10
238.174935
 20
89.683936
 42
0.038757
  0
VERTEX
  8
0
 10
237.106506
 20
90.332420
 42
0.041291
  0
VERTEX
  8
0
 10
236.070777
 20
90.752728
 42
0.098861
  0
VERTEX
  8
0
 10
235.250000
 20
90.839963
 42
0.004073
  0
VERTEX
  8
0
 10
234.366155
 20
90.751871
 42
0.001426
  0
VERTEX
  8
0
 10
233.097138
 20
90.611278
 42
0.001416
  0
VERTEX
  8
0
 10
231.701926
 20
90.448671
 42
0.001655
  0
SEQEND
  0
POLYLINE
  8
0
 66
1
 70
1
  0
VERTEX
  8
0
 10
248.762707
 20
89.471811
 42
0.091262
  0
VERTEX
  8
0
 10
246.942173
 20
87.970544
 42
0.072160
  0
VERTEX
  8
0
 10
245.594639
 20
85.797731
 42
0.068317
  0
VERTEX
  8
0
 10
244.865588
 20
83.210151
 42
0.066702
  0
VERTEX
  8
0
 10
244.852032
 20
80.500000
 42
0.126746
  0
VERTEX
  8
0
 10
245.759179
 20
78.231127
 42
0.067280
  0
VERTEX
  8
0
 10
247.873287
 20
76.037147
 42
0.068264
  0
VERTEX
  8
0
 10
250.443313
 20
74.520048
 42
0.147513
  0
VERTEX
  8
0
 10
252.704910
 20
74.283922
 42
-0.130799
  0
VERTEX
  8
0
 10
254.229661
 20
74.175117
 42
-0.321489
  0
VERTEX
  8
0
 10
254.845349
 20
73.307811
 42
-0.186760
  0
VERTEX
  8
0
 10
254.308138
 20
71.939192
 42
-0.069903
  0
VERTEX
  8
0
 10
252.687350
 20
70.607183
 42
-0.063356
  0
VERTEX
  8
0
 10
251.680191
 20
70.155253
 42
-0.150592
  0
VERTEX
  8
0
 10
250.867839
 20
70.158252
 42
-0.115754
  0
VERTEX
  8
0
 10
250.060752
 20
70.634518
 42
-0.029930
  0
VERTEX
  8
0
 10
249.027058
 20
71.750000
 42
0.066116
  0
VERTEX
  8
0
 10
247.350758
 20
73.315514
 42
0.135523
  0
VERTEX
  8
0
 10
245.675195
 20
73.926749
 42
0.234466
  0
VERTEX
  8
0
 10
244.497074
 20
73.455887
 42
0.184544
  0
VERTEX
  8
0
 10
244.000000
 20
72.154988
 42
0.185924
  0
VERTEX
  8
0
 10
245.125322
 20
69.233304
 42
0.119180
  0
VERTEX
  8
0
 10
248.165377
 20
67.161269
 42
0.100700
  0
VERTEX
  8
0
 10
252.291564
 20
66.494155
 42
0.101000
  0
VERTEX
  8
0
 10
256.345623
 20
67.493768
 42
0.090681
  0
VERTEX
  8
0
 10
259.094392
 20
69.472507
 42
0.102669
  0
VERTEX
  8
0
 10
260.821992
 20
72.219673
 42
0.068514
  0
VERTEX
  8
0
 10
261.735554
 20
76.306178
 42
0.020784
  0
VERTEX
  8
0
 10
262.000000
 20
82.665108
 42
0.000000
  0
VERTEX
  8
0
 10
262.000000
 20
90.031769
 42
0.000000
  0
VERTEX
  8
0
 10
259.250000
 20
89.962355
 42
-0.017938
  0
VERTEX
  8
0
 10
258.015430
 20
89.975486
 42
-0.011224
  0
VERTEX
  8
0
 10
256.573438
 20
90.075076
 42
-0.011263
  0
VERTEX
  8
0
 10
255.155612
 20
90.237308
 42
-0.020086
  0
VERTEX
  8
0
 10
254.000000
 20
90.443561
 42
0.064218
  0
VERTEX
  8
0
 10
252.840212
 20
90.546501
 42
0.035946
  0
VERTEX
  8
0
 10
251.430674
 20
90.388546
 42
0.035098
  0
VERTEX
  8
0
 10
249.998682
 20
90.017365
 42
0.045975
  0
SEQEND
  0
POLYLINE
  8
0
 66
1
 70
1
  0
VERTEX
  8
0
 10
255.800000
 20
85.800000
 42
-0.107488
  0
VERTEX
  8
0
 10
256.692035
 20
84.412105
 42
-0.104542
  0
VERTEX
  8
0
 10
256.938933
 20
82.764707
 42
-0.098202
  0
VERTEX
  8
0
 10
256.497756
 20
81.074612
 42
-0.083766
  0
VERTEX
  8
0
 10
255.428571
 20
79.571429
 42
-0.092124
  0
VERTEX
  8
0
 10
253.669235
 20
78.363485
 42
-0.192249
  0
VERTEX
  8
0
 10
252.035501
 20
78.301246
 42
-0.166429
  0
VERTEX
  8
0
 10
250.641859
 20
79.409045
 42
-0.066870
  0
VERTEX
  8
0
 10
249.600837
 20
81.644628
 42
-0.166295
  0
VERTEX
  8
0
 10
249.669000
 20
84.139586
 42
-0.157121
  0
VERTEX
  8
0
 10
251.248483
 20
86.139067
 42
-0.165186
  0
VERTEX
  8
0
 10
253.631645
 20
86.780976
 42
-0.182251
  0
SEQEND
  0
POLYLINE
  8
0
 66
1
 70
1
  0
VERTEX
  8
0
 10
207.568650
 20
84.703156
 42
0.013851
  0
VERTEX
  8
0
 10
207.360697
 20
82.557092
 42
0.015657
  0
VERTEX
  8
0
 10
207.282919
 20
80.488853
 42
0.015005
  0
VERTEX
  8
0
 10
207.324514
 20
78.736317
 42
0.078327
  0
VERTEX
  8
0
 10
207.525281
 20
77.794713
 42
0.152309
  0
VERTEX
  8
0
 10
208.743365
 20
76.253117
 42
0.059131
  0
VERTEX
  8
0
 10
211.180357
 20
74.979197
 42
0.057442
  0
VERTEX
  8
0
 10
214.005155
 20
74.261537
 42
0.095272
  0
VERTEX
  8
0
 10
216.451724
 20
74.398528
 42
0.097317
  0
VERTEX
  8
0
 10
218.477156
 20
75.351883
 42
0.116059
  0
VERTEX
  8
0
 10
219.843120
 20
76.954779
 42
0.070352
  0
VERTEX
  8
0
 10
220.775612
 20
79.640289
 42
0.017447
  0
VERTEX
  8
0
 10
221.514052
 20
84.250000
 42
0.006902
  0
VERTEX
  8
0
 10
221.900903
 20
87.747887
 42
0.079502
  0
VERTEX
  8
0
 10
221.815061
 20
89.123379
 42
0.233724
  0
VERTEX
  8
0
 10
221.296257
 20
89.764673
 42
0.108268
  0
VERTEX
  8
0
 10
220.222212
 20
90.000000
 42
0.127695
  0
VERTEX
  8
0
 10
218.817765
 20
89.635372
 42
0.133996
  0
VERTEX
  8
0
 10
217.798063
 20
88.637784
 42
0.093710
  0
VERTEX
  8
0
 10
217.190781
 20
86.937700
 42
0.039072
  0
VERTEX
  8
0
 10
217.000000
 20
84.500000
 42
-0.039096
  0
VERTEX
  8
0
 10
216.808953
 20
82.060409
 42
-0.093979
  0
VERTEX
  8
0
 10
216.200634
 20
80.360804
 42
-0.134274
  0
VERTEX
  8
0
 10
215.178418
 20
79.364174
 42
-0.127122
  0
VERTEX
  8
0
 10
213.769181
 20
79.000000
 42
-0.107793
  0
VERTEX
  8
0
 10
212.695639
 20
79.234161
 42
-0.219628
  0
VERTEX
  8
0
 10
212.145863
 20
79.875222
 42
-0.081792
  0
VERTEX
  8
0
 10
211.991393
 20
81.232973
 42
-0.008200
  0
VERTEX
  8
0
 10
212.208443
 20
84.500000
 42
0.007749
  0
VERTEX
  8
0
 10
212.435860
 20
87.877064
 42
0.090647
  0
VERTEX
  8
0
 10
212.266604
 20
89.181238
 42
0.234969
  0
VERTEX
  8
0
 10
211.673760
 20
89.790887
 42
0.084653
  0
VERTEX
  8
0
 10
210.447496
 20
90.000000
 42
0.100294
  0
VERTEX
  8
0
 10
209.250595
 20
89.757476
 42
0.169886
  0
VERTEX
  8
0
 10
208.501137
 20
89.078089
 42
0.081520
  0
VERTEX
  8
0
 10
208.013250
 20
87.677325
 42
0.012046
  0
SEQEND
  0
POLYLINE
  8
0
 66
1
 70
1
  0
VERTEX
  8
0
 10
266.950668
 20
78.440559
 42
0.049094
  0
VERTEX
  8
0
 10
266.422170
 20
77.659057
 42
0.124768
  0
VERTEX
  8
0
 10
266.255111
 20
77.000000
 42
0.124768
  0
VERTEX
  8
0
 10
266.422170
 20
76.340943
 42
0.049094
  0
VERTEX
  8
0
 10
266.950668
 20
75.559441
 42
0.136089
  0
VERTEX
  8
0
 10
268.172610
 20
74.709842
 42
0.171355
  0
VERTEX
  8
0
 10
269.541802
 20
74.713094
 42
0.172266
  0
VERTEX
  8
0
 10
270.600323
 20
75.574296
 42
0.137517
  0
VERTEX
  8
0
 10
271.000000
 20
77.000000
 42
0.137517
  0
VERTEX
  8
0
 10
270.600323
 20
78.425704
 42
0.172266
  0
VERTEX
  8
0
 10
269.541802
 20
79.286906
 42
0.171355
  0
VERTEX
  8
0
 10
268.172610
 20
79.290158
 42
0.136089
  0
SEQEND
  0
POLYLINE
  8
0
 66
1
 70
1
  0
VERTEX
  8
0
 10
253.474598
 20
228.958899
 42
0.217307
  0
VERTEX
  8
0
 10
253.334080
 20
227.846126
 42
0.092618
  0
VERTEX
  8
0
 10
254.052726
 20
226.489200
 42
0.084876
  0
VERTEX
  8
0
 10
255.288760
 20
225.383752
 42
0.141008
  0
VERTEX
  8
0
 10
256.622445
 20
225.000000
 42
0.218710
  0
VERTEX
  8
0
 10
257.633016
 20
225.464251
 42
0.215802
  0
VERTEX
  8
0
 10
257.946736
 20
226.537315
 42
0.136511
  0
VERTEX
  8
0
 10
257.348745
 20
227.905685
 42
0.099339
  0
VERTEX
  8
0
 10
256.060688
 20
228.967521
 42
0.034687
  0
VERTEX
  8
0
 10
255.144206
 20
229.379052
 42
0.089245
  0
VERTEX
  8
0
 10
254.431818
 20
229.504777
 42
0.130399
  0
VERTEX
  8
0
 10
253.886717
 20
229.358209
 42
0.124441
  0
SEQEND
  0
ENDSEC
  0
EOF
