  0
SECTION
  2
HEADER
  9
$ACADVER
  1
AC1006
  9
$EXTMIN
 10
0.000000
 20
0.000000
 30
0.000000
  9
$EXTMAX
 10
319.000000
 20
319.000000
 30
0.000000
  0
ENDSEC
  0
SECTION
  2
ENTITIES
  0
POLYLINE
  8
0
 66
1
 70
1
  0
VERTEX
  8
0
 10
0.000000
 20
159.500000
 42
0.000000
  0
VERTEX
  8
0
 10
0.000000
 20
0.000000
 42
0.000000
  0
VERTEX
  8
0
 10
159.500000
 20
0.000000
 42
0.000000
  0
VERTEX
  8
0
 10
319.000000
 20
0.000000
 42
0.000000
  0
VERTEX
  8
0
 10
319.000000
 20
159.500000
 42
0.000000
  0
VERTEX
  8
0
 10
319.000000
 20
319.000000
 42
0.000000
  0
VERTEX
  8
0
 10
159.500000
 20
319.000000
 42
0.000000
  0
VERTEX
  8
0
 10
0.000000
 20
319.000000
 42
0.000000
  0
SEQEND
  0
POLYLINE
  8
0
 66
1
 70
1
  0
VERTEX
  8
0
 10
185.876233
 20
297.649130
 42
-0.116367
  0
VERTEX
  8
0
 10
186.381475
 20
296.632008
 42
-0.007348
  0
VERTEX
  8
0
 10
187.097710
 20
293.346583
 42
-0.010493
  0
VERTEX
  8
0
 10
187.818142
 20
289.364067
 42
-0.007589
  0
VERTEX
  8
0
 10
188.460109
 20
284.899130
 42
0.000000
  0
VERTEX
  8
0
 10
189.922861
 20
273.500000
 42
0.000000
  0
VERTEX
  8
0
 10
189.441247
 20
283.250000
 42
-0.007280
  0
VERTEX
  8
0
 10
189.295052
 20
287.449814
 42
-0.018857
  0
VERTEX
  8
0
 10
189.347982
 20
290.478746
 42
-0.017594
  0
VERTEX
  8
0
 10
189.541417
 20
292.613455
 42
-0.377900
  0
VERTEX
  8
0
 10
189.979816
 20
293.000000
 42
-0.324902
  0
VERTEX
  8
0
 10
190.379303
 20
292.709775
 42
-0.030426
  0
VERTEX
  8
0
 10
190.702258
 20
291.462630
 42
-0.029827
  0
VERTEX
  8
0
 10
190.928758
 20
289.768649
 42
-0.018161
  0
VERTEX
  8
0
 10
191.003417
 20
287.750000
 42
0.018770
  0
VERTEX
  8
0
 10
191.300242
 20
279.980712
 42
0.007469
  0
VERTEX
  8
0
 10
192.266066
 20
269.356687
 42
0.007549
  0
VERTEX
  8
0
 10
193.589974
 20
258.441055
 42
0.013611
  0
VERTEX
  8
0
 10
195.052427
 20
249.549300
 42
-0.008333
  0
VERTEX
  8
0
 10
195.763795
 20
245.492048
 42
-0.015864
  0
VERTEX
  8
0
 10
196.177380
 20
242.205328
 42
-0.011229
  0
VERTEX
  8
0
 10
196.360188
 20
239.634689
 42
-0.272929
  0
VERTEX
  8
0
 10
196.038901
 20
239.024042
 42
0.209363
  0
VERTEX
  8
0
 10
195.706554
 20
238.542869
 42
0.047512
  0
VERTEX
  8
0
 10
195.608501
 20
237.532468
 42
0.037686
  0
VERTEX
  8
0
 10
195.709684
 20
236.159224
 42
0.019736
  0
VERTEX
  8
0
 10
196.030767
 20
234.474742
 42
-0.038649
  0
VERTEX
  8
0
 10
196.708148
 20
230.009725
 42
-0.017255
  0
VERTEX
  8
0
 10
196.938885
 20
224.065074
 42
-0.018336
  0
VERTEX
  8
0
 10
196.779789
 20
219.153549
 42
-0.744935
  0
VERTEX
  8
0
 10
196.097119
 20
219.000000
 42
-0.053641
  0
VERTEX
  8
0
 10
195.588736
 20
220.187984
 42
-0.000675
  0
VERTEX
  8
0
 10
193.188387
 20
228.063942
 42
-0.001974
  0
VERTEX
  8
0
 10
190.457538
 20
237.197568
 42
-0.001291
  0
VERTEX
  8
0
 10
187.377527
 20
247.749588
 42
0.000000
  0
VERTEX
  8
0
 10
179.500000
 20
274.999177
 42
0.000000
  0
VERTEX
  8
0
 10
168.363544
 20
274.999588
 42
0.000000
  0
VERTEX
  8
0
 10
157.227088
 20
275.000000
 42
0.000000
  0
VERTEX
  8
0
 10
156.658947
 20
270.750000
 42
0.010648
  0
VERTEX
  8
0
 10
156.353682
 20
268.025933
 42
0.000963
  0
VERTEX
  8
0
 10
155.748872
 20
261.200177
 42
0.001249
  0
VERTEX
  8
0
 10
155.063502
 20
253.055561
 42
0.000976
  0
VERTEX
  8
0
 10
154.358632
 20
244.208049
 42
-0.003304
  0
VERTEX
  8
0
 10
153.644917
 20
235.747297
 42
-0.006005
  0
VERTEX
  8
0
 10
152.932911
 20
228.843869
 42
-0.002701
  0
VERTEX
  8
0
 10
152.259446
 20
223.267345
 42
-0.731458
  0
VERTEX
  8
0
 10
151.937527
 20
223.208049
 42
-0.089469
  0
VERTEX
  8
0
 10
151.613711
 20
224.213987
 42
-0.001894
  0
VERTEX
  8
0
 10
150.938991
 20
229.407989
 42
-0.004323
  0
VERTEX
  8
0
 10
150.223507
 20
235.508664
 42
-0.002893
  0
VERTEX
  8
0
 10
149.505694
 20
242.500000
 42
0.001439
  0
VERTEX
  8
0
 10
148.814946
 20
249.425857
 42
0.002327
  0
VERTEX
  8
0
 10
148.182776
 20
255.314854
 42
0.000367
  0
VERTEX
  8
0
 10
147.595069
 20
260.525007
 42
0.156017
  0
VERTEX
  8
0
 10
147.449623
 20
260.848440
 42
0.220626
  0
VERTEX
  8
0
 10
147.150045
 20
260.976643
 42
0.001717
  0
VERTEX
  8
0
 10
144.457466
 20
260.886776
 42
0.005841
  0
VERTEX
  8
0
 10
141.342004
 20
260.735624
 42
0.003668
  0
VERTEX
  8
0
 10
137.703326
 20
260.489649
 42
0.000000
  0
VERTEX
  8
0
 10
128.270199
 20
259.782419
 42
0.000000
  0
VERTEX
  8
0
 10
128.750514
 20
255.141210
 42
0.000723
  0
VERTEX
  8
0
 10
129.011087
 20
252.658406
 42
0.000190
  0
VERTEX
  8
0
 10
129.435423
 20
248.685157
 42
0.000193
  0
VERTEX
  8
0
 10
129.921864
 20
244.163239
 42
0.000198
  0
VERTEX
  8
0
 10
130.407632
 20
239.680600
 42
-0.007343
  0
VERTEX
  8
0
 10
130.820216
 20
235.288143
 42
-0.013751
  0
VERTEX
  8
0
 10
131.003806
 20
231.724319
 42
-0.008784
  0
VERTEX
  8
0
 10
131.021846
 20
228.906922
 42
-0.256956
  0
VERTEX
  8
0
 10
130.680414
 20
228.302485
 42
-0.336751
  0
VERTEX
  8
0
 10
129.653438
 20
228.401454
 42
-0.124910
  0
VERTEX
  8
0
 10
128.811316
 20
229.696548
 42
-0.048173
  0
VERTEX
  8
0
 10
128.140741
 20
232.538233
 42
-0.011493
  0
VERTEX
  8
0
 10
127.595077
 20
237.368909
 42
0.001411
  0
VERTEX
  8
0
 10
127.306786
 20
240.482850
 42
0.001024
  0
VERTEX
  8
0
 10
126.969004
 20
243.947429
 42
0.001035
  0
VERTEX
  8
0
 10
126.634833
 20
247.234755
 42
0.002266
  0
VERTEX
  8
0
 10
126.362361
 20
249.750000
 42
0.000000
  0
VERTEX
  8
0
 10
125.769553
 20
255.000000
 42
0.000000
  0
VERTEX
  8
0
 10
119.509777
 20
255.000000
 42
0.008734
  0
VERTEX
  8
0
 10
116.883989
 20
254.954128
 42
0.007891
  0
VERTEX
  8
0
 10
114.170841
 20
254.816406
 42
0.007930
  0
VERTEX
  8
0
 10
111.744354
 20
254.616110
 42
0.024799
  0
VERTEX
  8
0
 10
110.125000
 20
254.375000
 42
0.035890
  0
VERTEX
  8
0
 10
108.321890
 20
253.877636
 42
0.163465
  0
VERTEX
  8
0
 10
107.477199
 20
253.215333
 42
0.127586
  0
VERTEX
  8
0
 10
107.091169
 20
252.080829
 42
0.018545
  0
VERTEX
  8
0
 10
107.000000
 20
249.623664
 42
0.020576
  0
VERTEX
  8
0
 10
107.103260
 20
247.115475
 42
0.002602
  0
VERTEX
  8
0
 10
107.576888
 20
241.716082
 42
0.003050
  0
VERTEX
  8
0
 10
108.211911
 20
235.309573
 42
0.002530
  0
VERTEX
  8
0
 10
108.963874
 20
228.498664
 42
-0.000028
  0
VERTEX
  8
0
 10
109.757715
 20
221.624004
 42
-0.000032
  0
VERTEX
  8
0
 10
110.518961
 20
215.024608
 42
-0.000029
  0
VERTEX
  8
0
 10
111.165544
 20
209.413207
 42
-0.000176
  0
VERTEX
  8
0
 10
111.500009
 20
206.500000
 42
-0.813735
  0
VERTEX
  8
0
 10
111.166355
 20
206.389936
 42
-0.043499
  0
VERTEX
  8
0
 10
110.280735
 20
208.288991
 42
-0.010871
  0
VERTEX
  8
0
 10
108.525573
 20
213.452232
 42
-0.003279
  0
VERTEX
  8
0
 10
106.081206
 20
221.371596
 42
0.001005
  0
VERTEX
  8
0
 10
103.762987
 20
229.005283
 42
0.001642
  0
VERTEX
  8
0
 10
101.763339
 20
235.466721
 42
0.000176
  0
VERTEX
  8
0
 10
99.957225
 20
241.228535
 42
0.165206
  0
VERTEX
  8
0
 10
99.795070
 20
241.450203
 42
0.158970
  0
VERTEX
  8
0
 10
99.537517
 20
241.528878
 42
0.000614
  0
VERTEX
  8
0
 10
96.426073
 20
241.466455
 42
0.003049
  0
VERTEX
  8
0
 10
92.886481
 20
241.369498
 42
0.001902
  0
VERTEX
  8
0
 10
88.740497
 20
241.214835
 42
0.003977
  0
VERTEX
  8
0
 10
82.183631
 20
240.892984
 42
0.042314
  0
VERTEX
  8
0
 10
79.540640
 20
240.516273
 42
0.127491
  0
VERTEX
  8
0
 10
78.219535
 20
239.828880
 42
0.159064
  0
VERTEX
  8
0
 10
77.533610
 20
238.636229
 42
0.029093
  0
VERTEX
  8
0
 10
77.303189
 20
237.093617
 42
0.000889
  0
VERTEX
  8
0
 10
76.733879
 20
230.665017
 42
0.001750
  0
VERTEX
  8
0
 10
76.102839
 20
223.084361
 42
0.001209
  0
VERTEX
  8
0
 10
75.439363
 20
214.500000
 42
-0.001269
  0
VERTEX
  8
0
 10
73.828646
 20
193.692436
 42
-0.046169
  0
VERTEX
  8
0
 10
73.008265
 20
188.971775
 42
-0.790329
  0
VERTEX
  8
0
 10
72.114717
 20
188.999640
 42
-0.013640
  0
VERTEX
  8
0
 10
70.702573
 20
197.000000
 42
-0.004708
  0
VERTEX
  8
0
 10
69.453983
 20
205.989207
 42
-0.002548
  0
VERTEX
  8
0
 10
68.078216
 20
217.072007
 42
-0.002414
  0
VERTEX
  8
0
 10
66.700070
 20
229.153577
 42
-0.002405
  0
VERTEX
  8
0
 10
65.436754
 20
241.263890
 42
-0.005882
  0
VERTEX
  8
0
 10
65.105384
 20
245.047027
 42
-0.052485
  0
VERTEX
  8
0
 10
65.154185
 20
246.713838
 42
-0.212236
  0
VERTEX
  8
0
 10
65.555754
 20
247.365285
 42
-0.246447
  0
VERTEX
  8
0
 10
66.271507
 20
247.449307
 42
-0.104698
  0
VERTEX
  8
0
 10
66.843049
 20
247.078886
 42
-0.100730
  0
VERTEX
  8
0
 10
67.224961
 20
246.503940
 42
-0.091169
  0
VERTEX
  8
0
 10
67.375571
 20
245.774869
 42
-0.069525
  0
VERTEX
  8
0
 10
67.280281
 20
244.963793
 42
0.605494
  0
VERTEX
  8
0
 10
67.904500
 20
244.396481
 42
0.012972
  0
VERTEX
  8
0
 10
72.771113
 20
246.324298
 42
0.010510
  0
VERTEX
  8
0
 10
80.645329
 20
249.879772
 42
0.002025
  0
VERTEX
  8
0
 10
94.740525
 20
256.674572
 42
0.000000
  0
VERTEX
  8
0
 10
122.699471
 20
270.292393
 42
0.000000
  0
VERTEX
  8
0
 10
124.132813
 20
279.396196
 42
0.000000
  0
VERTEX
  8
0
 10
125.566155
 20
288.500000
 42
0.000000
  0
VERTEX
  8
0
 10
128.595270
 20
283.728859
 42
0.018852
  0
VERTEX
  8
0
 10
129.817716
 20
281.954893
 42
0.032196
  0
VERTEX
  8
0
 10
130.983722
 20
280.585764
 42
0.035840
  0
VERTEX
  8
0
 10
131.965309
 20
279.708508
 42
0.363773
  0
VERTEX
  8
0
 10
132.472518
 20
279.728859
 42
-0.024609
  0
VERTEX
  8
0
 10
132.774363
 20
279.977313
 42
-0.384375
  0
VERTEX
  8
0
 10
132.896924
 20
279.965702
 42
-0.302746
  0
VERTEX
  8
0
 10
132.918610
 20
279.826422
 42
-0.020631
  0
VERTEX
  8
0
 10
132.726308
 20
279.452254
 42
0.097478
  0
VERTEX
  8
0
 10
132.559766
 20
278.952466
 42
0.056533
  0
VERTEX
  8
0
 10
132.550641
 20
278.317343
 42
0.053479
  0
VERTEX
  8
0
 10
132.689262
 20
277.652094
 42
0.060394
  0
VERTEX
  8
0
 10
132.962900
 20
277.060030
 42
0.354449
  0
VERTEX
  8
0
 10
134.073419
 20
276.672242
 42
0.012458
  0
VERTEX
  8
0
 10
138.616912
 20
278.435656
 42
0.012196
  0
VERTEX
  8
0
 10
145.565986
 20
281.534979
 42
0.002514
  0
VERTEX
  8
0
 10
157.646917
 20
287.355034
 42
-0.002502
  0
VERTEX
  8
0
 10
166.906640
 20
291.816220
 42
-0.003846
  0
VERTEX
  8
0
 10
174.971251
 20
295.576224
 42
-0.001336
  0
VERTEX
  8
0
 10
181.953842
 20
298.744070
 42
-0.105780
  0
VERTEX
  8
0
 10
183.127555
 20
298.997258
 42
-0.069869
  0
VERTEX
  8
0
 10
183.832823
 20
298.899433
 42
-0.044693
  0
VERTEX
  8
0
 10
184.606346
 20
298.602376
 42
-0.044180
  0
VERTEX
  8
0
 10
185.327343
 20
298.165971
 42
-0.061446
  0
SEQEND
  0
POLYLINE
  8
0
 66
1
 70
1
  0
VERTEX
  8
0
 10
206.368185
 20
291.338973
 42
0.000000
  0
VERTEX
  8
0
 10
210.236370
 20
290.699958
 42
0.000000
  0
VERTEX
  8
0
 10
209.599266
 20
281.099979
 42
0.014031
  0
VERTEX
  8
0
 10
209.418734
 20
276.377243
 42
0.005633
  0
VERTEX
  8
0
 10
209.425970
 20
269.913744
 42
0.005569
  0
VERTEX
  8
0
 10
209.589909
 20
262.946083
 42
0.007011
  0
VERTEX
  8
0
 10
209.903978
 20
256.500000
 42
-0.004606
  0
VERTEX
  8
0
 10
210.214620
 20
250.698367
 42
-0.007174
  0
VERTEX
  8
0
 10
210.364471
 20
245.693624
 42
-0.002746
  0
VERTEX
  8
0
 10
210.407593
 20
241.421827
 42
-0.195153
  0
VERTEX
  8
0
 10
210.149065
 20
240.776168
 42
-0.166854
  0
VERTEX
  8
0
 10
209.667289
 20
240.529127
 42
-0.027336
  0
VERTEX
  8
0
 10
208.608206
 20
240.435158
 42
-0.027510
  0
VERTEX
  8
0
 10
207.300100
 20
240.462853
 42
-0.021179
  0
VERTEX
  8
0
 10
205.881973
 20
240.631727
 42
0.000000
  0
VERTEX
  8
0
 10
202.311609
 20
241.211118
 42
0.000000
  0
VERTEX
  8
0
 10
200.149814
 20
252.855559
 42
-0.013317
  0
VERTEX
  8
0
 10
198.846436
 20
261.092831
 42
-0.005453
  0
VERTEX
  8
0
 10
197.497621
 20
272.336687
 42
-0.005288
  0
VERTEX
  8
0
 10
196.410409
 20
283.405559
 42
-0.017298
  0
VERTEX
  8
0
 10
196.022690
 20
290.750000
 42
-0.343560
  0
VERTEX
  8
0
 10
196.650824
 20
291.587161
 42
-0.052140
  0
VERTEX
  8
0
 10
198.857868
 20
291.945722
 42
-0.037618
  0
VERTEX
  8
0
 10
202.142623
 20
291.885503
 42
-0.017549
  0
SEQEND
  0
POLYLINE
  8
0
 66
1
 70
1
  0
VERTEX
  8
0
 10
118.000000
 20
272.525680
 42
-0.157621
  0
VERTEX
  8
0
 10
117.780449
 20
271.846529
 42
-0.045097
  0
VERTEX
  8
0
 10
117.045312
 20
271.000657
 42
-0.040580
  0
VERTEX
  8
0
 10
115.993906
 20
270.143313
 42
-0.033495
  0
VERTEX
  8
0
 10
114.750000
 20
269.404435
 42
0.000000
  0
VERTEX
  8
0
 10
111.500000
 20
267.757509
 42
0.000000
  0
VERTEX
  8
0
 10
114.437091
 20
270.878755
 42
-0.004133
  0
VERTEX
  8
0
 10
116.703011
 20
273.247212
 42
-0.091823
  0
VERTEX
  8
0
 10
117.477025
 20
273.795267
 42
-0.472621
  0
VERTEX
  8
0
 10
117.871093
 20
273.604899
 42
-0.059511
  0
SEQEND
  0
POLYLINE
  8
0
 66
1
 70
1
  0
VERTEX
  8
0
 10
187.713038
 20
242.000000
 42
-0.000148
  0
VERTEX
  8
0
 10
191.260401
 20
229.904183
 42
-0.000244
  0
VERTEX
  8
0
 10
194.250262
 20
219.679688
 42
-0.000012
  0
VERTEX
  8
0
 10
196.944031
 20
210.450241
 42
-0.051683
  0
VERTEX
  8
0
 10
196.980610
 20
210.250000
 42
-0.424821
  0
VERTEX
  8
0
 10
196.890327
 20
210.148307
 42
-0.001290
  0
VERTEX
  8
0
 10
194.959121
 20
210.073438
 42
-0.005660
  0
VERTEX
  8
0
 10
192.727020
 20
210.017961
 42
-0.003382
  0
VERTEX
  8
0
 10
190.071716
 20
210.000000
 42
0.000000
  0
VERTEX
  8
0
 10
183.143432
 20
210.000000
 42
0.000000
  0
VERTEX
  8
0
 10
181.902372
 20
215.545644
 42
0.012386
  0
VERTEX
  8
0
 10
181.361281
 20
217.710426
 42
0.016989
  0
VERTEX
  8
0
 10
180.761012
 20
219.625948
 42
0.013750
  0
VERTEX
  8
0
 10
180.173947
 20
221.161576
 42
0.157424
  0
VERTEX
  8
0
 10
179.759657
 20
221.648540
 42
0.126642
  0
VERTEX
  8
0
 10
179.173220
 20
221.830996
 42
0.016654
  0
VERTEX
  8
0
 10
177.858758
 20
221.852536
 42
0.018470
  0
VERTEX
  8
0
 10
176.268482
 20
221.766808
 42
0.014516
  0
VERTEX
  8
0
 10
174.554666
 20
221.560469
 42
0.000000
  0
VERTEX
  8
0
 10
170.251330
 20
220.915144
 42
0.000000
  0
VERTEX
  8
0
 10
169.550592
 20
211.957572
 42
0.000000
  0
VERTEX
  8
0
 10
168.849854
 20
203.000000
 42
0.000000
  0
VERTEX
  8
0
 10
162.424927
 20
203.000000
 42
-0.007133
  0
VERTEX
  8
0
 10
159.961417
 20
203.035145
 42
-0.011849
  0
VERTEX
  8
0
 10
157.887322
 20
203.143566
 42
-0.005518
  0
VERTEX
  8
0
 10
156.177800
 20
203.292601
 42
-0.385794
  0
VERTEX
  8
0
 10
156.000000
 20
203.488737
 42
-0.021414
  0
VERTEX
  8
0
 10
156.096168
 20
205.733187
 42
-0.000063
  0
VERTEX
  8
0
 10
158.619351
 20
235.079986
 42
-0.000169
  0
VERTEX
  8
0
 10
161.028672
 20
262.951461
 42
-0.007417
  0
VERTEX
  8
0
 10
161.622585
 20
268.788503
 42
0.000000
  0
VERTEX
  8
0
 10
162.240068
 20
274.077006
 42
0.000000
  0
VERTEX
  8
0
 10
170.352462
 20
273.788503
 42
0.000000
  0
VERTEX
  8
0
 10
178.464856
 20
273.500000
 42
0.000000
  0
SEQEND
  0
POLYLINE
  8
0
 66
1
 70
1
  0
VERTEX
  8
0
 10
146.397905
 20
256.750000
 42
-0.019539
  0
VERTEX
  8
0
 10
146.622295
 20
255.288418
 42
-0.001639
  0
VERTEX
  8
0
 10
147.041861
 20
251.489062
 42
-0.002180
  0
VERTEX
  8
0
 10
147.507894
 20
246.951534
 42
-0.001682
  0
VERTEX
  8
0
 10
147.977830
 20
242.000000
 42
0.007918
  0
VERTEX
  8
0
 10
149.195960
 20
230.669152
 42
0.002616
  0
VERTEX
  8
0
 10
151.335229
 20
214.068660
 42
0.001248
  0
VERTEX
  8
0
 10
153.655453
 20
197.099414
 42
0.037561
  0
VERTEX
  8
0
 10
154.567865
 20
192.890365
 42
-0.199596
  0
VERTEX
  8
0
 10
154.480599
 20
192.065923
 42
-0.166394
  0
VERTEX
  8
0
 10
153.826130
 20
191.466458
 42
-0.063145
  0
VERTEX
  8
0
 10
152.323391
 20
191.025095
 42
-0.010639
  0
VERTEX
  8
0
 10
149.349821
 20
190.611295
 42
-0.012887
  0
VERTEX
  8
0
 10
146.657159
 20
190.364982
 42
-0.038179
  0
VERTEX
  8
0
 10
144.802844
 20
190.385140
 42
-0.059186
  0
VERTEX
  8
0
 10
143.562561
 20
190.643571
 42
-0.175149
  0
VERTEX
  8
0
 10
142.891322
 20
191.175844
 42
-0.087385
  0
VERTEX
  8
0
 10
142.524573
 20
192.096076
 42
-0.003780
  0
VERTEX
  8
0
 10
141.840847
 20
195.515337
 42
-0.006345
  0
VERTEX
  8
0
 10
141.109196
 20
199.603076
 42
-0.004471
  0
VERTEX
  8
0
 10
140.386184
 20
204.215758
 42
0.004531
  0
VERTEX
  8
0
 10
139.391161
 20
210.558849
 42
0.029755
  0
VERTEX
  8
0
 10
138.676120
 20
213.695202
 42
0.073952
  0
VERTEX
  8
0
 10
137.960450
 20
215.250423
 42
0.326560
  0
VERTEX
  8
0
 10
137.071845
 20
215.585500
 42
-0.009299
  0
VERTEX
  8
0
 10
136.248887
 20
215.373530
 42
-0.002798
  0
VERTEX
  8
0
 10
134.989667
 20
215.081482
 42
-0.002803
  0
VERTEX
  8
0
 10
133.573057
 20
214.769612
 42
-0.003040
  0
VERTEX
  8
0
 10
132.190849
 20
214.482210
 42
0.023016
  0
VERTEX
  8
0
 10
130.324524
 20
214.015684
 42
0.147921
  0
VERTEX
  8
0
 10
129.522427
 20
213.484786
 42
0.185853
  0
VERTEX
  8
0
 10
129.246141
 20
212.664506
 42
0.040543
  0
VERTEX
  8
0
 10
129.433462
 20
211.157553
 42
-0.012916
  0
VERTEX
  8
0
 10
130.009130
 20
207.973804
 42
-0.000845
  0
VERTEX
  8
0
 10
131.420545
 20
198.720303
 42
-0.000355
  0
VERTEX
  8
0
 10
132.898700
 20
188.870685
 42
-0.037080
  0
VERTEX
  8
0
 10
133.000000
 20
187.506582
 42
-0.383955
  0
VERTEX
  8
0
 10
132.817124
 20
187.303543
 42
-0.006104
  0
VERTEX
  8
0
 10
131.143540
 20
187.148809
 42
-0.012481
  0
VERTEX
  8
0
 10
129.103348
 20
187.036431
 42
-0.007517
  0
VERTEX
  8
0
 10
126.680137
 20
187.000000
 42
0.000000
  0
VERTEX
  8
0
 10
120.360274
 20
187.000000
 42
0.000000
  0
VERTEX
  8
0
 10
118.160710
 20
201.250000
 42
-0.005932
  0
VERTEX
  8
0
 10
116.499656
 20
212.928548
 42
-0.002006
  0
VERTEX
  8
0
 10
114.351192
 20
229.970311
 42
-0.000934
  0
VERTEX
  8
0
 10
112.254478
 20
247.428063
 42
-0.029424
  0
VERTEX
  8
0
 10
112.000000
 20
251.748664
 42
-0.292035
  0
VERTEX
  8
0
 10
112.364620
 20
252.319699
 42
-0.061095
  0
VERTEX
  8
0
 10
113.548612
 20
252.701872
 42
-0.036416
  0
VERTEX
  8
0
 10
115.511632
 20
252.933368
 42
-0.011147
  0
VERTEX
  8
0
 10
118.500000
 20
253.000000
 42
0.000000
  0
VERTEX
  8
0
 10
125.000000
 20
253.000000
 42
0.000000
  0
VERTEX
  8
0
 10
125.000000
 20
248.941579
 42
0.016997
  0
VERTEX
  8
0
 10
125.073806
 20
246.771094
 42
0.004450
  0
VERTEX
  8
0
 10
125.341412
 20
243.297187
 42
0.004515
  0
VERTEX
  8
0
 10
125.717330
 20
239.344167
 42
0.004609
  0
VERTEX
  8
0
 10
126.162254
 20
235.425688
 42
0.005665
  0
VERTEX
  8
0
 10
126.846304
 20
230.336430
 42
0.037794
  0
VERTEX
  8
0
 10
127.405107
 20
227.843281
 42
0.104201
  0
VERTEX
  8
0
 10
128.051591
 20
226.670223
 42
0.290401
  0
VERTEX
  8
0
 10
128.912254
 20
226.409453
 42
-0.009235
  0
VERTEX
  8
0
 10
129.738477
 20
226.622704
 42
-0.002865
  0
VERTEX
  8
0
 10
130.988287
 20
226.913219
 42
-0.002863
  0
VERTEX
  8
0
 10
132.389274
 20
227.222002
 42
-0.003149
  0
VERTEX
  8
0
 10
133.750000
 20
227.504798
 42
0.032750
  0
VERTEX
  8
0
 10
134.993055
 20
227.840927
 42
0.046179
  0
VERTEX
  8
0
 10
136.039582
 20
228.310613
 42
0.055380
  0
VERTEX
  8
0
 10
136.765638
 20
228.834228
 42
0.216285
  0
VERTEX
  8
0
 10
136.980493
 20
229.329455
 42
0.021478
  0
VERTEX
  8
0
 10
136.929954
 20
230.176239
 42
0.000550
  0
VERTEX
  8
0
 10
136.534756
 20
233.974902
 42
0.001170
  0
VERTEX
  8
0
 10
136.055352
 20
238.433854
 42
0.000798
  0
VERTEX
  8
0
 10
135.490482
 20
243.500000
 42
-0.000929
  0
VERTEX
  8
0
 10
134.926326
 20
248.571760
 42
-0.001350
  0
VERTEX
  8
0
 10
134.449005
 20
253.048438
 42
-0.000668
  0
VERTEX
  8
0
 10
134.058840
 20
256.853269
 42
-0.023219
  0
VERTEX
  8
0
 10
134.009990
 20
257.750000
 42
-0.284543
  0
VERTEX
  8
0
 10
134.352724
 20
258.313505
 42
-0.065985
  0
VERTEX
  8
0
 10
135.446604
 20
258.698168
 42
-0.039110
  0
VERTEX
  8
0
 10
137.260482
 20
258.931965
 42
-0.012502
  0
VERTEX
  8
0
 10
139.980948
 20
259.000000
 42
-0.009198
  0
VERTEX
  8
0
 10
143.496415
 20
258.935321
 42
-0.075253
  0
VERTEX
  8
0
 10
145.069103
 20
258.637726
 42
-0.167802
  0
VERTEX
  8
0
 10
145.909862
 20
257.971980
 42
-0.094564
  0
SEQEND
  0
POLYLINE
  8
0
 66
1
 70
1
  0
VERTEX
  8
0
 10
63.407781
 20
244.750000
 42
-0.003243
  0
VERTEX
  8
0
 10
63.705194
 20
242.233850
 42
-0.000491
  0
VERTEX
  8
0
 10
64.262324
 20
237.198191
 42
-0.000550
  0
VERTEX
  8
0
 10
64.907656
 20
231.252010
 42
-0.000476
  0
VERTEX
  8
0
 10
65.572151
 20
225.009799
 42
0.003656
  0
VERTEX
  8
0
 10
66.359291
 20
218.037033
 42
0.002261
  0
VERTEX
  8
0
 10
67.381373
 20
209.853040
 42
0.002267
  0
VERTEX
  8
0
 10
68.464278
 20
201.777381
 42
0.004077
  0
VERTEX
  8
0
 10
69.436587
 20
195.164519
 42
-0.003961
  0
VERTEX
  8
0
 10
70.487236
 20
188.030292
 42
-0.017398
  0
VERTEX
  8
0
 10
70.927002
 20
183.796612
 42
-0.022338
  0
VERTEX
  8
0
 10
70.991681
 20
181.106658
 42
-0.304893
  0
VERTEX
  8
0
 10
70.456430
 20
180.344907
 42
-0.074491
  0
VERTEX
  8
0
 10
69.714609
 20
180.180812
 42
-0.010892
  0
VERTEX
  8
0
 10
68.170053
 20
180.107839
 42
-0.012109
  0
VERTEX
  8
0
 10
66.327384
 20
180.105608
 42
-0.010122
  0
VERTEX
  8
0
 10
64.372940
 20
180.190188
 42
0.000000
  0
VERTEX
  8
0
 10
59.500000
 20
180.500000
 42
0.000000
  0
VERTEX
  8
0
 10
57.532419
 20
192.856101
 42
0.000000
  0
VERTEX
  8
0
 10
55.564838
 20
205.212202
 42
0.000000
  0
VERTEX
  8
0
 10
51.111449
 20
204.601797
 42
0.006277
  0
VERTEX
  8
0
 10
49.379371
 20
204.342196
 42
0.009178
  0
VERTEX
  8
0
 10
47.862150
 20
204.066606
 42
0.005240
  0
VERTEX
  8
0
 10
46.599384
 20
203.799412
 42
0.142554
  0
VERTEX
  8
0
 10
46.303702
 20
203.637035
 42
0.231347
  0
VERTEX
  8
0
 10
46.189764
 20
203.305155
 42
0.001106
  0
VERTEX
  8
0
 10
46.655817
 20
199.631859
 42
0.004729
  0
VERTEX
  8
0
 10
47.239385
 20
195.425986
 42
0.002935
  0
VERTEX
  8
0
 10
48.000000
 20
190.500000
 42
-0.002281
  0
VERTEX
  8
0
 10
48.766362
 20
185.579516
 42
-0.003703
  0
VERTEX
  8
0
 10
49.367398
 20
181.391503
 42
-0.000680
  0
VERTEX
  8
0
 10
49.863754
 20
177.703248
 42
-0.233805
  0
VERTEX
  8
0
 10
49.775328
 20
177.442493
 42
-0.188590
  0
VERTEX
  8
0
 10
48.949514
 20
177.081906
 42
-0.002896
  0
VERTEX
  8
0
 10
43.656172
 20
176.906639
 42
-0.002751
  0
VERTEX
  8
0
 10
38.343656
 20
176.790786
 42
-0.203152
  0
VERTEX
  8
0
 10
37.557880
 20
177.108787
 42
-0.163834
  0
VERTEX
  8
0
 10
36.572599
 20
179.094377
 42
-0.000540
  0
VERTEX
  8
0
 10
32.846536
 20
206.578002
 42
-0.002115
  0
VERTEX
  8
0
 10
29.558702
 20
231.836159
 42
-0.031313
  0
VERTEX
  8
0
 10
29.000000
 20
240.748664
 42
-0.094730
  0
VERTEX
  8
0
 10
29.237894
 20
241.993040
 42
-0.210932
  0
VERTEX
  8
0
 10
29.911239
 20
242.655481
 42
-0.082640
  0
VERTEX
  8
0
 10
31.355195
 20
242.943020
 42
-0.007915
  0
VERTEX
  8
0
 10
34.954687
 20
243.000000
 42
-0.034417
  0
VERTEX
  8
0
 10
39.212497
 20
242.706571
 42
-0.250922
  0
VERTEX
  8
0
 10
40.811916
 20
241.542110
 42
-0.082532
  0
VERTEX
  8
0
 10
41.601343
 20
238.848664
 42
-0.002083
  0
VERTEX
  8
0
 10
43.082461
 20
226.165494
 42
0.003592
  0
VERTEX
  8
0
 10
43.857669
 20
219.696795
 42
0.049689
  0
VERTEX
  8
0
 10
44.384599
 20
217.402481
 42
0.200168
  0
VERTEX
  8
0
 10
45.159275
 20
216.519517
 42
0.181377
  0
VERTEX
  8
0
 10
46.372848
 20
216.401839
 42
-0.013876
  0
VERTEX
  8
0
 10
47.297070
 20
216.622570
 42
-0.010701
  0
VERTEX
  8
0
 10
48.315774
 20
216.813512
 42
-0.010847
  0
VERTEX
  8
0
 10
49.275843
 20
216.950954
 42
-0.025303
  0
VERTEX
  8
0
 10
50.000000
 20
217.001658
 42
0.128334
  0
VERTEX
  8
0
 10
52.250039
 20
217.635486
 42
0.219028
  0
VERTEX
  8
0
 10
53.347088
 20
219.206134
 42
0.069452
  0
VERTEX
  8
0
 10
53.480557
 20
222.560392
 42
0.006066
  0
VERTEX
  8
0
 10
52.533930
 20
231.050128
 42
-0.002772
  0
VERTEX
  8
0
 10
51.002490
 20
244.008967
 42
-0.088411
  0
VERTEX
  8
0
 10
51.206865
 20
247.184234
 42
-0.294019
  0
VERTEX
  8
0
 10
52.706561
 20
248.604597
 42
-0.046613
  0
VERTEX
  8
0
 10
56.938727
 20
249.000000
 42
0.000000
  0
VERTEX
  8
0
 10
62.877454
 20
249.000000
 42
0.000000
  0
SEQEND
  0
POLYLINE
  8
0
 66
1
 70
1
  0
VERTEX
  8
0
 10
46.965874
 20
231.961914
 42
-0.005035
  0
VERTEX
  8
0
 10
47.414189
 20
226.917920
 42
-0.007850
  0
VERTEX
  8
0
 10
47.688305
 20
222.564225
 42
-0.003128
  0
VERTEX
  8
0
 10
47.840075
 20
218.857597
 42
-0.207938
  0
VERTEX
  8
0
 10
47.611914
 20
218.278581
 42
-0.432992
  0
VERTEX
  8
0
 10
46.588761
 20
218.311171
 42
-0.111140
  0
VERTEX
  8
0
 10
45.697317
 20
219.941619
 42
-0.036692
  0
VERTEX
  8
0
 10
44.902174
 20
223.753995
 42
-0.007775
  0
VERTEX
  8
0
 10
44.111187
 20
230.500000
 42
-0.001906
  0
VERTEX
  8
0
 10
43.215525
 20
239.670664
 42
-0.027291
  0
VERTEX
  8
0
 10
43.087698
 20
242.948582
 42
-0.109599
  0
VERTEX
  8
0
 10
43.443153
 20
244.440322
 42
-0.287162
  0
VERTEX
  8
0
 10
44.337293
 20
245.000000
 42
-0.328098
  0
VERTEX
  8
0
 10
45.047736
 20
244.477572
 42
-0.025939
  0
VERTEX
  8
0
 10
45.664252
 20
242.071198
 42
-0.019957
  0
VERTEX
  8
0
 10
46.280682
 20
238.227785
 42
-0.005101
  0
SEQEND
  0
POLYLINE
  8
0
 66
1
 70
1
  0
VERTEX
  8
0
 10
101.426720
 20
231.750000
 42
-0.002014
  0
VERTEX
  8
0
 10
106.415190
 20
214.984833
 42
-0.001622
  0
VERTEX
  8
0
 10
111.647186
 20
196.921717
 42
-0.000285
  0
VERTEX
  8
0
 10
116.767616
 20
178.988153
 42
-0.069500
  0
VERTEX
  8
0
 10
117.000000
 20
177.324390
 42
-0.272394
  0
VERTEX
  8
0
 10
116.637288
 20
176.708005
 42
-0.075802
  0
VERTEX
  8
0
 10
115.543982
 20
176.301823
 42
-0.040296
  0
VERTEX
  8
0
 10
113.647680
 20
176.065757
 42
-0.010826
  0
VERTEX
  8
0
 10
110.611047
 20
176.000000
 42
0.000000
  0
VERTEX
  8
0
 10
104.222095
 20
176.000000
 42
0.000000
  0
VERTEX
  8
0
 10
102.467240
 20
182.482959
 42
0.010217
  0
VERTEX
  8
0
 10
101.130704
 20
187.048523
 42
0.184657
  0
VERTEX
  8
0
 10
100.201592
 20
188.220263
 42
0.177949
  0
VERTEX
  8
0
 10
98.713876
 20
188.495545
 42
0.009352
  0
VERTEX
  8
0
 10
93.877594
 20
187.575718
 42
0.152364
  0
VERTEX
  8
0
 10
91.995618
 20
186.525353
 42
0.116275
  0
VERTEX
  8
0
 10
90.800731
 20
184.475815
 42
0.060149
  0
VERTEX
  8
0
 10
90.169626
 20
180.930453
 42
0.014003
  0
VERTEX
  8
0
 10
90.000000
 20
174.875000
 42
0.000000
  0
VERTEX
  8
0
 10
90.000000
 20
169.000000
 42
0.000000
  0
VERTEX
  8
0
 10
83.500000
 20
169.000000
 42
-0.011232
  0
VERTEX
  8
0
 10
80.518779
 20
169.066977
 42
-0.036143
  0
VERTEX
  8
0
 10
78.549238
 20
169.298827
 42
-0.059734
  0
VERTEX
  8
0
 10
77.353000
 20
169.680380
 42
-0.289477
  0
VERTEX
  8
0
 10
76.980486
 20
170.250000
 42
-0.024373
  0
VERTEX
  8
0
 10
77.105238
 20
174.014701
 42
-0.000191
  0
VERTEX
  8
0
 10
79.594603
 20
204.215222
 42
-0.000154
  0
VERTEX
  8
0
 10
82.129809
 20
234.714972
 42
-0.030450
  0
VERTEX
  8
0
 10
82.570275
 20
237.750000
 42
-0.114445
  0
VERTEX
  8
0
 10
83.146349
 20
238.996544
 42
-0.163632
  0
VERTEX
  8
0
 10
84.153531
 20
239.664521
 42
-0.059731
  0
VERTEX
  8
0
 10
86.117009
 20
239.945021
 42
-0.005645
  0
VERTEX
  8
0
 10
90.986907
 20
240.000000
 42
0.000000
  0
VERTEX
  8
0
 10
98.935711
 20
240.000000
 42
0.000000
  0
SEQEND
  0
POLYLINE
  8
0
 66
1
 70
1
  0
VERTEX
  8
0
 10
213.024751
 20
235.434900
 42
-0.048839
  0
VERTEX
  8
0
 10
213.401475
 20
234.050687
 42
-0.013902
  0
VERTEX
  8
0
 10
213.713521
 20
231.841487
 42
-0.013860
  0
VERTEX
  8
0
 10
213.928329
 20
229.314481
 42
-0.014272
  0
VERTEX
  8
0
 10
214.000000
 20
226.804058
 42
0.000000
  0
VERTEX
  8
0
 10
214.000000
 20
220.738315
 42
0.000000
  0
VERTEX
  8
0
 10
210.250000
 20
221.358152
 42
0.008278
  0
VERTEX
  8
0
 10
208.644453
 20
221.596296
 42
0.006774
  0
VERTEX
  8
0
 10
206.920830
 20
221.799145
 42
0.006852
  0
VERTEX
  8
0
 10
205.330221
 20
221.942523
 42
0.017863
  0
VERTEX
  8
0
 10
204.182612
 20
221.988994
 42
-0.038442
  0
VERTEX
  8
0
 10
203.080084
 20
222.079156
 42
-0.156450
  0
VERTEX
  8
0
 10
202.487361
 20
222.379365
 42
-0.204007
  0
VERTEX
  8
0
 10
202.268870
 20
222.912278
 42
-0.070871
  0
VERTEX
  8
0
 10
202.399683
 20
223.750000
 42
0.070128
  0
VERTEX
  8
0
 10
202.560326
 20
224.768865
 42
0.012929
  0
VERTEX
  8
0
 10
202.542210
 20
226.675184
 42
0.013653
  0
VERTEX
  8
0
 10
202.401319
 20
228.920672
 42
0.012057
  0
VERTEX
  8
0
 10
202.134364
 20
231.250626
 42
-0.009055
  0
VERTEX
  8
0
 10
201.864110
 20
233.490400
 42
-0.013487
  0
VERTEX
  8
0
 10
201.716211
 20
235.458697
 42
-0.008478
  0
VERTEX
  8
0
 10
201.665631
 20
237.085992
 42
-0.202584
  0
VERTEX
  8
0
 10
201.833959
 20
237.500626
 42
-0.165059
  0
VERTEX
  8
0
 10
202.234484
 20
237.698184
 42
-0.009530
  0
VERTEX
  8
0
 10
203.613704
 20
237.853309
 42
-0.013671
  0
VERTEX
  8
0
 10
205.293933
 20
237.963694
 42
-0.009566
  0
VERTEX
  8
0
 10
207.191418
 20
238.000000
 42
-0.015454
  0
VERTEX
  8
0
 10
209.967912
 20
237.914162
 42
-0.088346
  0
VERTEX
  8
0
 10
211.395291
 20
237.567811
 42
-0.139095
  0
VERTEX
  8
0
 10
212.295485
 20
236.823793
 42
-0.060163
  0
SEQEND
  0
POLYLINE
  8
0
 66
1
 70
1
  0
VERTEX
  8
0
 10
215.967521
 20
235.060688
 42
-0.043239
  0
VERTEX
  8
0
 10
216.309047
 20
234.263972
 42
-0.064722
  0
VERTEX
  8
0
 10
216.451330
 20
233.521286
 42
-0.084542
  0
VERTEX
  8
0
 10
216.386726
 20
232.929086
 42
-0.187108
  0
VERTEX
  8
0
 10
216.117054
 20
232.572343
 42
-0.271560
  0
VERTEX
  8
0
 10
215.741243
 20
232.563607
 42
-0.113162
  0
VERTEX
  8
0
 10
215.349923
 20
232.915539
 42
-0.069041
  0
VERTEX
  8
0
 10
214.999320
 20
233.597093
 42
-0.037109
  0
VERTEX
  8
0
 10
214.753021
 20
234.511655
 42
-0.009393
  0
VERTEX
  8
0
 10
214.411308
 20
236.501157
 42
-0.336263
  0
VERTEX
  8
0
 10
214.621199
 20
236.887695
 42
-0.383007
  0
VERTEX
  8
0
 10
215.010478
 20
236.764296
 42
-0.010221
  0
SEQEND
  0
POLYLINE
  8
0
 66
1
 70
1
  0
VERTEX
  8
0
 10
200.000000
 20
216.000000
 42
-0.009837
  0
VERTEX
  8
0
 10
200.847893
 20
215.428095
 42
-0.289012
  0
VERTEX
  8
0
 10
200.943737
 20
215.198218
 42
-0.349595
  0
VERTEX
  8
0
 10
200.774812
 20
215.046892
 42
-0.012172
  0
VERTEX
  8
0
 10
199.833333
 20
215.015313
 42
0.068429
  0
VERTEX
  8
0
 10
199.158471
 20
214.916192
 42
0.061379
  0
VERTEX
  8
0
 10
198.508087
 20
214.637311
 42
0.064748
  0
VERTEX
  8
0
 10
197.979003
 20
214.229224
 42
0.100576
  0
VERTEX
  8
0
 10
197.662281
 20
213.750000
 42
-0.134342
  0
VERTEX
  8
0
 10
197.465905
 20
213.492009
 42
-0.451325
  0
VERTEX
  8
0
 10
197.282867
 20
213.528125
 42
-0.102704
  0
VERTEX
  8
0
 10
197.140307
 20
213.953487
 42
-0.020908
  0
VERTEX
  8
0
 10
197.078947
 20
214.750000
 42
-0.046689
  0
VERTEX
  8
0
 10
197.165921
 20
216.241740
 42
-0.259313
  0
VERTEX
  8
0
 10
197.639811
 20
216.853604
 42
-0.214399
  0
VERTEX
  8
0
 10
198.491173
 20
216.838231
 42
-0.033332
  0
SEQEND
  0
POLYLINE
  8
0
 66
1
 70
1
  0
VERTEX
  8
0
 10
177.436023
 20
209.942763
 42
0.000000
  0
VERTEX
  8
0
 10
179.135597
 20
203.885526
 42
0.000000
  0
VERTEX
  8
0
 10
188.598434
 20
204.076392
 42
0.000000
  0
VERTEX
  8
0
 10
198.061270
 20
204.267257
 42
0.000000
  0
VERTEX
  8
0
 10
198.499820
 20
195.730500
 42
-0.008645
  0
VERTEX
  8
0
 10
198.635164
 20
191.755631
 42
-0.024687
  0
VERTEX
  8
0
 10
198.544955
 20
188.990924
 42
-0.032889
  0
VERTEX
  8
0
 10
198.264062
 20
187.103452
 42
-0.173788
  0
VERTEX
  8
0
 10
197.719185
 20
186.229762
 42
-0.116977
  0
VERTEX
  8
0
 10
196.670696
 20
185.741099
 42
-0.001075
  0
VERTEX
  8
0
 10
188.192511
 20
184.012884
 42
-0.003578
  0
VERTEX
  8
0
 10
178.395220
 20
182.110564
 42
-0.002297
  0
VERTEX
  8
0
 10
167.000000
 20
180.036615
 42
0.000412
  0
VERTEX
  8
0
 10
155.372074
 20
177.965565
 42
0.000554
  0
VERTEX
  8
0
 10
144.841563
 20
176.068986
 42
0.000378
  0
VERTEX
  8
0
 10
136.008245
 20
174.461076
 42
0.005907
  0
VERTEX
  8
0
 10
132.992555
 20
173.872878
 42
0.045644
  0
VERTEX
  8
0
 10
130.152135
 20
173.007699
 42
0.111806
  0
VERTEX
  8
0
 10
128.371466
 20
171.764266
 42
0.055408
  0
VERTEX
  8
0
 10
126.644258
 20
169.384492
 42
0.005128
  0
VERTEX
  8
0
 10
123.107578
 20
163.014947
 42
0.000000
  0
VERTEX
  8
0
 10
117.730045
 20
153.091584
 42
0.000000
  0
VERTEX
  8
0
 10
111.115023
 20
157.717156
 42
-0.000914
  0
VERTEX
  8
0
 10
108.348961
 20
159.658871
 42
-0.000838
  0
VERTEX
  8
0
 10
105.508075
 20
161.668003
 42
-0.000836
  0
VERTEX
  8
0
 10
102.978415
 20
163.469765
 42
-0.002748
  0
VERTEX
  8
0
 10
101.316722
 20
164.671364
 42
0.052473
  0
VERTEX
  8
0
 10
98.253803
 20
166.452509
 42
0.106583
  0
VERTEX
  8
0
 10
95.541838
 20
167.029144
 42
0.186087
  0
VERTEX
  8
0
 10
93.743183
 20
166.329811
 42
0.211055
  0
VERTEX
  8
0
 10
93.000000
 20
164.647600
 42
-0.134137
  0
VERTEX
  8
0
 10
92.632475
 20
163.302286
 42
-0.184883
  0
VERTEX
  8
0
 10
91.661433
 20
162.530132
 42
-0.054987
  0
VERTEX
  8
0
 10
89.487203
 20
162.097775
 42
-0.004063
  0
VERTEX
  8
0
 10
83.429741
 20
161.622477
 42
-0.009217
  0
VERTEX
  8
0
 10
79.398355
 20
161.413687
 42
-0.008187
  0
VERTEX
  8
0
 10
75.199369
 20
161.342552
 42
-0.008246
  0
VERTEX
  8
0
 10
71.418778
 20
161.402759
 42
-0.024873
  0
VERTEX
  8
0
 10
68.850539
 20
161.614215
 42
-0.022108
  0
VERTEX
  8
0
 10
65.742607
 20
162.167232
 42
-0.112366
  0
VERTEX
  8
0
 10
64.165404
 20
162.917659
 42
-0.097489
  0
VERTEX
  8
0
 10
62.959516
 20
164.324774
 42
-0.014551
  0
VERTEX
  8
0
 10
61.212479
 20
167.639337
 42
0.015637
  0
VERTEX
  8
0
 10
59.793463
 20
170.317447
 42
0.056089
  0
VERTEX
  8
0
 10
58.653965
 20
171.878394
 42
0.093008
  0
VERTEX
  8
0
 10
57.545547
 20
172.708273
 42
0.114798
  0
VERTEX
  8
0
 10
56.291682
 20
173.000000
 42
0.050391
  0
VERTEX
  8
0
 10
55.414766
 20
172.911398
 42
0.070361
  0
VERTEX
  8
0
 10
54.673182
 20
172.647500
 42
0.090487
  0
VERTEX
  8
0
 10
54.174378
 20
172.258087
 42
0.183896
  0
VERTEX
  8
0
 10
54.000000
 20
171.800000
 42
-0.064853
  0
VERTEX
  8
0
 10
53.942231
 20
171.356489
 42
-0.266818
  0
VERTEX
  8
0
 10
53.758822
 20
171.171289
 42
-0.223702
  0
VERTEX
  8
0
 10
53.476125
 20
171.220220
 42
-0.049201
  0
VERTEX
  8
0
 10
53.092346
 20
171.550000
 42
-0.154047
  0
VERTEX
  8
0
 10
52.104997
 20
173.558383
 42
-0.002924
  0
VERTEX
  8
0
 10
50.397266
 20
185.222399
 42
-0.002188
  0
VERTEX
  8
0
 10
48.779483
 20
197.119473
 42
-0.233135
  0
VERTEX
  8
0
 10
49.290118
 20
198.623452
 42
-0.281787
  0
VERTEX
  8
0
 10
50.037422
 20
198.803218
 42
-0.228755
  0
VERTEX
  8
0
 10
50.644007
 20
198.223178
 42
-0.046425
  0
VERTEX
  8
0
 10
51.183608
 20
196.236477
 42
-0.004859
  0
VERTEX
  8
0
 10
51.965871
 20
191.471192
 42
0.002878
  0
VERTEX
  8
0
 10
52.456172
 20
188.408572
 42
0.002016
  0
VERTEX
  8
0
 10
53.042246
 20
184.964047
 42
0.002034
  0
VERTEX
  8
0
 10
53.630384
 20
181.669023
 42
0.004244
  0
VERTEX
  8
0
 10
54.120661
 20
179.108544
 42
0.000000
  0
VERTEX
  8
0
 10
55.200528
 20
173.717087
 42
0.000000
  0
VERTEX
  8
0
 10
63.738653
 20
174.319632
 42
0.000000
  0
VERTEX
  8
0
 10
72.276779
 20
174.922176
 42
0.000000
  0
VERTEX
  8
0
 10
71.650079
 20
168.926234
 42
0.000000
  0
VERTEX
  8
0
 10
71.023379
 20
162.930292
 42
0.000000
  0
VERTEX
  8
0
 10
81.261689
 20
163.215146
 42
0.000000
  0
VERTEX
  8
0
 10
91.500000
 20
163.500000
 42
0.000000
  0
VERTEX
  8
0
 10
92.000000
 20
172.500000
 42
-0.005113
  0
VERTEX
  8
0
 10
92.356446
 20
177.915462
 42
-0.050771
  0
VERTEX
  8
0
 10
92.757836
 20
180.154223
 42
-0.145651
  0
VERTEX
  8
0
 10
93.464682
 20
181.261555
 42
-0.143957
  0
VERTEX
  8
0
 10
94.665206
 20
181.808439
 42
-0.112644
  0
VERTEX
  8
0
 10
95.858501
 20
181.709357
 42
-0.174302
  0
VERTEX
  8
0
 10
96.671877
 20
181.088041
 42
-0.077532
  0
VERTEX
  8
0
 10
97.308379
 20
179.657301
 42
-0.010917
  0
VERTEX
  8
0
 10
98.084550
 20
176.512796
 42
0.012256
  0
VERTEX
  8
0
 10
98.630635
 20
174.325621
 42
0.016845
  0
VERTEX
  8
0
 10
99.235100
 20
172.391248
 42
0.013556
  0
VERTEX
  8
0
 10
99.825569
 20
170.839828
 42
0.157903
  0
VERTEX
  8
0
 10
100.240185
 20
170.351557
 42
0.137944
  0
VERTEX
  8
0
 10
100.931873
 20
170.153096
 42
0.004751
  0
VERTEX
  8
0
 10
103.769944
 20
170.165135
 42
0.008577
  0
VERTEX
  8
0
 10
107.151326
 20
170.269647
 42
0.005850
  0
VERTEX
  8
0
 10
110.990454
 20
170.499317
 42
0.000000
  0
VERTEX
  8
0
 10
120.839225
 20
171.204232
 42
0.000000
  0
VERTEX
  8
0
 10
119.419613
 20
175.227842
 42
-0.006275
  0
VERTEX
  8
0
 10
118.875970
 20
176.832593
 42
-0.007994
  0
VERTEX
  8
0
 10
118.417011
 20
178.326335
 42
-0.006429
  0
VERTEX
  8
0
 10
118.069724
 20
179.584827
 42
-0.064187
  0
VERTEX
  8
0
 10
118.000000
 20
180.125727
 42
-0.376384
  0
VERTEX
  8
0
 10
118.305828
 20
180.474444
 42
-0.008685
  0
VERTEX
  8
0
 10
120.663545
 20
180.743182
 42
-0.014987
  0
VERTEX
  8
0
 10
123.590792
 20
180.937104
 42
-0.009045
  0
VERTEX
  8
0
 10
127.067388
 20
181.000000
 42
0.004335
  0
VERTEX
  8
0
 10
132.417312
 20
181.046389
 42
0.046130
  0
VERTEX
  8
0
 10
134.579465
 20
181.284176
 42
0.181719
  0
VERTEX
  8
0
 10
135.454767
 20
181.834467
 42
0.237800
  0
VERTEX
  8
0
 10
135.624306
 20
182.750000
 42
-0.034591
  0
VERTEX
  8
0
 10
134.621495
 20
187.349466
 42
-0.004793
  0
VERTEX
  8
0
 10
133.296360
 20
197.038133
 42
-0.001276
  0
VERTEX
  8
0
 10
131.977615
 20
207.636718
 42
-0.230622
  0
VERTEX
  8
0
 10
132.332508
 20
208.665842
 42
-0.377665
  0
VERTEX
  8
0
 10
133.151336
 20
208.717650
 42
-0.151027
  0
VERTEX
  8
0
 10
133.850847
 20
207.721023
 42
-0.034515
  0
VERTEX
  8
0
 10
134.553907
 20
204.887290
 42
-0.003991
  0
VERTEX
  8
0
 10
135.638255
 20
198.423442
 42
0.006264
  0
VERTEX
  8
0
 10
137.352772
 20
188.480321
 42
0.139172
  0
VERTEX
  8
0
 10
138.641089
 20
185.879028
 42
0.204059
  0
VERTEX
  8
0
 10
140.976889
 20
184.802720
 42
0.016070
  0
VERTEX
  8
0
 10
147.967344
 20
184.823277
 42
0.000000
  0
VERTEX
  8
0
 10
157.179364
 20
185.146555
 42
0.000000
  0
VERTEX
  8
0
 10
156.491495
 20
191.073277
 42
0.000000
  0
VERTEX
  8
0
 10
155.803626
 20
197.000000
 42
0.000000
  0
VERTEX
  8
0
 10
163.401813
 20
197.000000
 42
0.000000
  0
VERTEX
  8
0
 10
171.000000
 20
197.000000
 42
0.000000
  0
VERTEX
  8
0
 10
171.000000
 20
201.860429
 42
-0.015415
  0
VERTEX
  8
0
 10
171.185451
 20
207.874379
 42
-0.036941
  0
VERTEX
  8
0
 10
171.787770
 20
212.292218
 42
-0.052225
  0
VERTEX
  8
0
 10
172.719823
 20
215.165204
 42
-0.296435
  0
VERTEX
  8
0
 10
174.004149
 20
216.000000
 42
-0.185527
  0
VERTEX
  8
0
 10
174.909194
 20
215.652208
 42
-0.080562
  0
VERTEX
  8
0
 10
175.729050
 20
214.630562
 42
-0.046609
  0
VERTEX
  8
0
 10
176.539508
 20
212.827011
 42
-0.013907
  0
SEQEND
  0
POLYLINE
  8
0
 66
1
 70
1
  0
VERTEX
  8
0
 10
133.053869
 20
167.896284
 42
0.016935
  0
VERTEX
  8
0
 10
132.021777
 20
167.442984
 42
0.013609
  0
VERTEX
  8
0
 10
130.943278
 20
166.888447
 42
0.013829
  0
VERTEX
  8
0
 10
129.973963
 20
166.320777
 42
0.033831
  0
VERTEX
  8
0
 10
129.303869
 20
165.837226
 42
-0.025910
  0
VERTEX
  8
0
 10
128.677669
 20
165.370100
 42
-0.162584
  0
VERTEX
  8
0
 10
128.298012
 20
165.266350
 42
-0.308983
  0
VERTEX
  8
0
 10
128.075396
 20
165.437327
 42
-0.079290
  0
VERTEX
  8
0
 10
128.000000
 20
165.909779
 42
-0.232691
  0
VERTEX
  8
0
 10
128.464765
 20
166.854378
 42
-0.049426
  0
VERTEX
  8
0
 10
130.066031
 20
167.852798
 42
-0.048293
  0
VERTEX
  8
0
 10
132.082305
 20
168.616914
 42
-0.066533
  0
VERTEX
  8
0
 10
134.000000
 20
168.873227
 42
-0.146453
  0
VERTEX
  8
0
 10
134.319724
 20
168.777525
 42
-0.470321
  0
VERTEX
  8
0
 10
134.340824
 20
168.586250
 42
-0.087519
  0
VERTEX
  8
0
 10
133.911400
 20
168.275234
 42
-0.018067
  0
SEQEND
  0
POLYLINE
  8
0
 66
1
 70
1
  0
VERTEX
  8
0
 10
225.500000
 20
151.808432
 42
-0.029171
  0
VERTEX
  8
0
 10
230.538459
 20
149.840523
 42
-0.037104
  0
VERTEX
  8
0
 10
234.905940
 20
147.426937
 42
-0.036157
  0
VERTEX
  8
0
 10
238.955344
 20
144.340150
 42
-0.025627
  0
VERTEX
  8
0
 10
243.039430
 20
140.341397
 42
0.010782
  0
VERTEX
  8
0
 10
245.692699
 20
137.584659
 42
0.097481
  0
VERTEX
  8
0
 10
247.077189
 20
136.660449
 42
0.136817
  0
VERTEX
  8
0
 10
248.518788
 20
136.483233
 42
0.028359
  0
VERTEX
  8
0
 10
251.042948
 20
137.011565
 42
-0.079013
  0
VERTEX
  8
0
 10
257.516517
 20
137.695988
 42
-0.055534
  0
VERTEX
  8
0
 10
264.757345
 20
136.502800
 42
-0.053682
  0
VERTEX
  8
0
 10
271.829497
 20
133.665513
 42
-0.060954
  0
VERTEX
  8
0
 10
277.811021
 20
129.480000
 42
-0.053995
  0
VERTEX
  8
0
 10
282.528733
 20
124.214697
 42
-0.064862
  0
VERTEX
  8
0
 10
285.674715
 20
118.361389
 42
-0.048345
  0
VERTEX
  8
0
 10
287.796465
 20
110.604976
 42
-0.016529
  0
VERTEX
  8
0
 10
289.394860
 20
99.040542
 42
-0.008376
  0
VERTEX
  8
0
 10
290.305092
 20
88.669222
 42
-0.058813
  0
VERTEX
  8
0
 10
290.068653
 20
83.610286
 42
-0.125460
  0
VERTEX
  8
0
 10
288.710426
 20
80.517562
 42
-0.099451
  0
VERTEX
  8
0
 10
285.930706
 20
78.132565
 42
-0.175520
  0
VERTEX
  8
0
 10
280.902362
 20
77.303699
 42
-0.164296
  0
VERTEX
  8
0
 10
276.344659
 20
79.851970
 42
-0.154154
  0
VERTEX
  8
0
 10
274.079835
 20
84.798138
 42
-0.154946
  0
VERTEX
  8
0
 10
275.073049
 20
90.136493
 42
0.111438
  0
VERTEX
  8
0
 10
275.430358
 20
91.430380
 42
0.099398
  0
VERTEX
  8
0
 10
275.220743
 20
92.811076
 42
0.052821
  0
VERTEX
  8
0
 10
274.320914
 20
94.653328
 42
0.010805
  0
VERTEX
  8
0
 10
272.327367
 20
97.686130
 42
0.019477
  0
VERTEX
  8
0
 10
268.963535
 20
102.184645
 42
0.076320
  0
VERTEX
  8
0
 10
266.404519
 20
104.509240
 42
0.099602
  0
VERTEX
  8
0
 10
263.635430
 20
105.636302
 42
0.047032
  0
VERTEX
  8
0
 10
259.777494
 20
106.000000
 42
0.012780
  0
VERTEX
  8
0
 10
257.151539
 20
105.932871
 42
0.083515
  0
VERTEX
  8
0
 10
255.868010
 20
105.648869
 42
0.183279
  0
VERTEX
  8
0
 10
255.233416
 20
105.061307
 42
0.115846
  0
VERTEX
  8
0
 10
255.000000
 20
104.067388
 42
0.097704
  0
VERTEX
  8
0
 10
255.161899
 20
103.246775
 42
0.080409
  0
VERTEX
  8
0
 10
255.629321
 20
102.484479
 42
0.074712
  0
VERTEX
  8
0
 10
256.350897
 20
101.862853
 42
0.066984
  0
VERTEX
  8
0
 10
257.250000
 20
101.452453
 42
-0.042394
  0
VERTEX
  8
0
 10
258.272920
 20
101.044861
 42
-0.020826
  0
VERTEX
  8
0
 10
259.500000
 20
100.365620
 42
-0.020498
  0
VERTEX
  8
0
 10
260.724002
 20
99.549278
 42
-0.028009
  0
VERTEX
  8
0
 10
261.750000
 20
98.710751
 42
-0.127070
  0
VERTEX
  8
0
 10
263.542156
 20
95.956262
 42
-0.085070
  0
VERTEX
  8
0
 10
264.122895
 20
92.222545
 42
-0.082935
  0
VERTEX
  8
0
 10
263.426611
 20
88.416040
 42
-0.110190
  0
VERTEX
  8
0
 10
261.545455
 20
85.454545
 42
-0.015106
  0
VERTEX
  8
0
 10
260.546896
 20
84.514567
 42
-0.019759
  0
VERTEX
  8
0
 10
259.576489
 20
83.721023
 42
-0.017674
  0
VERTEX
  8
0
 10
258.734256
 20
83.131604
 42
-0.144816
  0
VERTEX
  8
0
 10
258.289403
 20
83.000000
 42
0.355637
  0
VERTEX
  8
0
 10
257.964610
 20
82.735534
 42
0.013537
  0
VERTEX
  8
0
 10
257.670260
 20
81.089692
 42
0.018975
  0
VERTEX
  8
0
 10
257.434204
 20
78.990041
 42
0.011559
  0
VERTEX
  8
0
 10
257.307202
 20
76.496824
 42
0.005536
  0
VERTEX
  8
0
 10
257.238764
 20
72.400976
 42
0.081697
  0
VERTEX
  8
0
 10
257.463539
 20
70.984710
 42
0.272653
  0
VERTEX
  8
0
 10
258.088033
 20
70.439192
 42
0.098384
  0
VERTEX
  8
0
 10
259.313253
 20
70.452062
 42
-0.022042
  0
VERTEX
  8
0
 10
260.734399
 20
70.685146
 42
-0.001860
  0
VERTEX
  8
0
 10
264.423624
 20
71.110421
 42
-0.002467
  0
VERTEX
  8
0
 10
268.830661
 20
71.579835
 42
-0.001905
  0
VERTEX
  8
0
 10
273.639511
 20
72.049554
 42
-0.009324
  0
VERTEX
  8
0
 10
282.229688
 20
72.694257
 42
-0.062885
  0
VERTEX
  8
0
 10
286.480462
 20
72.399026
 42
-0.121579
  0
VERTEX
  8
0
 10
289.221136
 20
71.119076
 42
-0.078126
  0
VERTEX
  8
0
 10
291.588382
 20
68.505456
 42
-0.107276
  0
VERTEX
  8
0
 10
292.574471
 20
65.934967
 42
-0.093177
  0
VERTEX
  8
0
 10
292.478399
 20
63.046269
 42
-0.088196
  0
VERTEX
  8
0
 10
291.315325
 20
60.256529
 42
-0.083529
  0
VERTEX
  8
0
 10
289.244532
 20
57.977709
 42
-0.042505
  0
VERTEX
  8
0
 10
287.743460
 20
56.990910
 42
-0.071941
  0
VERTEX
  8
0
 10
286.334142
 20
56.471733
 42
-0.063375
  0
VERTEX
  8
0
 10
284.713208
 20
56.337299
 42
-0.026260
  0
VERTEX
  8
0
 10
282.520330
 20
56.549222
 42
0.031484
  0
VERTEX
  8
0
 10
280.283634
 20
56.741834
 42
0.056875
  0
VERTEX
  8
0
 10
278.454705
 20
56.575543
 42
0.054901
  0
VERTEX
  8
0
 10
276.667594
 20
55.995203
 42
0.027346
  0
VERTEX
  8
0
 10
274.552188
 20
54.898290
 42
0.008472
  0
VERTEX
  8
0
 10
272.376619
 20
53.564473
 42
0.107854
  0
VERTEX
  8
0
 10
271.700451
 20
52.893141
 42
0.376224
  0
VERTEX
  8
0
 10
271.775589
 20
52.380653
 42
0.083091
  0
VERTEX
  8
0
 10
272.603169
 20
51.884877
 42
0.041466
  0
VERTEX
  8
0
 10
273.575946
 20
51.593477
 42
0.015101
  0
VERTEX
  8
0
 10
274.993164
 20
51.338564
 42
0.014852
  0
VERTEX
  8
0
 10
276.567595
 20
51.151813
 42
0.017178
  0
VERTEX
  8
0
 10
278.075686
 20
51.070285
 42
-0.152092
  0
VERTEX
  8
0
 10
282.869260
 20
49.473628
 42
-0.152711
  0
VERTEX
  8
0
 10
285.899621
 20
45.440029
 42
-0.154117
  0
VERTEX
  8
0
 10
286.077175
 20
40.428209
 42
-0.155170
  0
VERTEX
  8
0
 10
283.342736
 20
36.239049
 42
-0.088315
  0
VERTEX
  8
0
 10
280.729189
 20
34.782495
 42
-0.103190
  0
VERTEX
  8
0
 10
277.915890
 20
34.424378
 42
-0.097685
  0
VERTEX
  8
0
 10
275.074873
 20
35.222257
 42
-0.071533
  0
VERTEX
  8
0
 10
272.386280
 20
37.106834
 42
0.113665
  0
VERTEX
  8
0
 10
270.345308
 20
38.296732
 42
0.052251
  0
VERTEX
  8
0
 10
267.309561
 20
38.902833
 42
0.019555
  0
VERTEX
  8
0
 10
261.866446
 20
39.194604
 42
0.001797
  0
VERTEX
  8
0
 10
248.338206
 20
39.341449
 42
0.000000
  0
VERTEX
  8
0
 10
226.500000
 20
39.500000
 42
0.000000
  0
VERTEX
  8
0
 10
211.000000
 20
35.555766
 42
0.004090
  0
VERTEX
  8
0
 10
201.913808
 20
33.164327
 42
0.027350
  0
VERTEX
  8
0
 10
197.479346
 20
31.693689
 42
0.054053
  0
VERTEX
  8
0
 10
194.657827
 20
30.214322
 42
0.055472
  0
VERTEX
  8
0
 10
192.245893
 20
28.175590
 42
-0.020301
  0
VERTEX
  8
0
 10
190.287740
 20
26.269311
 42
-0.086824
  0
VERTEX
  8
0
 10
188.910198
 20
25.409176
 42
-0.102280
  0
VERTEX
  8
0
 10
187.439126
 20
25.139810
 42
-0.034017
  0
VERTEX
  8
0
 10
185.245893
 20
25.339410
 42
-0.074336
  0
VERTEX
  8
0
 10
182.192818
 20
26.307855
 42
-0.099966
  0
VERTEX
  8
0
 10
179.897782
 20
28.070121
 42
-0.101352
  0
VERTEX
  8
0
 10
178.487365
 20
30.564157
 42
-0.078325
  0
VERTEX
  8
0
 10
178.000000
 20
33.656239
 42
-0.099057
  0
VERTEX
  8
0
 10
178.591239
 20
36.611279
 42
-0.080510
  0
VERTEX
  8
0
 10
180.297955
 20
39.360251
 42
-0.084473
  0
VERTEX
  8
0
 10
182.691206
 20
41.319295
 42
-0.130080
  0
VERTEX
  8
0
 10
185.263416
 20
42.000000
 42
0.048550
  0
VERTEX
  8
0
 10
186.303981
 20
42.101278
 42
0.030575
  0
VERTEX
  8
0
 10
187.486553
 20
42.409771
 42
0.030564
  0
VERTEX
  8
0
 10
188.623547
 20
42.860500
 42
0.048249
  0
VERTEX
  8
0
 10
189.525468
 20
43.394964
 42
0.043659
  0
VERTEX
  8
0
 10
190.500992
 20
44.248209
 42
0.388595
  0
VERTEX
  8
0
 10
190.513345
 20
44.770910
 42
0.134382
  0
VERTEX
  8
0
 10
189.813163
 20
45.235666
 42
0.006933
  0
VERTEX
  8
0
 10
187.200945
 20
46.057942
 42
0.024184
  0
VERTEX
  8
0
 10
184.997889
 20
46.603465
 42
0.042320
  0
VERTEX
  8
0
 10
183.131021
 20
46.809259
 42
0.045871
  0
VERTEX
  8
0
 10
181.363347
 20
46.691579
 42
0.034922
  0
VERTEX
  8
0
 10
179.471956
 20
46.252775
 42
-0.060266
  0
VERTEX
  8
0
 10
176.238647
 20
45.673106
 42
-0.082374
  0
VERTEX
  8
0
 10
173.302091
 20
45.989617
 42
-0.087350
  0
VERTEX
  8
0
 10
170.752580
 20
47.208630
 42
-0.077456
  0
VERTEX
  8
0
 10
168.648855
 20
49.268503
 42
-0.033854
  0
VERTEX
  8
0
 10
167.601952
 20
50.888791
 42
-0.097647
  0
VERTEX
  8
0
 10
167.194295
 20
52.155810
 42
-0.082422
  0
VERTEX
  8
0
 10
167.263709
 20
53.604897
 42
-0.019692
  0
VERTEX
  8
0
 10
167.866380
 20
55.948352
 42
-0.030498
  0
VERTEX
  8
0
 10
168.456949
 20
57.555871
 42
-0.031396
  0
VERTEX
  8
0
 10
169.233844
 20
59.063498
 42
-0.033074
  0
VERTEX
  8
0
 10
170.071386
 20
60.275429
 42
-0.102497
  0
VERTEX
  8
0
 10
170.830677
 20
60.909381
 42
-0.084005
  0
VERTEX
  8
0
 10
172.094233
 20
61.333417
 42
-0.004607
  0
VERTEX
  8
0
 10
176.246392
 20
61.947999
 42
-0.007044
  0
VERTEX
  8
0
 10
181.225933
 20
62.566859
 42
-0.005082
  0
VERTEX
  8
0
 10
186.795424
 20
63.122273
 42
0.005914
  0
VERTEX
  8
0
 10
192.601916
 20
63.711086
 42
0.012451
  0
VERTEX
  8
0
 10
197.090320
 20
64.333484
 42
0.007008
  0
VERTEX
  8
0
 10
200.566519
 20
64.954224
 42
0.371258
  0
VERTEX
  8
0
 10
200.955867
 20
65.446575
 42
0.040234
  0
VERTEX
  8
0
 10
200.875020
 20
66.104362
 42
0.003997
  0
VERTEX
  8
0
 10
200.542436
 20
67.659307
 42
0.005015
  0
VERTEX
  8
0
 10
200.111978
 20
69.508254
 42
0.003962
  0
VERTEX
  8
0
 10
199.610416
 20
71.500000
 42
0.022343
  0
VERTEX
  8
0
 10
198.770480
 20
74.222098
 42
0.071502
  0
VERTEX
  8
0
 10
197.884152
 20
75.896951
 42
0.084169
  0
VERTEX
  8
0
 10
196.647797
 20
77.103894
 42
0.039260
  0
VERTEX
  8
0
 10
194.706079
 20
78.233606
 42
-0.142583
  0
VERTEX
  8
0
 10
191.056430
 20
81.511020
 42
-0.130541
  0
VERTEX
  8
0
 10
189.578995
 20
86.352024
 42
-0.133298
  0
VERTEX
  8
0
 10
190.708670
 20
91.211010
 42
-0.151156
  0
VERTEX
  8
0
 10
194.108417
 20
94.556065
 42
0.022409
  0
VERTEX
  8
0
 10
196.042228
 20
95.668587
 42
0.144382
  0
VERTEX
  8
0
 10
196.775009
 20
96.508906
 42
0.201316
  0
VERTEX
  8
0
 10
196.806447
 20
97.460112
 42
0.050116
  0
VERTEX
  8
0
 10
196.094192
 20
98.881834
 42
0.242740
  0
VERTEX
  8
0
 10
194.527127
 20
99.799894
 42
0.064455
  0
VERTEX
  8
0
 10
191.545875
 20
99.575722
 42
0.058311
  0
VERTEX
  8
0
 10
188.237485
 20
98.478350
 42
0.074408
  0
VERTEX
  8
0
 10
185.562497
 20
96.705427
 42
0.057445
  0
VERTEX
  8
0
 10
184.449326
 20
95.441812
 42
0.017954
  0
VERTEX
  8
0
 10
183.081242
 20
93.314529
 42
0.017680
  0
VERTEX
  8
0
 10
181.712184
 20
90.810023
 42
0.018657
  0
VERTEX
  8
0
 10
180.549627
 20
88.258926
 42
0.000000
  0
VERTEX
  8
0
 10
177.982149
 20
82.017851
 42
0.000000
  0
VERTEX
  8
0
 10
179.991074
 20
80.008926
 42
-0.143881
  0
VERTEX
  8
0
 10
181.803654
 20
76.687844
 42
-0.122947
  0
VERTEX
  8
0
 10
181.680185
 20
72.689432
 42
-0.118322
  0
VERTEX
  8
0
 10
179.668362
 20
69.101916
 42
-0.127024
  0
VERTEX
  8
0
 10
176.293856
 20
66.931966
 42
-0.078147
  0
VERTEX
  8
0
 10
173.097674
 20
66.406988
 42
-0.093695
  0
VERTEX
  8
0
 10
170.102803
 20
66.952034
 42
-0.101262
  0
VERTEX
  8
0
 10
167.686504
 20
68.496391
 42
-0.107685
  0
VERTEX
  8
0
 10
166.134633
 20
70.835786
 42
-0.055827
  0
VERTEX
  8
0
 10
165.110655
 20
74.690726
 42
-0.008399
  0
VERTEX
  8
0
 10
164.061852
 20
82.632829
 42
-0.010160
  0
VERTEX
  8
0
 10
163.261591
 20
91.104920
 42
-0.018360
  0
VERTEX
  8
0
 10
163.002817
 20
98.068499
 42
-0.054836
  0
VERTEX
  8
0
 10
163.972784
 20
106.921104
 42
-0.062244
  0
VERTEX
  8
0
 10
166.842698
 20
114.956899
 42
-0.066944
  0
VERTEX
  8
0
 10
171.360295
 20
121.545574
 42
-0.083185
  0
VERTEX
  8
0
 10
177.175533
 20
126.153506
 42
0.016549
  0
VERTEX
  8
0
 10
178.821421
 20
127.133822
 42
0.024688
  0
VERTEX
  8
0
 10
180.184969
 20
128.106549
 42
0.021981
  0
VERTEX
  8
0
 10
181.186463
 20
128.972546
 42
0.249769
  0
VERTEX
  8
0
 10
181.347766
 20
129.452295
 42
0.180125
  0
VERTEX
  8
0
 10
181.076920
 20
129.923589
 42
0.016544
  0
VERTEX
  8
0
 10
179.992437
 20
130.764714
 42
0.019703
  0
VERTEX
  8
0
 10
178.585881
 20
131.700787
 42
0.014162
  0
VERTEX
  8
0
 10
176.947654
 20
132.637632
 42
0.018985
  0
VERTEX
  8
0
 10
174.846963
 20
133.660649
 42
0.050098
  0
VERTEX
  8
0
 10
173.257947
 20
134.178619
 42
0.072546
  0
VERTEX
  8
0
 10
171.991095
 20
134.267643
 42
0.104557
  0
VERTEX
  8
0
 10
170.915629
 20
133.954846
 42
-0.146440
  0
VERTEX
  8
0
 10
166.486647
 20
133.054354
 42
-0.127052
  0
VERTEX
  8
0
 10
162.009917
 20
134.652962
 42
-0.131584
  0
VERTEX
  8
0
 10
158.974266
 20
138.160515
 42
-0.161623
  0
VERTEX
  8
0
 10
158.410333
 20
142.432016
 42
-0.091023
  0
VERTEX
  8
0
 10
159.433019
 20
145.062830
 42
-0.062581
  0
VERTEX
  8
0
 10
161.443434
 20
147.562709
 42
-0.064494
  0
VERTEX
  8
0
 10
163.917139
 20
149.403294
 42
-0.120900
  0
VERTEX
  8
0
 10
166.305764
 20
150.064999
 42
0.016400
  0
VERTEX
  8
0
 10
167.867834
 20
150.162615
 42
0.000525
  0
VERTEX
  8
0
 10
174.171068
 20
150.771218
 42
0.001014
  0
VERTEX
  8
0
 10
181.603123
 20
151.511901
 42
0.000703
  0
VERTEX
  8
0
 10
190.000000
 20
152.377873
 42
-0.004288
  0
VERTEX
  8
0
 10
205.156447
 20
153.831240
 42
-0.025771
  0
VERTEX
  8
0
 10
213.066761
 20
154.112112
 42
-0.044054
  0
VERTEX
  8
0
 10
218.982177
 20
153.494145
 42
-0.030482
  0
SEQEND
  0
POLYLINE
  8
0
 66
1
 70
1
  0
VERTEX
  8
0
 10
191.194949
 20
258.500000
 42
0.012823
  0
VERTEX
  8
0
 10
191.235556
 20
257.431793
 42
0.080377
  0
VERTEX
  8
0
 10
191.356533
 20
256.900903
 42
0.597527
  0
VERTEX
  8
0
 10
191.516660
 20
256.883358
 42
0.087174
  0
VERTEX
  8
0
 10
191.692991
 20
257.269032
 42
0.037336
  0
VERTEX
  8
0
 10
191.832894
 20
258.036634
 42
0.029507
  0
VERTEX
  8
0
 10
191.872264
 20
258.880008
 42
0.030339
  0
VERTEX
  8
0
 10
191.814405
 20
259.671085
 42
0.062780
  0
VERTEX
  8
0
 10
191.655937
 20
260.269032
 42
0.313180
  0
VERTEX
  8
0
 10
191.477130
 20
260.386009
 42
0.333666
  0
VERTEX
  8
0
 10
191.315079
 20
260.257153
 42
0.052471
  0
VERTEX
  8
0
 10
191.212705
 20
259.580113
 42
0.014395
  0
SEQEND
  0
POLYLINE
  8
0
 66
1
 70
1
  0
VERTEX
  8
0
 10
192.615731
 20
248.500000
 42
0.010061
  0
VERTEX
  8
0
 10
192.890654
 20
245.755235
 42
0.013797
  0
VERTEX
  8
0
 10
193.255507
 20
243.300369
 42
0.010494
  0
VERTEX
  8
0
 10
193.654481
 20
241.292226
 42
0.137438
  0
VERTEX
  8
0
 10
194.008519
 20
240.628916
 42
0.682713
  0
VERTEX
  8
0
 10
194.485006
 20
240.825171
 42
0.019559
  0
VERTEX
  8
0
 10
194.310795
 20
243.873890
 42
0.018926
  0
VERTEX
  8
0
 10
193.769832
 20
247.885477
 42
0.016909
  0
VERTEX
  8
0
 10
192.911314
 20
252.000000
 42
0.035547
  0
VERTEX
  8
0
 10
192.573404
 20
253.052780
 42
0.790503
  0
VERTEX
  8
0
 10
192.389822
 20
253.025279
 42
0.037693
  0
VERTEX
  8
0
 10
192.378397
 20
251.741851
 42
0.003314
  0
SEQEND
  0
POLYLINE
  8
0
 66
1
 70
1
  0
VERTEX
  8
0
 10
195.078947
 20
227.416667
 42
0.018894
  0
VERTEX
  8
0
 10
195.137993
 20
226.670344
 42
0.168741
  0
VERTEX
  8
0
 10
195.279315
 20
226.378580
 42
0.470617
  0
VERTEX
  8
0
 10
195.461564
 20
226.395823
 42
0.054073
  0
VERTEX
  8
0
 10
195.683114
 20
226.812500
 42
0.051402
  0
VERTEX
  8
0
 10
195.839148
 20
227.359369
 42
0.054150
  0
VERTEX
  8
0
 10
195.876576
 20
227.916927
 42
0.060344
  0
VERTEX
  8
0
 10
195.797407
 20
228.402231
 42
0.126455
  0
VERTEX
  8
0
 10
195.604167
 20
228.729167
 42
0.296942
  0
VERTEX
  8
0
 10
195.385309
 20
228.775380
 42
0.208169
  0
VERTEX
  8
0
 10
195.200665
 20
228.592839
 42
0.077125
  0
VERTEX
  8
0
 10
195.089945
 20
228.112848
 42
0.028489
  0
SEQEND
  0
POLYLINE
  8
0
 66
1
 70
1
  0
VERTEX
  8
0
 10
171.000000
 20
243.091592
 42
0.000000
  0
VERTEX
  8
0
 10
171.000000
 20
232.783184
 42
0.000000
  0
VERTEX
  8
0
 10
173.747950
 20
233.472876
 42
0.004632
  0
VERTEX
  8
0
 10
174.814973
 20
233.751214
 42
0.006836
  0
VERTEX
  8
0
 10
175.745646
 20
234.016926
 42
0.003477
  0
VERTEX
  8
0
 10
176.526655
 20
234.257437
 42
0.120506
  0
VERTEX
  8
0
 10
176.689793
 20
234.356459
 42
0.266402
  0
VERTEX
  8
0
 10
176.890405
 20
235.096595
 42
0.001196
  0
VERTEX
  8
0
 10
174.737670
 20
243.240899
 42
0.002185
  0
VERTEX
  8
0
 10
172.603261
 20
251.100374
 42
0.117203
  0
VERTEX
  8
0
 10
171.860889
 20
252.450000
 42
0.631861
  0
VERTEX
  8
0
 10
171.514899
 20
252.345821
 42
0.014891
  0
VERTEX
  8
0
 10
171.247839
 20
250.158849
 42
0.015464
  0
VERTEX
  8
0
 10
171.059338
 20
247.062714
 42
0.007471
  0
SEQEND
  0
POLYLINE
  8
0
 66
1
 70
1
  0
VERTEX
  8
0
 10
92.078947
 20
214.389571
 42
-0.007821
  0
VERTEX
  8
0
 10
92.002425
 20
211.711059
 42
-0.005553
  0
VERTEX
  8
0
 10
91.836298
 20
208.710547
 42
-0.005607
  0
VERTEX
  8
0
 10
91.613711
 20
205.849052
 42
-0.011844
  0
VERTEX
  8
0
 10
91.363768
 20
203.637325
 42
0.000000
  0
VERTEX
  8
0
 10
90.727536
 20
198.995507
 42
0.000000
  0
VERTEX
  8
0
 10
94.113768
 20
199.641394
 42
0.002005
  0
VERTEX
  8
0
 10
95.423373
 20
199.896635
 42
0.003096
  0
VERTEX
  8
0
 10
96.553043
 20
200.128795
 42
0.000997
  0
VERTEX
  8
0
 10
97.528619
 20
200.337624
 42
0.091892
  0
VERTEX
  8
0
 10
97.662549
 20
200.393640
 42
0.323192
  0
VERTEX
  8
0
 10
97.762739
 20
200.654897
 42
0.000175
  0
VERTEX
  8
0
 10
95.454722
 20
209.353900
 42
0.001157
  0
VERTEX
  8
0
 10
93.313757
 20
217.337423
 42
0.031771
  0
VERTEX
  8
0
 10
92.614264
 20
219.394049
 42
0.732773
  0
VERTEX
  8
0
 10
92.433603
 20
219.378595
 42
0.028540
  0
VERTEX
  8
0
 10
92.268763
 20
218.380188
 42
0.016205
  0
VERTEX
  8
0
 10
92.141056
 20
216.661214
 42
0.007208
  0
SEQEND
  0
POLYLINE
  8
0
 66
1
 70
1
  0
VERTEX
  8
0
 10
189.500000
 20
148.121291
 42
0.000000
  0
VERTEX
  8
0
 10
174.500000
 20
146.500000
 42
0.000000
  0
VERTEX
  8
0
 10
174.829471
 20
143.000000
 42
0.050811
  0
VERTEX
  8
0
 10
175.371141
 20
140.263169
 42
0.114441
  0
VERTEX
  8
0
 10
176.424728
 20
138.443438
 42
0.070708
  0
VERTEX
  8
0
 10
178.501560
 20
136.774587
 42
0.011143
  0
VERTEX
  8
0
 10
183.077570
 20
134.194251
 42
0.020872
  0
VERTEX
  8
0
 10
186.088430
 20
132.742002
 42
0.036435
  0
VERTEX
  8
0
 10
188.703739
 20
131.832018
 42
0.037842
  0
VERTEX
  8
0
 10
191.353525
 20
131.332413
 42
0.024696
  0
VERTEX
  8
0
 10
194.460732
 20
131.141620
 42
-0.021766
  0
VERTEX
  8
0
 10
197.035982
 20
130.998625
 42
-0.014301
  0
VERTEX
  8
0
 10
199.981823
 20
130.620700
 42
-0.014397
  0
VERTEX
  8
0
 10
202.833722
 20
130.087042
 42
-0.026733
  0
VERTEX
  8
0
 10
205.103401
 20
129.465656
 42
-0.065111
  0
VERTEX
  8
0
 10
209.868226
 20
127.159742
 42
-0.037405
  0
VERTEX
  8
0
 10
214.934387
 20
123.263985
 42
-0.035991
  0
VERTEX
  8
0
 10
219.638849
 20
118.398120
 42
-0.041967
  0
VERTEX
  8
0
 10
223.335665
 20
113.139071
 42
0.006372
  0
VERTEX
  8
0
 10
224.630226
 20
110.987020
 42
0.010349
  0
VERTEX
  8
0
 10
225.790468
 20
109.196641
 42
0.004325
  0
VERTEX
  8
0
 10
226.807299
 20
107.724116
 42
0.326563
  0
VERTEX
  8
0
 10
227.065356
 20
107.636730
 42
-0.056520
  0
VERTEX
  8
0
 10
227.410413
 20
107.703756
 42
-0.000356
  0
VERTEX
  8
0
 10
230.553429
 20
107.950120
 42
-0.001444
  0
VERTEX
  8
0
 10
234.146938
 20
108.218782
 42
-0.000920
  0
VERTEX
  8
0
 10
238.329297
 20
108.511586
 42
0.007340
  0
VERTEX
  8
0
 10
243.148269
 20
108.911193
 42
0.019428
  0
VERTEX
  8
0
 10
246.574597
 20
109.380994
 42
0.020171
  0
VERTEX
  8
0
 10
248.962136
 20
109.903506
 42
0.241698
  0
VERTEX
  8
0
 10
249.643513
 20
110.513392
 42
0.131512
  0
VERTEX
  8
0
 10
249.900281
 20
112.952530
 42
0.013793
  0
VERTEX
  8
0
 10
248.839030
 20
118.647835
 42
0.018087
  0
VERTEX
  8
0
 10
247.374987
 20
124.430181
 42
0.046206
  0
VERTEX
  8
0
 10
245.787449
 20
128.445627
 42
0.067990
  0
VERTEX
  8
0
 10
239.543320
 20
137.482838
 42
0.071086
  0
VERTEX
  8
0
 10
231.187892
 20
144.357478
 42
0.071601
  0
VERTEX
  8
0
 10
221.297917
 20
148.580717
 42
0.070574
  0
VERTEX
  8
0
 10
210.568499
 20
149.871291
 42
0.012385
  0
VERTEX
  8
0
 10
207.280144
 20
149.720004
 42
0.003032
  0
VERTEX
  8
0
 10
201.876372
 20
149.304135
 42
0.003104
  0
VERTEX
  8
0
 10
195.687843
 20
148.751392
 42
0.003095
  0
SEQEND
  0
POLYLINE
  8
0
 66
1
 70
1
  0
VERTEX
  8
0
 10
224.002260
 20
143.382419
 42
-0.012706
  0
VERTEX
  8
0
 10
226.727945
 20
142.210624
 42
-0.131541
  0
VERTEX
  8
0
 10
227.659860
 20
141.436753
 42
-0.246401
  0
VERTEX
  8
0
 10
227.781339
 20
140.528969
 42
-0.053556
  0
VERTEX
  8
0
 10
227.060639
 20
139.063876
 42
-0.118730
  0
VERTEX
  8
0
 10
226.388717
 20
138.411975
 42
-0.157002
  0
VERTEX
  8
0
 10
225.562140
 20
138.225001
 42
-0.072411
  0
VERTEX
  8
0
 10
224.305619
 20
138.523946
 42
-0.011373
  0
VERTEX
  8
0
 10
221.957198
 20
139.519301
 42
0.044122
  0
VERTEX
  8
0
 10
218.376972
 20
140.767449
 42
0.048538
  0
VERTEX
  8
0
 10
214.746358
 20
141.317130
 42
0.029559
  0
VERTEX
  8
0
 10
209.813566
 20
141.288319
 42
0.006286
  0
VERTEX
  8
0
 10
201.250000
 20
140.623206
 42
-0.003477
  0
VERTEX
  8
0
 10
195.367606
 20
140.133074
 42
-0.050950
  0
VERTEX
  8
0
 10
193.290961
 20
140.186321
 42
-0.200712
  0
VERTEX
  8
0
 10
192.367586
 20
140.719442
 42
-0.164210
  0
VERTEX
  8
0
 10
192.000000
 20
141.808518
 42
-0.157669
  0
VERTEX
  8
0
 10
192.355541
 20
142.907984
 42
-0.154291
  0
VERTEX
  8
0
 10
193.290306
 20
143.602655
 42
-0.055545
  0
VERTEX
  8
0
 10
195.262375
 20
144.047710
 42
-0.006534
  0
VERTEX
  8
0
 10
199.750000
 20
144.488539
 42
0.003779
  0
VERTEX
  8
0
 10
202.791570
 20
144.770408
 42
0.005216
  0
VERTEX
  8
0
 10
205.517187
 20
145.072539
 42
0.003370
  0
VERTEX
  8
0
 10
207.797774
 20
145.365059
 42
0.062330
  0
VERTEX
  8
0
 10
208.500000
 20
145.550970
 42
-0.116646
  0
VERTEX
  8
0
 10
210.676071
 20
145.882221
 42
-0.014452
  0
VERTEX
  8
0
 10
215.474022
 20
145.351912
 42
-0.018141
  0
VERTEX
  8
0
 10
220.412704
 20
144.477379
 42
-0.042293
  0
SEQEND
  0
POLYLINE
  8
0
 66
1
 70
1
  0
VERTEX
  8
0
 10
188.000000
 20
141.000000
 42
-0.072254
  0
VERTEX
  8
0
 10
187.873159
 20
140.126841
 42
-0.124864
  0
VERTEX
  8
0
 10
187.500000
 20
139.500000
 42
-0.124864
  0
VERTEX
  8
0
 10
186.873159
 20
139.126841
 42
-0.072254
  0
VERTEX
  8
0
 10
186.000000
 20
139.000000
 42
-0.072254
  0
VERTEX
  8
0
 10
185.126841
 20
139.126841
 42
-0.124864
  0
VERTEX
  8
0
 10
184.500000
 20
139.500000
 42
-0.124864
  0
VERTEX
  8
0
 10
184.126841
 20
140.126841
 42
-0.072254
  0
VERTEX
  8
0
 10
184.000000
 20
141.000000
 42
-0.072254
  0
VERTEX
  8
0
 10
184.126841
 20
141.873159
 42
-0.124864
  0
VERTEX
  8
0
 10
184.500000
 20
142.500000
 42
-0.124864
  0
VERTEX
  8
0
 10
185.126841
 20
142.873159
 42
-0.072254
  0
VERTEX
  8
0
 10
186.000000
 20
143.000000
 42
-0.072254
  0
VERTEX
  8
0
 10
186.873159
 20
142.873159
 42
-0.124864
  0
VERTEX
  8
0
 10
187.500000
 20
142.500000
 42
-0.124864
  0
VERTEX
  8
0
 10
187.873159
 20
141.873159
 42
-0.072254
  0
SEQEND
  0
POLYLINE
  8
0
 66
1
 70
1
  0
VERTEX
  8
0
 10
163.604263
 20
143.845394
 42
0.107100
  0
VERTEX
  8
0
 10
162.800706
 20
141.932150
 42
0.142420
  0
VERTEX
  8
0
 10
162.985655
 20
140.064359
 42
0.133158
  0
VERTEX
  8
0
 10
164.167506
 20
138.498024
 42
0.088306
  0
VERTEX
  8
0
 10
166.172743
 20
137.445173
 42
0.216792
  0
VERTEX
  8
0
 10
168.743072
 20
137.754179
 42
0.165718
  0
VERTEX
  8
0
 10
170.580234
 20
139.954372
 42
0.159881
  0
VERTEX
  8
0
 10
170.727254
 20
142.881112
 42
0.205968
  0
VERTEX
  8
0
 10
169.065741
 20
144.964816
 42
0.038069
  0
VERTEX
  8
0
 10
167.205544
 20
145.785053
 42
0.136172
  0
VERTEX
  8
0
 10
165.920954
 20
145.873203
 42
0.145093
  0
VERTEX
  8
0
 10
164.822352
 20
145.286739
 42
0.045348
  0
SEQEND
  0
POLYLINE
  8
0
 66
1
 70
1
  0
VERTEX
  8
0
 10
253.500000
 20
133.259454
 42
0.025918
  0
VERTEX
  8
0
 10
250.769929
 20
132.597370
 42
0.239036
  0
VERTEX
  8
0
 10
249.913195
 20
131.784693
 42
0.167560
  0
VERTEX
  8
0
 10
249.898967
 20
130.427145
 42
0.011862
  0
VERTEX
  8
0
 10
251.200162
 20
126.809566
 42
-0.019533
  0
VERTEX
  8
0
 10
252.032249
 20
124.379819
 42
-0.011890
  0
VERTEX
  8
0
 10
252.833380
 20
121.452138
 42
-0.011909
  0
VERTEX
  8
0
 10
253.490438
 20
118.507027
 42
-0.020574
  0
VERTEX
  8
0
 10
253.876722
 20
116.027499
 42
0.000000
  0
VERTEX
  8
0
 10
254.500000
 20
110.554999
 42
0.000000
  0
VERTEX
  8
0
 10
260.139607
 20
110.464842
 42
-0.046968
  0
VERTEX
  8
0
 10
264.867934
 20
109.943323
 42
-0.092132
  0
VERTEX
  8
0
 10
268.361318
 20
108.517688
 42
-0.072976
  0
VERTEX
  8
0
 10
271.607670
 20
105.688146
 42
-0.021149
  0
VERTEX
  8
0
 10
275.723120
 20
100.449637
 42
0.011241
  0
VERTEX
  8
0
 10
278.214378
 20
97.145872
 42
0.044428
  0
VERTEX
  8
0
 10
279.961605
 20
95.297878
 42
0.075797
  0
VERTEX
  8
0
 10
281.457073
 20
94.332319
 42
0.105896
  0
VERTEX
  8
0
 10
283.008560
 20
94.000000
 42
0.000000
  0
VERTEX
  8
0
 10
285.654240
 20
94.000000
 42
0.000000
  0
VERTEX
  8
0
 10
284.477679
 20
103.750000
 42
0.012274
  0
VERTEX
  8
0
 10
283.787252
 20
108.490132
 42
0.020460
  0
VERTEX
  8
0
 10
282.946181
 20
112.434276
 42
0.023881
  0
VERTEX
  8
0
 10
281.910494
 20
115.797077
 42
0.030902
  0
VERTEX
  8
0
 10
280.628965
 20
118.759370
 42
0.085319
  0
VERTEX
  8
0
 10
275.855579
 20
125.166343
 42
0.067453
  0
VERTEX
  8
0
 10
268.839284
 20
130.234430
 42
0.069069
  0
VERTEX
  8
0
 10
260.918327
 20
133.152184
 42
0.100616
  0
SEQEND
  0
POLYLINE
  8
0
 66
1
 70
1
  0
VERTEX
  8
0
 10
261.264432
 20
128.402234
 42
-0.218130
  0
VERTEX
  8
0
 10
261.622132
 20
127.439877
 42
-0.134568
  0
VERTEX
  8
0
 10
261.210771
 20
126.281376
 42
-0.111911
  0
VERTEX
  8
0
 10
260.177014
 20
125.339019
 42
-0.129792
  0
VERTEX
  8
0
 10
258.893011
 20
125.000000
 42
-0.081193
  0
VERTEX
  8
0
 10
258.084583
 20
125.132149
 42
-0.122815
  0
VERTEX
  8
0
 10
257.486626
 20
125.514129
 42
-0.118272
  0
VERTEX
  8
0
 10
257.123622
 20
126.144510
 42
-0.071879
  0
VERTEX
  8
0
 10
257.000000
 20
127.000000
 42
-0.179370
  0
VERTEX
  8
0
 10
257.437844
 20
128.181235
 42
-0.136636
  0
VERTEX
  8
0
 10
258.594131
 20
128.954220
 42
-0.127624
  0
VERTEX
  8
0
 10
260.048689
 20
129.047160
 42
-0.149942
  0
SEQEND
  0
POLYLINE
  8
0
 66
1
 70
1
  0
VERTEX
  8
0
 10
270.214531
 20
124.847241
 42
-0.063825
  0
VERTEX
  8
0
 10
273.194348
 20
122.092031
 42
-0.035106
  0
VERTEX
  8
0
 10
276.112098
 20
118.063937
 42
-0.034666
  0
VERTEX
  8
0
 10
278.333366
 20
113.873242
 42
-0.104905
  0
VERTEX
  8
0
 10
279.000000
 20
110.730895
 42
-0.115588
  0
VERTEX
  8
0
 10
278.517698
 20
108.672469
 42
-0.355462
  0
VERTEX
  8
0
 10
277.305384
 20
108.120255
 42
-0.200805
  0
VERTEX
  8
0
 10
275.817646
 20
109.255897
 42
-0.067333
  0
VERTEX
  8
0
 10
274.762034
 20
111.838533
 42
0.064829
  0
VERTEX
  8
0
 10
274.117894
 20
113.437195
 42
0.024227
  0
VERTEX
  8
0
 10
272.828439
 20
115.489594
 42
0.023272
  0
VERTEX
  8
0
 10
271.172372
 20
117.641456
 42
0.024303
  0
VERTEX
  8
0
 10
269.346007
 20
119.597773
 42
-0.017374
  0
VERTEX
  8
0
 10
267.472757
 20
121.549404
 42
-0.034438
  0
VERTEX
  8
0
 10
266.155818
 20
123.241661
 42
-0.042821
  0
VERTEX
  8
0
 10
265.390193
 20
124.620503
 42
-0.199509
  0
VERTEX
  8
0
 10
265.365759
 20
125.510769
 42
-0.080473
  0
VERTEX
  8
0
 10
265.988804
 20
126.581470
 42
-0.260458
  0
VERTEX
  8
0
 10
266.727653
 20
126.871103
 42
-0.110082
  0
VERTEX
  8
0
 10
267.845741
 20
126.456263
 42
-0.011053
  0
SEQEND
  0
POLYLINE
  8
0
 66
1
 70
1
  0
VERTEX
  8
0
 10
186.143751
 20
125.853688
 42
0.067487
  0
VERTEX
  8
0
 10
180.425842
 20
123.334452
 42
0.062154
  0
VERTEX
  8
0
 10
175.405717
 20
119.325138
 42
0.059289
  0
VERTEX
  8
0
 10
171.330047
 20
114.011353
 42
0.051910
  0
VERTEX
  8
0
 10
168.396931
 20
107.651529
 42
0.072271
  0
VERTEX
  8
0
 10
167.266680
 20
101.581917
 42
0.022692
  0
VERTEX
  8
0
 10
167.318203
 20
92.316665
 42
0.015602
  0
VERTEX
  8
0
 10
168.050416
 20
83.422443
 42
0.490434
  0
VERTEX
  8
0
 10
169.682671
 20
82.431724
 42
-0.024065
  0
VERTEX
  8
0
 10
170.343369
 20
82.649416
 42
-0.016851
  0
VERTEX
  8
0
 10
171.105494
 20
82.833069
 42
-0.017046
  0
VERTEX
  8
0
 10
171.849263
 20
82.959731
 42
-0.033660
  0
VERTEX
  8
0
 10
172.446757
 20
83.000000
 42
0.244605
  0
VERTEX
  8
0
 10
173.100629
 20
83.340238
 42
0.016061
  0
VERTEX
  8
0
 10
174.303289
 20
85.179512
 42
0.020371
  0
VERTEX
  8
0
 10
175.632292
 20
87.576563
 42
0.013587
  0
VERTEX
  8
0
 10
176.964951
 20
90.419614
 42
-0.019119
  0
VERTEX
  8
0
 10
179.423479
 20
95.517084
 42
-0.048551
  0
VERTEX
  8
0
 10
181.689176
 20
98.940440
 42
-0.064789
  0
VERTEX
  8
0
 10
184.119564
 20
101.249124
 42
-0.067170
  0
VERTEX
  8
0
 10
187.031669
 20
102.825627
 42
-0.054471
  0
VERTEX
  8
0
 10
188.715918
 20
103.261457
 42
-0.004483
  0
VERTEX
  8
0
 10
193.216608
 20
103.874664
 42
-0.005962
  0
VERTEX
  8
0
 10
198.614167
 20
104.495531
 42
-0.004558
  0
VERTEX
  8
0
 10
204.531669
 20
105.050342
 42
0.004515
  0
VERTEX
  8
0
 10
210.334217
 20
105.593874
 42
0.006833
  0
VERTEX
  8
0
 10
215.371802
 20
106.181351
 42
0.003043
  0
VERTEX
  8
0
 10
219.637893
 20
106.764469
 42
0.146219
  0
VERTEX
  8
0
 10
220.414891
 20
107.122993
 42
0.359666
  0
VERTEX
  8
0
 10
220.661260
 20
108.673448
 42
0.016628
  0
VERTEX
  8
0
 10
217.587828
 20
113.508880
 42
0.025208
  0
VERTEX
  8
0
 10
213.940060
 20
118.308781
 42
0.054789
  0
VERTEX
  8
0
 10
210.592853
 20
121.496975
 42
0.065957
  0
VERTEX
  8
0
 10
205.292266
 20
124.531039
 42
0.053002
  0
VERTEX
  8
0
 10
198.976615
 20
126.362526
 42
0.052526
  0
VERTEX
  8
0
 10
192.353833
 20
126.836117
 42
0.061743
  0
SEQEND
  0
POLYLINE
  8
0
 66
1
 70
1
  0
VERTEX
  8
0
 10
190.000000
 20
120.106989
 42
-0.132046
  0
VERTEX
  8
0
 10
189.582255
 20
118.552752
 42
-0.189831
  0
VERTEX
  8
0
 10
188.477900
 20
117.677009
 42
-0.201903
  0
VERTEX
  8
0
 10
187.128317
 20
117.816775
 42
-0.145452
  0
VERTEX
  8
0
 10
186.050438
 20
118.905756
 42
-0.066665
  0
VERTEX
  8
0
 10
185.531065
 20
120.292891
 42
-0.209221
  0
VERTEX
  8
0
 10
185.712290
 20
121.248790
 42
-0.190216
  0
VERTEX
  8
0
 10
186.561368
 20
121.823465
 42
-0.054820
  0
VERTEX
  8
0
 10
188.166667
 20
122.000000
 42
-0.086162
  0
VERTEX
  8
0
 10
188.923459
 20
121.868611
 42
-0.114905
  0
VERTEX
  8
0
 10
189.507881
 20
121.491862
 42
-0.112613
  0
VERTEX
  8
0
 10
189.873476
 20
120.888958
 42
-0.080378
  0
SEQEND
  0
POLYLINE
  8
0
 66
1
 70
1
  0
VERTEX
  8
0
 10
182.351236
 20
116.527078
 42
-0.144795
  0
VERTEX
  8
0
 10
182.410994
 20
115.770460
 42
-0.045209
  0
VERTEX
  8
0
 10
182.071956
 20
114.671060
 42
-0.040894
  0
VERTEX
  8
0
 10
181.449016
 20
113.448447
 42
-0.035213
  0
VERTEX
  8
0
 10
180.606793
 20
112.277078
 42
0.022254
  0
VERTEX
  8
0
 10
178.487687
 20
109.485275
 42
0.040411
  0
VERTEX
  8
0
 10
177.054830
 20
107.005724
 42
0.045449
  0
VERTEX
  8
0
 10
176.148616
 20
104.541326
 42
0.038523
  0
VERTEX
  8
0
 10
175.639337
 20
101.812873
 42
-0.032849
  0
VERTEX
  8
0
 10
175.357598
 20
100.202490
 42
-0.091160
  0
VERTEX
  8
0
 10
174.890055
 20
99.157469
 42
-0.121091
  0
VERTEX
  8
0
 10
174.173068
 20
98.519327
 42
-0.084728
  0
VERTEX
  8
0
 10
173.140872
 20
98.180449
 42
-0.181062
  0
VERTEX
  8
0
 10
171.724659
 20
98.482414
 42
-0.232650
  0
VERTEX
  8
0
 10
171.043133
 20
99.605794
 42
-0.081548
  0
VERTEX
  8
0
 10
171.220482
 20
101.979002
 42
-0.013753
  0
VERTEX
  8
0
 10
172.415702
 20
106.386157
 42
-0.048896
  0
VERTEX
  8
0
 10
174.661231
 20
111.848263
 42
-0.071976
  0
VERTEX
  8
0
 10
177.719028
 20
116.029232
 42
-0.147709
  0
VERTEX
  8
0
 10
180.477966
 20
117.544808
 42
-0.368836
  0
SEQEND
  0
POLYLINE
  8
0
 66
1
 70
1
  0
VERTEX
  8
0
 10
221.000000
 20
102.620205
 42
0.004294
  0
VERTEX
  8
0
 10
212.956705
 20
101.718451
 42
0.007756
  0
VERTEX
  8
0
 10
206.388372
 20
100.821308
 42
0.002529
  0
VERTEX
  8
0
 10
200.906800
 20
99.957407
 42
0.376006
  0
VERTEX
  8
0
 10
200.529195
 20
99.500000
 42
0.014622
  0
VERTEX
  8
0
 10
200.569609
 20
98.809121
 42
0.000662
  0
VERTEX
  8
0
 10
200.780676
 20
96.443750
 42
0.001108
  0
VERTEX
  8
0
 10
201.041106
 20
93.637456
 42
0.000793
  0
VERTEX
  8
0
 10
201.344304
 20
90.500000
 42
0.012747
  0
VERTEX
  8
0
 10
203.019537
 20
76.995319
 42
0.048923
  0
VERTEX
  8
0
 10
205.084784
 20
68.793635
 42
0.075310
  0
VERTEX
  8
0
 10
208.162049
 20
63.090243
 42
0.066954
  0
VERTEX
  8
0
 10
212.899610
 20
58.290030
 42
0.113433
  0
VERTEX
  8
0
 10
223.159927
 20
53.555125
 42
0.115810
  0
VERTEX
  8
0
 10
234.375448
 20
53.825883
 42
0.115628
  0
VERTEX
  8
0
 10
244.312063
 20
59.061833
 42
0.112811
  0
VERTEX
  8
0
 10
250.994771
 20
68.209482
 42
0.058870
  0
VERTEX
  8
0
 10
252.345891
 20
72.759535
 42
0.039723
  0
VERTEX
  8
0
 10
252.842021
 20
78.158007
 42
0.023602
  0
VERTEX
  8
0
 10
252.572489
 20
85.865961
 42
0.005510
  0
VERTEX
  8
0
 10
251.368626
 20
98.750000
 42
0.000000
  0
VERTEX
  8
0
 10
250.715087
 20
105.000000
 42
0.000000
  0
VERTEX
  8
0
 10
246.107544
 20
104.870205
 42
0.013744
  0
VERTEX
  8
0
 10
243.259474
 20
104.711549
 42
0.001560
  0
VERTEX
  8
0
 10
236.831591
 20
104.155727
 42
0.001887
  0
VERTEX
  8
0
 10
229.186985
 20
103.441568
 42
0.001534
  0
SEQEND
  0
POLYLINE
  8
0
 66
1
 70
1
  0
VERTEX
  8
0
 10
241.000000
 20
98.122445
 42
0.115146
  0
VERTEX
  8
0
 10
241.368335
 20
96.544220
 42
0.089374
  0
VERTEX
  8
0
 10
242.420356
 20
95.121880
 42
0.105069
  0
VERTEX
  8
0
 10
243.746070
 20
94.315785
 42
0.226382
  0
VERTEX
  8
0
 10
244.906022
 20
94.441918
 42
-0.196211
  0
VERTEX
  8
0
 10
245.368940
 20
94.519512
 42
-0.095010
  0
VERTEX
  8
0
 10
245.928930
 20
94.275539
 42
-0.071374
  0
VERTEX
  8
0
 10
246.501366
 20
93.749872
 42
-0.048553
  0
VERTEX
  8
0
 10
246.992951
 20
93.013172
 42
-0.028924
  0
VERTEX
  8
0
 10
247.487166
 20
91.945620
 42
-0.138839
  0
VERTEX
  8
0
 10
247.553308
 20
91.285205
 42
-0.202930
  0
VERTEX
  8
0
 10
247.256855
 20
90.829264
 42
-0.072436
  0
VERTEX
  8
0
 10
246.543124
 20
90.485163
 42
-0.000140
  0
VERTEX
  8
0
 10
245.843623
 20
90.265453
 42
-0.000084
  0
VERTEX
  8
0
 10
245.012668
 20
90.004861
 42
-0.000084
  0
VERTEX
  8
0
 10
244.185804
 20
89.745857
 42
-0.000146
  0
VERTEX
  8
0
 10
243.500000
 20
89.531385
 42
0.141259
  0
VERTEX
  8
0
 10
242.891471
 20
89.129676
 42
0.075588
  0
VERTEX
  8
0
 10
242.412353
 20
88.358259
 42
0.060751
  0
VERTEX
  8
0
 10
242.102759
 20
87.295784
 42
0.040569
  0
VERTEX
  8
0
 10
242.000000
 20
86.031385
 42
-0.106965
  0
VERTEX
  8
0
 10
241.495729
 20
83.701173
 42
-0.292254
  0
VERTEX
  8
0
 10
240.143991
 20
82.823483
 42
-0.255768
  0
VERTEX
  8
0
 10
238.607413
 20
83.650167
 42
-0.095038
  0
VERTEX
  8
0
 10
237.650000
 20
86.000000
 42
0.036730
  0
VERTEX
  8
0
 10
237.205884
 20
87.599583
 42
0.134606
  0
VERTEX
  8
0
 10
236.607421
 20
88.452479
 42
0.135930
  0
VERTEX
  8
0
 10
235.661293
 20
88.876282
 42
0.037751
  0
VERTEX
  8
0
 10
234.025000
 20
89.000000
 42
-0.030186
  0
VERTEX
  8
0
 10
232.508018
 20
89.091666
 42
-0.116389
  0
VERTEX
  8
0
 10
231.628125
 20
89.415289
 42
-0.166844
  0
VERTEX
  8
0
 10
231.160330
 20
90.023072
 42
-0.081513
  0
VERTEX
  8
0
 10
231.000000
 20
91.000000
 42
-0.074827
  0
VERTEX
  8
0
 10
231.139099
 20
91.924261
 42
-0.144971
  0
VERTEX
  8
0
 10
231.549126
 20
92.541058
 42
-0.125450
  0
VERTEX
  8
0
 10
232.277354
 20
92.889762
 42
-0.049285
  0
VERTEX
  8
0
 10
233.393011
 20
93.000000
 42
0.114303
  0
VERTEX
  8
0
 10
234.979039
 20
93.367377
 42
0.119220
  0
VERTEX
  8
0
 10
236.213705
 20
94.391711
 42
0.135053
  0
VERTEX
  8
0
 10
236.748359
 20
95.760265
 42
0.165879
  0
VERTEX
  8
0
 10
236.444227
 20
97.090242
 42
-0.161783
  0
VERTEX
  8
0
 10
236.201798
 20
98.112781
 42
-0.162420
  0
VERTEX
  8
0
 10
236.620117
 20
99.075176
 42
-0.126441
  0
VERTEX
  8
0
 10
237.651471
 20
99.761539
 42
-0.084109
  0
VERTEX
  8
0
 10
239.059017
 20
100.000000
 42
-0.076467
  0
VERTEX
  8
0
 10
239.876794
 20
99.874199
 42
-0.116400
  0
VERTEX
  8
0
 10
240.491554
 20
99.508170
 42
-0.118988
  0
VERTEX
  8
0
 10
240.869090
 20
98.912819
 42
-0.082255
  0
SEQEND
  0
POLYLINE
  8
0
 66
1
 70
1
  0
VERTEX
  8
0
 10
216.161125
 20
94.500000
 42
0.095663
  0
VERTEX
  8
0
 10
216.519241
 20
93.567129
 42
0.110949
  0
VERTEX
  8
0
 10
217.185712
 20
92.891098
 42
0.083967
  0
VERTEX
  8
0
 10
218.235221
 20
92.442434
 42
0.035035
  0
VERTEX
  8
0
 10
219.758189
 20
92.186642
 42
-0.091125
  0
VERTEX
  8
0
 10
222.208883
 20
91.486947
 42
-0.270762
  0
VERTEX
  8
0
 10
223.133145
 20
90.082649
 42
-0.271844
  0
VERTEX
  8
0
 10
222.362201
 20
88.593117
 42
-0.091487
  0
VERTEX
  8
0
 10
220.000000
 20
87.650000
 42
0.036730
  0
VERTEX
  8
0
 10
218.400417
 20
87.205884
 42
0.134606
  0
VERTEX
  8
0
 10
217.547521
 20
86.607421
 42
0.135930
  0
VERTEX
  8
0
 10
217.123718
 20
85.661293
 42
0.037751
  0
VERTEX
  8
0
 10
217.000000
 20
84.025000
 42
-0.030186
  0
VERTEX
  8
0
 10
216.908334
 20
82.508018
 42
-0.116389
  0
VERTEX
  8
0
 10
216.584711
 20
81.628125
 42
-0.166844
  0
VERTEX
  8
0
 10
215.976928
 20
81.160330
 42
-0.081513
  0
VERTEX
  8
0
 10
215.000000
 20
81.000000
 42
-0.071699
  0
VERTEX
  8
0
 10
214.161565
 20
81.120851
 42
-0.112093
  0
VERTEX
  8
0
 10
213.527778
 20
81.475000
 42
-0.120036
  0
VERTEX
  8
0
 10
213.137008
 20
82.047348
 42
-0.090275
  0
VERTEX
  8
0
 10
213.000000
 20
82.800000
 42
0.102086
  0
VERTEX
  8
0
 10
212.652942
 20
84.482113
 42
0.111020
  0
VERTEX
  8
0
 10
211.672649
 20
85.832077
 42
0.103152
  0
VERTEX
  8
0
 10
210.142223
 20
86.700260
 42
0.077765
  0
VERTEX
  8
0
 10
208.226676
 20
87.000000
 42
-0.154235
  0
VERTEX
  8
0
 10
206.629174
 20
87.504790
 42
-0.295605
  0
VERTEX
  8
0
 10
206.145753
 20
88.701760
 42
-0.190630
  0
VERTEX
  8
0
 10
207.051030
 20
90.121166
 42
-0.096521
  0
VERTEX
  8
0
 10
209.005251
 20
91.026584
 42
0.050292
  0
VERTEX
  8
0
 10
210.225147
 20
91.460747
 42
0.127475
  0
VERTEX
  8
0
 10
210.941718
 20
92.059429
 42
0.125328
  0
VERTEX
  8
0
 10
211.284297
 20
92.937848
 42
0.047817
  0
VERTEX
  8
0
 10
211.319932
 20
94.260573
 42
-0.045225
  0
VERTEX
  8
0
 10
211.345318
 20
95.426993
 42
-0.087870
  0
VERTEX
  8
0
 10
211.608628
 20
96.317673
 42
-0.111506
  0
VERTEX
  8
0
 10
212.106169
 20
96.926900
 42
-0.109783
  0
VERTEX
  8
0
 10
212.819932
 20
97.267457
 42
-0.068402
  0
VERTEX
  8
0
 10
214.169511
 20
97.389117
 42
-0.162678
  0
VERTEX
  8
0
 10
215.097600
 20
97.029978
 42
-0.135080
  0
VERTEX
  8
0
 10
215.730773
 20
96.125029
 42
-0.041569
  0
SEQEND
  0
POLYLINE
  8
0
 66
1
 70
1
  0
VERTEX
  8
0
 10
242.693748
 20
73.753391
 42
-0.050653
  0
VERTEX
  8
0
 10
241.841451
 20
70.186552
 42
-0.072949
  0
VERTEX
  8
0
 10
240.341008
 20
67.314372
 42
-0.071527
  0
VERTEX
  8
0
 10
238.053643
 20
64.954806
 42
-0.046628
  0
VERTEX
  8
0
 10
234.844159
 20
62.920496
 42
-0.127062
  0
VERTEX
  8
0
 10
227.967872
 20
61.390225
 42
-0.118414
  0
VERTEX
  8
0
 10
221.007673
 20
63.312955
 42
-0.123270
  0
VERTEX
  8
0
 10
215.878533
 20
68.096589
 42
-0.144732
  0
VERTEX
  8
0
 10
214.000000
 20
74.450340
 42
-0.046099
  0
VERTEX
  8
0
 10
214.122305
 20
75.774062
 42
-0.156470
  0
VERTEX
  8
0
 10
214.528861
 20
76.527745
 42
-0.145719
  0
VERTEX
  8
0
 10
215.318551
 20
76.935143
 42
-0.038197
  0
VERTEX
  8
0
 10
216.750000
 20
77.094003
 42
0.013827
  0
VERTEX
  8
0
 10
218.393728
 20
77.195750
 42
0.001945
  0
VERTEX
  8
0
 10
221.776562
 20
77.512504
 42
0.002219
  0
VERTEX
  8
0
 10
225.778275
 20
77.920849
 42
0.001885
  0
VERTEX
  8
0
 10
230.000000
 20
78.386684
 42
-0.009722
  0
VERTEX
  8
0
 10
238.046802
 20
79.147135
 42
-0.106591
  0
VERTEX
  8
0
 10
241.243582
 20
78.704459
 42
-0.265108
  0
VERTEX
  8
0
 10
242.608771
 20
77.091921
 42
-0.079557
  0
SEQEND
  0
POLYLINE
  8
0
 66
1
 70
1
  0
VERTEX
  8
0
 10
256.000000
 20
92.583333
 42
0.016326
  0
VERTEX
  8
0
 10
256.072064
 20
90.376880
 42
0.061886
  0
VERTEX
  8
0
 10
256.330779
 20
89.023716
 42
0.122576
  0
VERTEX
  8
0
 10
256.794416
 20
88.278358
 42
0.195017
  0
VERTEX
  8
0
 10
257.480948
 20
88.000000
 42
0.254434
  0
VERTEX
  8
0
 10
258.702040
 20
88.664384
 42
0.077895
  0
VERTEX
  8
0
 10
259.585874
 20
90.650300
 42
0.071274
  0
VERTEX
  8
0
 10
259.874087
 20
93.021628
 42
0.136180
  0
VERTEX
  8
0
 10
259.325812
 20
94.845258
 42
0.056178
  0
VERTEX
  8
0
 10
257.935023
 20
96.582873
 42
0.359606
  0
VERTEX
  8
0
 10
256.892680
 20
96.680260
 42
0.216540
  0
VERTEX
  8
0
 10
256.176256
 20
95.503963
 42
0.030147
  0
SEQEND
  0
POLYLINE
  8
0
 66
1
 70
1
  0
VERTEX
  8
0
 10
194.666667
 20
90.333333
 42
0.174569
  0
VERTEX
  8
0
 10
194.029617
 20
88.979251
 42
0.052592
  0
VERTEX
  8
0
 10
194.055035
 20
86.668736
 42
0.052628
  0
VERTEX
  8
0
 10
194.573785
 20
84.362458
 42
0.138798
  0
VERTEX
  8
0
 10
195.524166
 20
82.979944
 42
0.088060
  0
VERTEX
  8
0
 10
196.856151
 20
82.222496
 42
0.378213
  0
VERTEX
  8
0
 10
197.634902
 20
82.535146
 42
0.140175
  0
VERTEX
  8
0
 10
197.900764
 20
83.937848
 42
0.019039
  0
VERTEX
  8
0
 10
197.511385
 20
86.932616
 42
0.019767
  0
VERTEX
  8
0
 10
196.986511
 20
89.433197
 42
0.113023
  0
VERTEX
  8
0
 10
196.374471
 20
90.633569
 42
0.290770
  0
VERTEX
  8
0
 10
195.611791
 20
90.876409
 42
0.132700
  0
SEQEND
  0
POLYLINE
  8
0
 66
1
 70
1
  0
VERTEX
  8
0
 10
279.571429
 20
88.428571
 42
0.038370
  0
VERTEX
  8
0
 10
278.970082
 20
87.727098
 42
0.034891
  0
VERTEX
  8
0
 10
278.461607
 20
86.920089
 42
0.036688
  0
VERTEX
  8
0
 10
278.110308
 20
86.131618
 42
0.086666
  0
VERTEX
  8
0
 10
278.000000
 20
85.500000
 42
0.135782
  0
VERTEX
  8
0
 10
278.317150
 20
84.353664
 42
0.034997
  0
VERTEX
  8
0
 10
279.426807
 20
82.765282
 42
0.033124
  0
VERTEX
  8
0
 10
280.720468
 20
81.365394
 42
0.191955
  0
VERTEX
  8
0
 10
281.637170
 20
81.000000
 42
0.126475
  0
VERTEX
  8
0
 10
283.071991
 20
81.368837
 42
0.069861
  0
VERTEX
  8
0
 10
284.530064
 20
82.460622
 42
0.069955
  0
VERTEX
  8
0
 10
285.628950
 20
83.909460
 42
0.127995
  0
VERTEX
  8
0
 10
286.000000
 20
85.335184
 42
0.106804
  0
VERTEX
  8
0
 10
285.433313
 20
87.957853
 42
0.175959
  0
VERTEX
  8
0
 10
283.865765
 20
89.561693
 42
0.188712
  0
VERTEX
  8
0
 10
281.724509
 20
89.723562
 42
0.122561
  0
SEQEND
  0
POLYLINE
  8
0
 66
1
 70
1
  0
VERTEX
  8
0
 10
170.571429
 20
77.428571
 42
0.134476
  0
VERTEX
  8
0
 10
169.290651
 20
75.181491
 42
0.193208
  0
VERTEX
  8
0
 10
169.586499
 20
72.936269
 42
0.182457
  0
VERTEX
  8
0
 10
171.385598
 20
71.429728
 42
0.121452
  0
VERTEX
  8
0
 10
174.092830
 20
71.173236
 42
0.095489
  0
VERTEX
  8
0
 10
176.226209
 20
71.922277
 42
0.161276
  0
VERTEX
  8
0
 10
177.467956
 20
73.329707
 42
0.173750
  0
VERTEX
  8
0
 10
177.573711
 20
75.117815
 42
0.113122
  0
VERTEX
  8
0
 10
176.552974
 20
76.941464
 42
0.052659
  0
VERTEX
  8
0
 10
174.954516
 20
78.371987
 42
0.136727
  0
VERTEX
  8
0
 10
173.517417
 20
78.901499
 42
0.149930
  0
VERTEX
  8
0
 10
172.100007
 20
78.589912
 42
0.067947
  0
SEQEND
  0
POLYLINE
  8
0
 66
1
 70
1
  0
VERTEX
  8
0
 10
281.571429
 20
67.428571
 42
0.090065
  0
VERTEX
  8
0
 10
280.480719
 20
65.853805
 42
0.152268
  0
VERTEX
  8
0
 10
280.284065
 20
64.274659
 42
0.136329
  0
VERTEX
  8
0
 10
281.024440
 20
62.739255
 42
0.066387
  0
VERTEX
  8
0
 10
282.676698
 20
61.296178
 42
0.035085
  0
VERTEX
  8
0
 10
283.980505
 20
60.557955
 42
0.152783
  0
VERTEX
  8
0
 10
284.848529
 20
60.434003
 42
0.132760
  0
VERTEX
  8
0
 10
285.701060
 20
60.820211
 42
0.024021
  0
VERTEX
  8
0
 10
287.000000
 20
62.000000
 42
0.024021
  0
VERTEX
  8
0
 10
288.179789
 20
63.298940
 42
0.132760
  0
VERTEX
  8
0
 10
288.565997
 20
64.151471
 42
0.152783
  0
VERTEX
  8
0
 10
288.442045
 20
65.019495
 42
0.035085
  0
VERTEX
  8
0
 10
287.703822
 20
66.323302
 42
0.066387
  0
VERTEX
  8
0
 10
286.260745
 20
67.975560
 42
0.136329
  0
VERTEX
  8
0
 10
284.725341
 20
68.715935
 42
0.152268
  0
VERTEX
  8
0
 10
283.146195
 20
68.519281
 42
0.090065
  0
SEQEND
  0
POLYLINE
  8
0
 66
1
 70
1
  0
VERTEX
  8
0
 10
263.500000
 20
66.853815
 42
0.010816
  0
VERTEX
  8
0
 10
259.731440
 20
66.354385
 42
0.030429
  0
VERTEX
  8
0
 10
257.134075
 20
65.789284
 42
0.043844
  0
VERTEX
  8
0
 10
255.395319
 20
65.129445
 42
0.145272
  0
VERTEX
  8
0
 10
254.500000
 20
64.313813
 42
-0.040844
  0
VERTEX
  8
0
 10
252.242076
 20
61.184631
 42
-0.022209
  0
VERTEX
  8
0
 10
249.004835
 20
57.717411
 42
-0.022189
  0
VERTEX
  8
0
 10
245.456197
 20
54.535883
 42
-0.039131
  0
VERTEX
  8
0
 10
242.227936
 20
52.287692
 42
-0.032066
  0
VERTEX
  8
0
 10
239.717409
 20
51.025100
 42
-0.036398
  0
VERTEX
  8
0
 10
237.168539
 20
50.154594
 42
-0.031621
  0
VERTEX
  8
0
 10
234.235389
 20
49.580988
 42
-0.016455
  0
VERTEX
  8
0
 10
230.523330
 20
49.219804
 42
-0.038194
  0
VERTEX
  8
0
 10
223.953075
 20
49.300379
 42
-0.055821
  0
VERTEX
  8
0
 10
218.287639
 20
50.449654
 42
-0.058015
  0
VERTEX
  8
0
 10
213.178420
 20
52.777832
 42
-0.045718
  0
VERTEX
  8
0
 10
208.279761
 20
56.385970
 42
0.000000
  0
VERTEX
  8
0
 10
203.500000
 20
60.630976
 42
0.000000
  0
VERTEX
  8
0
 10
193.199624
 20
59.667959
 42
0.005249
  0
VERTEX
  8
0
 10
187.815321
 20
59.107489
 42
0.031729
  0
VERTEX
  8
0
 10
185.052476
 20
58.611428
 42
0.081319
  0
VERTEX
  8
0
 10
183.702464
 20
58.035275
 42
0.356988
  0
VERTEX
  8
0
 10
183.449624
 20
57.270683
 42
-0.039035
  0
VERTEX
  8
0
 10
183.661251
 20
56.557282
 42
-0.016376
  0
VERTEX
  8
0
 10
183.838327
 20
55.570728
 42
-0.016084
  0
VERTEX
  8
0
 10
183.959698
 20
54.498198
 42
-0.020132
  0
VERTEX
  8
0
 10
184.000000
 20
53.497668
 42
0.070434
  0
VERTEX
  8
0
 10
184.167925
 20
52.311516
 42
0.137353
  0
VERTEX
  8
0
 10
184.666874
 20
51.505457
 42
0.105372
  0
VERTEX
  8
0
 10
185.616790
 20
50.944337
 42
0.031568
  0
VERTEX
  8
0
 10
187.250000
 20
50.509044
 42
-0.018498
  0
VERTEX
  8
0
 10
192.056157
 20
49.361645
 42
-0.026775
  0
VERTEX
  8
0
 10
196.192466
 20
47.968487
 42
-0.024209
  0
VERTEX
  8
0
 10
199.327145
 20
46.542893
 42
-0.280952
  0
VERTEX
  8
0
 10
200.000000
 20
45.439957
 42
-0.181102
  0
VERTEX
  8
0
 10
199.749222
 20
44.770298
 42
-0.035948
  0
VERTEX
  8
0
 10
198.825940
 20
43.852734
 42
-0.033831
  0
VERTEX
  8
0
 10
197.533513
 20
42.884852
 42
-0.025858
  0
VERTEX
  8
0
 10
196.003199
 20
42.001632
 42
0.012571
  0
VERTEX
  8
0
 10
193.679970
 20
40.741830
 42
0.114471
  0
VERTEX
  8
0
 10
192.842854
 20
39.962015
 42
0.223693
  0
VERTEX
  8
0
 10
192.715123
 20
39.132214
 42
0.065237
  0
VERTEX
  8
0
 10
193.253199
 20
37.919831
 42
0.097882
  0
VERTEX
  8
0
 10
194.331779
 20
36.745995
 42
0.162521
  0
VERTEX
  8
0
 10
195.599286
 20
36.339563
 42
0.052689
  0
VERTEX
  8
0
 10
197.784231
 20
36.596836
 42
0.003436
  0
VERTEX
  8
0
 10
204.000000
 20
38.048027
 42
-0.000126
  0
VERTEX
  8
0
 10
205.782735
 20
38.476704
 42
-0.000043
  0
VERTEX
  8
0
 10
208.381250
 20
39.100615
 42
-0.000042
  0
VERTEX
  8
0
 10
211.254788
 20
39.790044
 42
-0.000049
  0
VERTEX
  8
0
 10
214.000000
 20
40.448156
 42
0.000016
  0
VERTEX
  8
0
 10
216.817854
 20
41.123489
 42
0.000012
  0
VERTEX
  8
0
 10
219.912500
 20
41.865344
 42
0.000012
  0
VERTEX
  8
0
 10
222.819522
 20
42.562371
 42
0.000029
  0
VERTEX
  8
0
 10
225.000000
 20
43.085380
 42
-0.049320
  0
VERTEX
  8
0
 10
229.927125
 20
43.764193
 42
-0.007422
  0
VERTEX
  8
0
 10
239.909132
 20
43.998854
 42
-0.008640
  0
VERTEX
  8
0
 10
251.253146
 20
43.901078
 42
-0.009456
  0
VERTEX
  8
0
 10
262.250000
 20
43.407980
 42
0.010015
  0
VERTEX
  8
0
 10
265.406289
 20
43.269987
 42
0.020964
  0
VERTEX
  8
0
 10
267.863457
 20
43.314859
 42
0.018674
  0
VERTEX
  8
0
 10
269.664707
 20
43.491084
 42
0.375241
  0
VERTEX
  8
0
 10
270.000000
 20
43.874946
 42
-0.041107
  0
VERTEX
  8
0
 10
270.038796
 20
44.346039
 42
-0.016001
  0
VERTEX
  8
0
 10
270.166411
 20
44.987650
 42
-0.015713
  0
VERTEX
  8
0
 10
270.349614
 20
45.677002
 42
-0.018809
  0
VERTEX
  8
0
 10
270.566504
 20
46.312711
 42
0.196541
  0
VERTEX
  8
0
 10
270.549987
 20
47.072833
 42
0.125693
  0
VERTEX
  8
0
 10
270.000979
 20
47.780315
 42
0.065717
  0
VERTEX
  8
0
 10
268.809877
 20
48.477468
 42
0.019139
  0
VERTEX
  8
0
 10
266.816504
 20
49.227832
 42
-0.026236
  0
VERTEX
  8
0
 10
265.163441
 20
49.877015
 42
-0.036488
  0
VERTEX
  8
0
 10
263.767973
 20
50.638665
 42
-0.039955
  0
VERTEX
  8
0
 10
262.772162
 20
51.399502
 42
-0.212751
  0
VERTEX
  8
0
 10
262.500000
 20
52.010175
 42
-0.221609
  0
VERTEX
  8
0
 10
262.826290
 20
52.710204
 42
-0.017553
  0
VERTEX
  8
0
 10
264.482813
 20
54.004768
 42
-0.021196
  0
VERTEX
  8
0
 10
266.663916
 20
55.452113
 42
-0.014539
  0
VERTEX
  8
0
 10
269.250000
 20
56.913650
 42
0.008223
  0
VERTEX
  8
0
 10
273.455190
 20
59.220652
 42
0.077123
  0
VERTEX
  8
0
 10
275.065078
 20
60.501765
 42
0.139677
  0
VERTEX
  8
0
 10
275.779578
 20
61.918389
 42
0.047430
  0
VERTEX
  8
0
 10
276.000000
 20
64.236808
 42
0.056405
  0
VERTEX
  8
0
 10
275.714066
 20
66.763392
 42
0.292714
  0
VERTEX
  8
0
 10
274.758115
 20
67.701349
 42
0.076982
  0
VERTEX
  8
0
 10
272.584078
 20
67.816068
 42
0.002296
  0
SEQEND
  0
POLYLINE
  8
0
 66
1
 70
1
  0
VERTEX
  8
0
 10
172.571429
 20
56.428571
 42
0.022050
  0
VERTEX
  8
0
 10
171.434458
 20
55.186641
 42
0.145631
  0
VERTEX
  8
0
 10
171.104100
 20
54.422341
 42
0.135273
  0
VERTEX
  8
0
 10
171.232438
 20
53.574093
 42
0.018083
  0
VERTEX
  8
0
 10
172.035184
 20
51.934259
 42
0.190666
  0
VERTEX
  8
0
 10
173.900872
 20
50.354530
 42
0.134651
  0
VERTEX
  8
0
 10
176.672845
 20
50.193323
 42
0.139244
  0
VERTEX
  8
0
 10
179.074441
 20
51.462942
 42
0.204736
  0
VERTEX
  8
0
 10
180.000000
 20
53.628571
 42
0.145399
  0
VERTEX
  8
0
 10
179.609534
 20
54.942920
 42
0.055642
  0
VERTEX
  8
0
 10
178.384693
 20
56.430845
 42
0.055574
  0
VERTEX
  8
0
 10
176.853380
 20
57.618994
 42
0.138077
  0
VERTEX
  8
0
 10
175.500000
 20
58.000000
 42
0.086666
  0
VERTEX
  8
0
 10
174.868382
 20
57.889692
 42
0.036688
  0
VERTEX
  8
0
 10
174.079911
 20
57.538393
 42
0.034891
  0
VERTEX
  8
0
 10
173.272902
 20
57.029918
 42
0.038370
  0
SEQEND
  0
POLYLINE
  8
0
 66
1
 70
1
  0
VERTEX
  8
0
 10
275.200000
 20
45.800000
 42
0.120468
  0
VERTEX
  8
0
 10
274.182590
 20
44.124123
 42
0.124445
  0
VERTEX
  8
0
 10
274.069807
 20
42.189081
 42
0.123140
  0
VERTEX
  8
0
 10
274.891795
 20
40.417608
 42
0.116466
  0
VERTEX
  8
0
 10
276.465658
 20
39.197601
 42
0.033289
  0
VERTEX
  8
0
 10
277.787491
 20
38.698590
 42
0.099524
  0
VERTEX
  8
0
 10
278.744824
 20
38.606379
 42
0.116426
  0
VERTEX
  8
0
 10
279.575037
 20
38.894628
 42
0.054908
  0
VERTEX
  8
0
 10
280.465658
 20
39.608515
 42
0.132423
  0
VERTEX
  8
0
 10
281.757190
 20
41.853358
 42
0.146215
  0
VERTEX
  8
0
 10
281.678198
 20
44.352162
 42
0.157558
  0
VERTEX
  8
0
 10
280.267228
 20
46.269081
 42
0.157208
  0
VERTEX
  8
0
 10
278.000000
 20
47.000000
 42
0.062206
  0
VERTEX
  8
0
 10
277.299678
 20
46.912533
 42
0.039117
  0
VERTEX
  8
0
 10
276.517500
 20
46.647500
 42
0.038823
  0
VERTEX
  8
0
 10
275.776675
 20
46.259462
 42
0.056383
  0
SEQEND
  0
POLYLINE
  8
0
 66
1
 70
1
  0
VERTEX
  8
0
 10
183.010777
 20
36.512986
 42
0.145013
  0
VERTEX
  8
0
 10
182.300399
 20
34.854584
 42
0.084728
  0
VERTEX
  8
0
 10
182.414465
 20
32.678250
 42
0.086293
  0
VERTEX
  8
0
 10
183.235695
 20
30.700536
 42
0.161034
  0
VERTEX
  8
0
 10
184.563810
 20
29.613887
 42
0.135057
  0
VERTEX
  8
0
 10
186.364172
 20
29.437035
 42
0.107841
  0
VERTEX
  8
0
 10
188.178247
 20
30.173035
 42
0.108009
  0
VERTEX
  8
0
 10
189.518689
 20
31.596592
 42
0.135865
  0
VERTEX
  8
0
 10
190.000000
 20
33.335184
 42
0.128391
  0
VERTEX
  8
0
 10
189.313381
 20
35.965039
 42
0.159660
  0
VERTEX
  8
0
 10
187.462714
 20
37.666367
 42
0.174886
  0
VERTEX
  8
0
 10
185.098691
 20
37.856994
 42
0.154273
  0
SEQEND
  0
POLYLINE
  8
0
 66
1
 70
1
  0
VERTEX
  8
0
 10
227.094974
 20
73.881906
 42
0.006143
  0
VERTEX
  8
0
 10
224.216962
 20
73.512308
 42
0.009053
  0
VERTEX
  8
0
 10
221.700791
 20
73.111119
 42
0.004994
  0
VERTEX
  8
0
 10
219.601985
 20
72.715727
 42
0.148376
  0
VERTEX
  8
0
 10
219.130344
 20
72.463677
 42
0.405172
  0
VERTEX
  8
0
 10
219.099561
 20
70.475815
 42
0.066479
  0
VERTEX
  8
0
 10
222.386065
 20
67.798499
 42
0.055905
  0
VERTEX
  8
0
 10
226.850730
 20
65.701267
 42
0.144330
  0
VERTEX
  8
0
 10
230.373292
 20
65.557554
 42
0.078746
  0
VERTEX
  8
0
 10
232.954255
 20
66.658128
 42
0.052477
  0
VERTEX
  8
0
 10
235.488814
 20
68.645995
 42
0.054199
  0
VERTEX
  8
0
 10
237.396475
 20
70.945400
 42
0.147112
  0
VERTEX
  8
0
 10
238.000000
 20
72.952251
 42
0.138037
  0
VERTEX
  8
0
 10
237.649295
 20
74.198372
 42
0.238649
  0
VERTEX
  8
0
 10
236.754550
 20
74.751361
 42
0.048191
  0
VERTEX
  8
0
 10
234.648314
 20
74.727637
 42
0.001966
  0
SEQEND
  0
ENDSEC
  0
EOF
