  0
SECTION
  2
HEADER
  9
$ACADVER
  1
AC1006
  9
$EXTMIN
 10
0.000000
 20
0.000000
 30
0.000000
  9
$EXTMAX
 10
319.000000
 20
319.000000
 30
0.000000
  0
ENDSEC
  0
SECTION
  2
ENTITIES
  0
POLYLINE
  8
0
 66
1
 70
1
  0
VERTEX
  8
0
 10
149.612114
 20
300.123885
 42
-0.064433
  0
VERTEX
  8
0
 10
148.723721
 20
299.365608
 42
-0.032386
  0
VERTEX
  8
0
 10
147.436706
 20
298.640448
 42
-0.031514
  0
VERTEX
  8
0
 10
145.987685
 20
298.052681
 42
-0.040389
  0
VERTEX
  8
0
 10
144.590698
 20
297.708431
 42
0.033255
  0
VERTEX
  8
0
 10
142.823783
 20
297.299636
 42
0.008305
  0
VERTEX
  8
0
 10
140.001076
 20
296.394026
 42
0.008449
  0
VERTEX
  8
0
 10
136.799877
 20
295.247347
 42
0.008405
  0
VERTEX
  8
0
 10
133.633572
 20
293.991229
 42
0.008693
  0
VERTEX
  8
0
 10
129.493101
 20
292.182460
 42
0.048979
  0
VERTEX
  8
0
 10
127.410145
 20
290.970035
 42
0.102797
  0
VERTEX
  8
0
 10
126.370817
 20
289.833863
 42
0.134818
  0
VERTEX
  8
0
 10
126.000000
 20
288.483605
 42
-0.094715
  0
VERTEX
  8
0
 10
125.788223
 20
287.375663
 42
-0.034901
  0
VERTEX
  8
0
 10
125.096676
 20
285.934889
 42
-0.033070
  0
VERTEX
  8
0
 10
124.101653
 20
284.427352
 42
-0.033985
  0
VERTEX
  8
0
 10
122.924855
 20
283.078701
 42
0.082798
  0
VERTEX
  8
0
 10
119.790031
 20
278.689285
 42
0.018333
  0
VERTEX
  8
0
 10
116.024226
 20
270.217864
 42
0.019989
  0
VERTEX
  8
0
 10
112.763108
 20
261.047284
 42
0.040273
  0
VERTEX
  8
0
 10
111.080456
 20
253.564292
 42
0.019453
  0
VERTEX
  8
0
 10
110.759111
 20
250.417950
 42
0.015584
  0
VERTEX
  8
0
 10
110.651118
 20
247.013602
 42
0.015605
  0
VERTEX
  8
0
 10
110.755357
 20
243.614970
 42
0.019706
  0
VERTEX
  8
0
 10
111.073324
 20
240.486066
 42
0.033105
  0
VERTEX
  8
0
 10
112.443101
 20
233.959290
 42
0.024227
  0
VERTEX
  8
0
 10
114.783085
 20
226.933431
 42
0.023808
  0
VERTEX
  8
0
 10
117.537599
 20
220.724494
 42
0.080134
  0
VERTEX
  8
0
 10
120.129963
 20
217.132018
 42
-0.054067
  0
VERTEX
  8
0
 10
121.376297
 20
215.581228
 42
-0.013608
  0
VERTEX
  8
0
 10
123.049584
 20
212.800711
 42
-0.013731
  0
VERTEX
  8
0
 10
124.798497
 20
209.498485
 42
-0.013456
  0
VERTEX
  8
0
 10
126.375958
 20
206.083167
 42
0.010937
  0
VERTEX
  8
0
 10
129.125421
 20
200.050709
 42
0.044124
  0
VERTEX
  8
0
 10
131.195711
 20
196.578955
 42
0.087945
  0
VERTEX
  8
0
 10
132.957178
 20
194.872779
 42
0.244829
  0
VERTEX
  8
0
 10
134.616587
 20
194.683112
 42
-0.207365
  0
VERTEX
  8
0
 10
135.478156
 20
194.646450
 42
-0.029941
  0
VERTEX
  8
0
 10
137.048028
 20
193.765590
 42
-0.028324
  0
VERTEX
  8
0
 10
138.949158
 20
192.385771
 42
-0.016893
  0
VERTEX
  8
0
 10
141.054566
 20
190.545729
 42
0.038599
  0
VERTEX
  8
0
 10
145.607199
 20
186.902705
 42
0.030785
  0
VERTEX
  8
0
 10
151.014748
 20
183.689473
 42
0.031134
  0
VERTEX
  8
0
 10
156.246662
 20
181.400867
 42
0.094916
  0
VERTEX
  8
0
 10
160.057594
 20
180.782574
 42
0.088611
  0
VERTEX
  8
0
 10
163.743054
 20
181.549566
 42
0.029856
  0
VERTEX
  8
0
 10
168.724047
 20
183.904488
 42
0.029563
  0
VERTEX
  8
0
 10
173.838057
 20
187.113849
 42
0.037730
  0
VERTEX
  8
0
 10
178.111213
 20
190.676515
 42
-0.015994
  0
VERTEX
  8
0
 10
179.978651
 20
192.376224
 42
-0.021686
  0
VERTEX
  8
0
 10
181.775838
 20
193.779870
 42
-0.019368
  0
VERTEX
  8
0
 10
183.323953
 20
194.796284
 42
-0.171956
  0
VERTEX
  8
0
 10
184.111213
 20
194.957225
 42
0.015964
  0
VERTEX
  8
0
 10
184.723614
 20
194.891447
 42
0.011182
  0
VERTEX
  8
0
 10
185.416627
 20
194.854882
 42
0.011296
  0
VERTEX
  8
0
 10
186.082737
 20
194.849714
 42
0.023001
  0
VERTEX
  8
0
 10
186.604965
 20
194.881517
 42
0.253539
  0
VERTEX
  8
0
 10
187.679230
 20
195.621887
 42
0.002908
  0
VERTEX
  8
0
 10
191.707204
 20
203.651948
 42
0.005096
  0
VERTEX
  8
0
 10
195.450836
 20
211.423074
 42
0.110127
  0
VERTEX
  8
0
 10
196.000000
 20
213.886162
 42
-0.142679
  0
VERTEX
  8
0
 10
196.138464
 20
214.361513
 42
-0.047789
  0
VERTEX
  8
0
 10
196.587896
 20
214.937745
 42
-0.042959
  0
VERTEX
  8
0
 10
197.235500
 20
215.513845
 42
-0.037460
  0
VERTEX
  8
0
 10
198.001349
 20
216.000722
 42
0.155428
  0
VERTEX
  8
0
 10
201.127091
 20
219.217727
 42
0.025060
  0
VERTEX
  8
0
 10
204.675058
 20
227.325097
 42
0.027850
  0
VERTEX
  8
0
 10
207.403513
 20
235.939990
 42
0.091846
  0
VERTEX
  8
0
 10
207.805828
 20
241.859792
 42
0.097015
  0
VERTEX
  8
0
 10
207.159814
 20
243.885269
 42
0.330024
  0
VERTEX
  8
0
 10
205.975443
 20
244.430008
 42
0.220247
  0
VERTEX
  8
0
 10
204.651287
 20
243.444074
 42
0.063183
  0
VERTEX
  8
0
 10
203.700491
 20
241.000000
 42
-0.008448
  0
VERTEX
  8
0
 10
201.539708
 20
232.932727
 42
-0.027280
  0
VERTEX
  8
0
 10
199.725295
 20
227.689410
 42
-0.040374
  0
VERTEX
  8
0
 10
198.039001
 20
224.356485
 42
-0.166096
  0
VERTEX
  8
0
 10
196.322442
 20
222.932492
 42
0.050632
  0
VERTEX
  8
0
 10
195.372896
 20
222.456709
 42
0.043120
  0
VERTEX
  8
0
 10
194.481770
 20
221.776647
 42
0.045170
  0
VERTEX
  8
0
 10
193.775257
 20
221.006713
 42
0.086564
  0
VERTEX
  8
0
 10
193.389595
 20
220.265008
 42
-0.011577
  0
VERTEX
  8
0
 10
193.075464
 20
219.347753
 42
-0.003391
  0
VERTEX
  8
0
 10
192.550787
 20
217.953340
 42
-0.003405
  0
VERTEX
  8
0
 10
191.938831
 20
216.391702
 42
-0.003647
  0
VERTEX
  8
0
 10
191.319273
 20
214.874023
 42
0.000000
  0
VERTEX
  8
0
 10
189.808104
 20
211.248046
 42
0.000000
  0
VERTEX
  8
0
 10
185.404052
 20
213.709517
 42
-0.013840
  0
VERTEX
  8
0
 10
183.716737
 20
214.714844
 42
-0.020185
  0
VERTEX
  8
0
 10
182.293690
 20
215.699678
 42
-0.016274
  0
VERTEX
  8
0
 10
181.207912
 20
216.574632
 42
-0.218366
  0
VERTEX
  8
0
 10
181.000000
 20
217.027997
 42
-0.304623
  0
VERTEX
  8
0
 10
181.235956
 20
217.379350
 42
-0.030156
  0
VERTEX
  8
0
 10
182.248437
 20
217.723586
 42
-0.029946
  0
VERTEX
  8
0
 10
183.621129
 20
218.012670
 42
-0.018868
  0
VERTEX
  8
0
 10
185.250000
 20
218.192502
 42
0.050286
  0
VERTEX
  8
0
 10
188.409479
 20
218.743678
 42
0.287540
  0
VERTEX
  8
0
 10
189.503439
 20
219.947500
 42
0.313967
  0
VERTEX
  8
0
 10
188.857160
 20
221.353736
 42
0.054792
  0
VERTEX
  8
0
 10
186.044365
 20
222.616905
 42
-0.029924
  0
VERTEX
  8
0
 10
183.030648
 20
223.794296
 42
-0.272649
  0
VERTEX
  8
0
 10
182.259229
 20
224.907095
 42
-0.389583
  0
VERTEX
  8
0
 10
182.944499
 20
225.773508
 42
-0.039677
  0
VERTEX
  8
0
 10
185.794222
 20
226.000000
 42
0.049822
  0
VERTEX
  8
0
 10
188.687561
 20
226.289023
 42
0.114369
  0
VERTEX
  8
0
 10
190.668873
 20
227.190208
 42
0.224993
  0
VERTEX
  8
0
 10
191.317867
 20
228.456662
 42
0.206966
  0
VERTEX
  8
0
 10
190.776206
 20
229.823794
 42
0.107366
  0
VERTEX
  8
0
 10
190.070718
 20
230.277470
 42
0.031377
  0
VERTEX
  8
0
 10
188.829261
 20
230.654489
 42
0.029953
  0
VERTEX
  8
0
 10
187.340985
 20
230.913361
 42
0.028090
  0
VERTEX
  8
0
 10
185.800000
 20
231.000000
 42
-0.022801
  0
VERTEX
  8
0
 10
184.343652
 20
231.066448
 42
-0.036500
  0
VERTEX
  8
0
 10
183.116250
 20
231.269764
 42
-0.041780
  0
VERTEX
  8
0
 10
182.234851
 20
231.562472
 42
-0.300224
  0
VERTEX
  8
0
 10
182.000000
 20
231.918345
 42
-0.150735
  0
VERTEX
  8
0
 10
182.175955
 20
232.488744
 42
-0.007490
  0
VERTEX
  8
0
 10
183.318251
 20
234.111298
 42
-0.011519
  0
VERTEX
  8
0
 10
184.768341
 20
236.013148
 42
-0.008026
  0
VERTEX
  8
0
 10
186.487663
 20
238.094123
 42
0.036794
  0
VERTEX
  8
0
 10
189.809151
 20
242.620881
 42
0.082332
  0
VERTEX
  8
0
 10
191.446652
 20
246.546703
 42
0.087857
  0
VERTEX
  8
0
 10
191.673736
 20
250.625890
 42
0.046461
  0
VERTEX
  8
0
 10
190.601564
 20
255.595040
 42
0.042108
  0
VERTEX
  8
0
 10
188.591188
 20
260.492353
 42
0.025082
  0
VERTEX
  8
0
 10
185.436595
 20
265.953099
 42
0.025075
  0
VERTEX
  8
0
 10
181.876649
 20
270.896226
 42
0.058809
  0
VERTEX
  8
0
 10
178.642526
 20
274.089434
 42
0.086118
  0
VERTEX
  8
0
 10
175.368677
 20
275.834565
 42
0.054776
  0
VERTEX
  8
0
 10
171.133012
 20
276.730650
 42
0.053577
  0
VERTEX
  8
0
 10
166.679803
 20
276.694975
 42
0.070295
  0
VERTEX
  8
0
 10
162.749402
 20
275.668653
 42
-0.019550
  0
VERTEX
  8
0
 10
160.550566
 20
274.849319
 42
-0.080028
  0
VERTEX
  8
0
 10
159.148773
 20
274.626157
 42
-0.088476
  0
VERTEX
  8
0
 10
157.819757
 20
274.865715
 42
-0.026984
  0
VERTEX
  8
0
 10
155.937204
 20
275.681213
 42
0.087932
  0
VERTEX
  8
0
 10
152.243234
 20
276.772799
 42
0.057308
  0
VERTEX
  8
0
 10
147.785170
 20
276.761317
 42
0.056523
  0
VERTEX
  8
0
 10
143.368649
 20
275.727253
 42
0.077718
  0
VERTEX
  8
0
 10
139.792157
 20
273.782486
 42
0.068781
  0
VERTEX
  8
0
 10
136.696875
 20
270.655389
 42
0.022021
  0
VERTEX
  8
0
 10
133.002401
 20
265.242495
 42
0.022583
  0
VERTEX
  8
0
 10
129.722569
 20
259.375001
 42
0.050018
  0
VERTEX
  8
0
 10
127.896587
 20
254.590772
 42
0.059144
  0
VERTEX
  8
0
 10
127.287141
 20
250.460492
 42
0.077581
  0
VERTEX
  8
0
 10
127.767540
 20
246.683288
 42
0.067329
  0
VERTEX
  8
0
 10
129.462364
 20
242.845015
 42
0.033327
  0
VERTEX
  8
0
 10
132.549388
 20
238.492406
 42
-0.008448
  0
VERTEX
  8
0
 10
134.254397
 20
236.325350
 42
-0.011947
  0
VERTEX
  8
0
 10
135.692633
 20
234.335450
 42
-0.008166
  0
VERTEX
  8
0
 10
136.816696
 20
232.640619
 42
-0.143291
  0
VERTEX
  8
0
 10
137.000000
 20
232.014128
 42
-0.307255
  0
VERTEX
  8
0
 10
136.732869
 20
231.620460
 42
-0.038492
  0
VERTEX
  8
0
 10
135.695461
 20
231.297900
 42
-0.034614
  0
VERTEX
  8
0
 10
134.261113
 20
231.073327
 42
-0.021530
  0
VERTEX
  8
0
 10
132.559017
 20
231.000000
 42
0.021836
  0
VERTEX
  8
0
 10
130.811260
 20
230.923634
 42
0.028779
  0
VERTEX
  8
0
 10
129.233073
 20
230.693382
 42
0.028902
  0
VERTEX
  8
0
 10
127.987293
 20
230.361704
 42
0.176610
  0
VERTEX
  8
0
 10
127.472927
 20
229.956195
 42
0.235857
  0
VERTEX
  8
0
 10
127.346312
 20
228.558252
 42
0.149558
  0
VERTEX
  8
0
 10
128.382857
 20
227.249462
 42
0.093721
  0
VERTEX
  8
0
 10
130.494942
 20
226.313476
 42
0.057627
  0
VERTEX
  8
0
 10
133.205778
 20
226.000000
 42
-0.039677
  0
VERTEX
  8
0
 10
136.055501
 20
225.773508
 42
-0.389583
  0
VERTEX
  8
0
 10
136.740771
 20
224.907095
 42
-0.272649
  0
VERTEX
  8
0
 10
135.969352
 20
223.794296
 42
-0.029924
  0
VERTEX
  8
0
 10
132.955635
 20
222.616905
 42
0.053559
  0
VERTEX
  8
0
 10
130.039835
 20
221.316085
 42
0.345020
  0
VERTEX
  8
0
 10
129.481050
 20
219.915805
 42
0.269387
  0
VERTEX
  8
0
 10
130.738217
 20
218.721546
 42
0.042371
  0
VERTEX
  8
0
 10
134.250000
 20
218.195209
 42
-0.013698
  0
VERTEX
  8
0
 10
136.070302
 20
218.028236
 42
-0.022251
  0
VERTEX
  8
0
 10
137.602217
 20
217.775732
 42
-0.018091
  0
VERTEX
  8
0
 10
138.777602
 20
217.483069
 42
-0.337696
  0
VERTEX
  8
0
 10
138.991588
 20
217.195209
 42
-0.237113
  0
VERTEX
  8
0
 10
138.796028
 20
216.817479
 42
-0.009866
  0
VERTEX
  8
0
 10
137.511696
 20
215.924204
 42
-0.015263
  0
VERTEX
  8
0
 10
135.888969
 20
214.912579
 42
-0.010050
  0
VERTEX
  8
0
 10
133.965467
 20
213.844635
 42
0.000000
  0
VERTEX
  8
0
 10
128.947758
 20
211.189271
 42
0.000000
  0
VERTEX
  8
0
 10
127.592967
 20
214.431740
 42
-0.004960
  0
VERTEX
  8
0
 10
127.022649
 20
215.835694
 42
-0.003853
  0
VERTEX
  8
0
 10
126.429154
 20
217.373912
 42
-0.003896
  0
VERTEX
  8
0
 10
125.897908
 20
218.817000
 42
-0.009403
  0
VERTEX
  8
0
 10
125.533520
 20
219.894389
 42
0.070056
  0
VERTEX
  8
0
 10
125.095086
 20
220.808508
 42
0.045907
  0
VERTEX
  8
0
 10
124.360373
 20
221.719208
 42
0.045511
  0
VERTEX
  8
0
 10
123.461338
 20
222.490770
 42
0.063827
  0
VERTEX
  8
0
 10
122.529349
 20
222.988842
 42
-0.185039
  0
VERTEX
  8
0
 10
120.320590
 20
224.962560
 42
-0.034734
  0
VERTEX
  8
0
 10
118.139778
 20
230.033397
 42
-0.033933
  0
VERTEX
  8
0
 10
116.357632
 20
236.501010
 42
-0.028996
  0
VERTEX
  8
0
 10
115.349463
 20
243.500000
 42
-0.039729
  0
VERTEX
  8
0
 10
115.317348
 20
249.164597
 42
-0.024928
  0
VERTEX
  8
0
 10
116.134489
 20
255.742527
 42
-0.021808
  0
VERTEX
  8
0
 10
117.447810
 20
261.698114
 42
-0.131944
  0
VERTEX
  8
0
 10
119.013424
 20
264.413424
 42
-0.193334
  0
VERTEX
  8
0
 10
119.634574
 20
264.678567
 42
-0.058772
  0
VERTEX
  8
0
 10
120.672862
 20
264.578668
 42
-0.044479
  0
VERTEX
  8
0
 10
122.012601
 20
264.160966
 42
-0.023589
  0
VERTEX
  8
0
 10
123.588472
 20
263.422357
 42
0.000000
  0
VERTEX
  8
0
 10
127.232229
 20
261.500000
 42
0.000000
  0
VERTEX
  8
0
 10
129.366115
 20
264.500000
 42
-0.019550
  0
VERTEX
  8
0
 10
130.454743
 20
265.910350
 42
-0.008415
  0
VERTEX
  8
0
 10
132.009783
 20
267.707546
 42
-0.008312
  0
VERTEX
  8
0
 10
133.731622
 20
269.567941
 42
-0.010880
  0
VERTEX
  8
0
 10
135.369315
 20
271.206541
 42
0.016618
  0
VERTEX
  8
0
 10
137.378400
 20
273.263407
 42
0.067197
  0
VERTEX
  8
0
 10
138.375102
 20
274.701008
 42
0.104077
  0
VERTEX
  8
0
 10
138.729128
 20
276.007487
 42
0.075925
  0
VERTEX
  8
0
 10
138.587016
 20
277.509324
 42
0.079427
  0
VERTEX
  8
0
 10
138.088252
 20
278.674604
 42
0.040732
  0
VERTEX
  8
0
 10
137.131165
 20
279.948422
 42
0.038243
  0
VERTEX
  8
0
 10
135.876624
 20
281.161416
 42
0.039788
  0
VERTEX
  8
0
 10
134.467700
 20
282.151558
 42
-0.008894
  0
VERTEX
  8
0
 10
131.960873
 20
283.691376
 42
-0.129758
  0
VERTEX
  8
0
 10
131.263365
 20
284.449008
 42
-0.216566
  0
VERTEX
  8
0
 10
131.212962
 20
285.295325
 42
-0.031094
  0
VERTEX
  8
0
 10
131.952835
 20
286.911871
 42
-0.140987
  0
VERTEX
  8
0
 10
133.428368
 20
288.428924
 42
-0.031447
  0
VERTEX
  8
0
 10
136.706265
 20
290.037751
 42
-0.025250
  0
VERTEX
  8
0
 10
141.414473
 20
291.718631
 42
-0.011147
  0
VERTEX
  8
0
 10
147.784310
 20
293.482393
 42
-0.008727
  0
VERTEX
  8
0
 10
151.592346
 20
294.375540
 42
-0.056400
  0
VERTEX
  8
0
 10
153.552880
 20
294.572733
 42
-0.090077
  0
VERTEX
  8
0
 10
155.093260
 20
294.273122
 42
-0.040469
  0
VERTEX
  8
0
 10
156.953570
 20
293.368356
 42
0.020361
  0
VERTEX
  8
0
 10
158.738887
 20
292.409546
 42
0.112863
  0
VERTEX
  8
0
 10
159.793379
 20
292.165582
 42
0.121222
  0
VERTEX
  8
0
 10
160.812295
 20
292.413507
 42
0.025027
  0
VERTEX
  8
0
 10
162.417894
 20
293.354245
 42
-0.048432
  0
VERTEX
  8
0
 10
164.097053
 20
294.235386
 42
-0.090906
  0
VERTEX
  8
0
 10
165.592669
 20
294.546591
 42
-0.054307
  0
VERTEX
  8
0
 10
167.568116
 20
294.378930
 42
-0.008678
  0
VERTEX
  8
0
 10
171.364940
 20
293.567555
 42
-0.015188
  0
VERTEX
  8
0
 10
177.489968
 20
291.949569
 42
-0.030611
  0
VERTEX
  8
0
 10
182.180483
 20
290.238269
 42
-0.038610
  0
VERTEX
  8
0
 10
185.506321
 20
288.471905
 42
-0.129212
  0
VERTEX
  8
0
 10
187.172572
 20
286.677547
 42
-0.025596
  0
VERTEX
  8
0
 10
187.658995
 20
285.644899
 42
-0.104311
  0
VERTEX
  8
0
 10
187.783337
 20
284.966078
 42
-0.186370
  0
VERTEX
  8
0
 10
187.593210
 20
284.510321
 42
-0.121928
  0
VERTEX
  8
0
 10
187.106451
 20
284.202150
 42
0.084640
  0
VERTEX
  8
0
 10
185.073338
 20
283.116070
 42
0.031279
  0
VERTEX
  8
0
 10
182.627285
 20
280.961851
 42
0.027989
  0
VERTEX
  8
0
 10
180.530107
 20
278.619594
 42
0.170186
  0
VERTEX
  8
0
 10
180.000000
 20
277.107273
 42
0.125273
  0
VERTEX
  8
0
 10
180.223806
 20
276.228017
 42
0.027170
  0
VERTEX
  8
0
 10
181.053188
 20
274.883786
 42
0.026721
  0
VERTEX
  8
0
 10
182.212852
 20
273.391352
 42
0.022799
  0
VERTEX
  8
0
 10
183.585319
 20
271.946167
 42
-0.016615
  0
VERTEX
  8
0
 10
185.060916
 20
270.430365
 42
-0.013804
  0
VERTEX
  8
0
 10
186.529792
 20
268.725317
 42
-0.014031
  0
VERTEX
  8
0
 10
187.788952
 20
267.087605
 42
-0.036211
  0
VERTEX
  8
0
 10
188.574352
 20
265.820869
 42
0.077914
  0
VERTEX
  8
0
 10
190.160214
 20
263.682567
 42
0.125314
  0
VERTEX
  8
0
 10
192.109921
 20
262.545900
 42
0.129433
  0
VERTEX
  8
0
 10
194.318790
 20
262.499378
 42
0.086128
  0
VERTEX
  8
0
 10
196.655865
 20
263.510170
 42
-0.091266
  0
VERTEX
  8
0
 10
198.785984
 20
264.405783
 42
-0.273727
  0
VERTEX
  8
0
 10
200.227192
 20
263.930771
 42
-0.107042
  0
VERTEX
  8
0
 10
201.384746
 20
261.835747
 42
-0.011076
  0
VERTEX
  8
0
 10
202.893635
 20
256.370083
 42
0.026286
  0
VERTEX
  8
0
 10
204.277296
 20
251.893389
 42
0.123253
  0
VERTEX
  8
0
 10
205.781968
 20
249.682629
 42
0.450999
  0
VERTEX
  8
0
 10
207.017172
 20
249.830864
 42
0.116476
  0
VERTEX
  8
0
 10
207.846553
 20
251.956052
 42
0.107158
  0
VERTEX
  8
0
 10
207.454900
 20
257.287774
 42
0.018183
  0
VERTEX
  8
0
 10
204.197097
 20
267.014536
 42
0.020252
  0
VERTEX
  8
0
 10
200.136282
 20
276.617952
 42
0.066949
  0
VERTEX
  8
0
 10
196.413465
 20
282.372131
 42
-0.024759
  0
VERTEX
  8
0
 10
195.106981
 20
284.060957
 42
-0.026343
  0
VERTEX
  8
0
 10
194.002705
 20
285.837044
 42
-0.027171
  0
VERTEX
  8
0
 10
193.222571
 20
287.455127
 42
-0.099053
  0
VERTEX
  8
0
 10
193.000000
 20
288.567596
 42
0.148291
  0
VERTEX
  8
0
 10
192.614126
 20
289.840060
 42
0.096200
  0
VERTEX
  8
0
 10
191.524095
 20
290.940426
 42
0.046404
  0
VERTEX
  8
0
 10
189.380799
 20
292.126854
 42
0.008770
  0
VERTEX
  8
0
 10
185.250000
 20
293.850424
 42
0.005217
  0
VERTEX
  8
0
 10
182.062890
 20
295.076748
 42
0.005442
  0
VERTEX
  8
0
 10
178.895313
 20
296.218650
 42
0.005246
  0
VERTEX
  8
0
 10
176.137392
 20
297.146758
 42
0.023731
  0
VERTEX
  8
0
 10
174.500000
 20
297.594065
 42
-0.038603
  0
VERTEX
  8
0
 10
173.192624
 20
297.993320
 42
-0.024612
  0
VERTEX
  8
0
 10
171.741897
 20
298.646007
 42
-0.024697
  0
VERTEX
  8
0
 10
170.374228
 20
299.431578
 42
-0.041498
  0
VERTEX
  8
0
 10
169.323480
 20
300.236522
 42
0.029775
  0
VERTEX
  8
0
 10
167.873824
 20
301.401919
 42
0.164906
  0
VERTEX
  8
0
 10
166.929023
 20
301.684603
 42
0.109561
  0
VERTEX
  8
0
 10
165.810913
 20
301.393857
 42
0.009846
  0
VERTEX
  8
0
 10
163.243404
 20
300.016644
 42
0.000000
  0
VERTEX
  8
0
 10
159.339848
 20
297.822723
 42
0.000000
  0
VERTEX
  8
0
 10
155.919924
 20
299.907623
 42
0.009752
  0
VERTEX
  8
0
 10
153.160906
 20
301.516662
 42
0.119107
  0
VERTEX
  8
0
 10
151.991890
 20
301.841919
 42
0.187828
  0
VERTEX
  8
0
 10
151.031749
 20
301.505456
 42
0.031722
  0
SEQEND
  0
POLYLINE
  8
0
 66
1
 70
1
  0
VERTEX
  8
0
 10
195.541119
 20
276.933469
 42
-0.076926
  0
VERTEX
  8
0
 10
195.972110
 20
275.914147
 42
-0.400869
  0
VERTEX
  8
0
 10
195.698517
 20
275.431883
 42
-0.241841
  0
VERTEX
  8
0
 10
194.961207
 20
275.567819
 42
-0.055352
  0
VERTEX
  8
0
 10
194.020056
 20
276.475834
 42
-0.030483
  0
VERTEX
  8
0
 10
193.548584
 20
277.120064
 42
-0.110288
  0
VERTEX
  8
0
 10
193.374856
 20
277.594311
 42
-0.256649
  0
VERTEX
  8
0
 10
193.485592
 20
277.878966
 42
-0.176123
  0
VERTEX
  8
0
 10
193.818538
 20
278.000000
 42
-0.085443
  0
VERTEX
  8
0
 10
194.274058
 20
277.921585
 42
-0.053409
  0
VERTEX
  8
0
 10
194.763210
 20
277.686706
 42
-0.051744
  0
VERTEX
  8
0
 10
195.210125
 20
277.341444
 42
-0.064100
  0
SEQEND
  0
POLYLINE
  8
0
 66
1
 70
1
  0
VERTEX
  8
0
 10
191.654923
 20
272.456872
 42
-0.039294
  0
VERTEX
  8
0
 10
192.077527
 20
271.029559
 42
-0.394747
  0
VERTEX
  8
0
 10
191.784216
 20
270.543144
 42
-0.297319
  0
VERTEX
  8
0
 10
191.142842
 20
270.742784
 42
-0.033211
  0
VERTEX
  8
0
 10
190.203671
 20
272.045478
 42
-0.027617
  0
VERTEX
  8
0
 10
189.744864
 20
272.879309
 42
-0.089132
  0
VERTEX
  8
0
 10
189.576771
 20
273.486641
 42
-0.202213
  0
VERTEX
  8
0
 10
189.690854
 20
273.846721
 42
-0.219666
  0
VERTEX
  8
0
 10
190.022911
 20
274.000000
 42
-0.126136
  0
VERTEX
  8
0
 10
190.464453
 20
273.886811
 42
-0.063967
  0
VERTEX
  8
0
 10
190.931256
 20
273.546706
 42
-0.057328
  0
VERTEX
  8
0
 10
191.351147
 20
273.047033
 42
-0.054533
  0
SEQEND
  0
POLYLINE
  8
0
 66
1
 70
1
  0
VERTEX
  8
0
 10
155.450909
 20
270.811588
 42
0.000000
  0
VERTEX
  8
0
 10
159.955321
 20
268.623176
 42
0.000000
  0
VERTEX
  8
0
 10
164.528639
 20
270.907201
 42
-0.045837
  0
VERTEX
  8
0
 10
168.238423
 20
272.352828
 42
-0.108551
  0
VERTEX
  8
0
 10
171.181390
 20
272.540591
 42
-0.103302
  0
VERTEX
  8
0
 10
174.022981
 20
271.476152
 42
-0.039081
  0
VERTEX
  8
0
 10
177.434829
 20
268.923077
 42
-0.063762
  0
VERTEX
  8
0
 10
180.726994
 20
265.191446
 42
-0.032565
  0
VERTEX
  8
0
 10
183.893282
 20
259.793062
 42
-0.032366
  0
VERTEX
  8
0
 10
186.269242
 20
254.183347
 42
-0.084180
  0
VERTEX
  8
0
 10
187.000000
 20
249.873657
 42
-0.050700
  0
VERTEX
  8
0
 10
186.779284
 20
247.702581
 42
-0.066630
  0
VERTEX
  8
0
 10
186.123826
 20
245.823916
 42
-0.049030
  0
VERTEX
  8
0
 10
184.829961
 20
243.790722
 42
-0.015379
  0
VERTEX
  8
0
 10
182.514879
 20
241.016753
 42
0.015791
  0
VERTEX
  8
0
 10
180.752211
 20
238.901150
 42
0.016798
  0
VERTEX
  8
0
 10
179.164172
 20
236.720695
 42
0.016614
  0
VERTEX
  8
0
 10
177.927935
 20
234.760440
 42
0.071000
  0
VERTEX
  8
0
 10
177.406471
 20
233.483373
 42
-0.054729
  0
VERTEX
  8
0
 10
176.995566
 20
232.375791
 42
-0.096115
  0
VERTEX
  8
0
 10
176.401502
 20
231.604384
 42
-0.105233
  0
VERTEX
  8
0
 10
175.603795
 20
231.154804
 42
-0.076027
  0
VERTEX
  8
0
 10
174.591592
 20
231.000000
 42
0.076284
  0
VERTEX
  8
0
 10
172.608673
 20
230.695698
 42
0.129023
  0
VERTEX
  8
0
 10
171.194368
 20
229.806683
 42
0.186679
  0
VERTEX
  8
0
 10
170.701252
 20
228.585867
 42
0.178743
  0
VERTEX
  8
0
 10
171.146238
 20
227.323794
 42
-0.069875
  0
VERTEX
  8
0
 10
171.585836
 20
226.611913
 42
-0.124134
  0
VERTEX
  8
0
 10
171.699504
 20
225.936253
 42
-0.108298
  0
VERTEX
  8
0
 10
171.482143
 20
225.223724
 42
-0.045251
  0
VERTEX
  8
0
 10
170.910192
 20
224.391787
 42
0.040003
  0
VERTEX
  8
0
 10
170.267694
 20
223.477899
 42
0.173902
  0
VERTEX
  8
0
 10
170.145594
 20
222.837634
 42
0.163134
  0
VERTEX
  8
0
 10
170.455759
 20
222.240900
 42
0.034180
  0
VERTEX
  8
0
 10
171.369168
 20
221.472008
 42
-0.012085
  0
VERTEX
  8
0
 10
172.447886
 20
220.642492
 42
-0.311399
  0
VERTEX
  8
0
 10
172.547066
 20
220.306860
 42
-0.274838
  0
VERTEX
  8
0
 10
172.268307
 20
220.063391
 42
-0.010147
  0
VERTEX
  8
0
 10
170.831421
 20
219.829736
 42
0.055724
  0
VERTEX
  8
0
 10
169.846111
 20
219.575794
 42
0.099210
  0
VERTEX
  8
0
 10
169.139731
 20
219.131605
 42
0.118757
  0
VERTEX
  8
0
 10
168.738556
 20
218.512920
 42
0.104904
  0
VERTEX
  8
0
 10
168.638889
 20
217.749516
 42
-0.114618
  0
VERTEX
  8
0
 10
168.477295
 20
216.673177
 42
-0.240440
  0
VERTEX
  8
0
 10
167.858838
 20
216.128979
 42
-0.109945
  0
VERTEX
  8
0
 10
166.607249
 20
216.090565
 42
-0.018379
  0
VERTEX
  8
0
 10
164.250000
 20
216.630286
 42
-0.073839
  0
VERTEX
  8
0
 10
162.595080
 20
217.348085
 42
-0.294592
  0
VERTEX
  8
0
 10
162.144938
 20
218.301366
 42
-0.161743
  0
VERTEX
  8
0
 10
162.772912
 20
219.593051
 42
-0.024521
  0
VERTEX
  8
0
 10
164.905420
 20
221.573870
 42
0.069354
  0
VERTEX
  8
0
 10
167.640761
 20
224.613207
 42
0.117400
  0
VERTEX
  8
0
 10
168.843034
 20
227.801648
 42
0.073975
  0
VERTEX
  8
0
 10
168.751658
 20
232.188541
 42
0.015447
  0
VERTEX
  8
0
 10
167.223607
 20
239.750000
 42
0.005397
  0
VERTEX
  8
0
 10
165.806086
 20
245.515432
 42
0.039434
  0
VERTEX
  8
0
 10
164.883046
 20
248.204057
 42
0.100562
  0
VERTEX
  8
0
 10
163.958646
 20
249.526720
 42
0.192414
  0
VERTEX
  8
0
 10
162.774330
 20
250.000000
 42
0.080266
  0
VERTEX
  8
0
 10
161.686067
 20
249.824167
 42
0.234595
  0
VERTEX
  8
0
 10
161.161173
 20
249.303629
 42
0.105905
  0
VERTEX
  8
0
 10
161.034495
 20
248.232191
 42
0.011531
  0
VERTEX
  8
0
 10
161.324731
 20
245.750000
 42
0.003975
  0
VERTEX
  8
0
 10
161.601584
 20
243.885509
 42
0.002802
  0
VERTEX
  8
0
 10
161.941217
 20
241.793750
 42
0.002827
  0
VERTEX
  8
0
 10
162.288597
 20
239.796654
 42
0.005941
  0
VERTEX
  8
0
 10
162.585655
 20
238.250000
 42
-0.019316
  0
VERTEX
  8
0
 10
162.925794
 20
236.181892
 42
-0.224271
  0
VERTEX
  8
0
 10
162.676871
 20
235.422765
 42
-0.191715
  0
VERTEX
  8
0
 10
161.906855
 20
235.066012
 42
-0.013759
  0
VERTEX
  8
0
 10
159.508423
 20
235.000000
 42
-0.013715
  0
VERTEX
  8
0
 10
157.195436
 20
235.063459
 42
-0.168010
  0
VERTEX
  8
0
 10
156.388722
 20
235.392960
 42
-0.241474
  0
VERTEX
  8
0
 10
156.112904
 20
236.091125
 42
-0.030208
  0
VERTEX
  8
0
 10
156.377264
 20
237.750000
 42
0.009592
  0
VERTEX
  8
0
 10
156.656047
 20
239.130633
 42
0.003538
  0
VERTEX
  8
0
 10
156.997973
 20
241.087500
 42
0.003505
  0
VERTEX
  8
0
 10
157.341289
 20
243.229854
 42
0.004209
  0
VERTEX
  8
0
 10
157.633132
 20
245.250000
 42
0.009238
  0
VERTEX
  8
0
 10
157.968533
 20
248.113924
 42
0.100120
  0
VERTEX
  8
0
 10
157.851226
 20
249.266027
 42
0.242500
  0
VERTEX
  8
0
 10
157.311539
 20
249.815010
 42
0.079698
  0
VERTEX
  8
0
 10
156.158343
 20
250.000000
 42
0.077531
  0
VERTEX
  8
0
 10
155.214759
 20
249.852801
 42
0.100615
  0
VERTEX
  8
0
 10
154.452614
 20
249.426427
 42
0.096143
  0
VERTEX
  8
0
 10
153.893663
 20
248.718703
 42
0.065235
  0
VERTEX
  8
0
 10
153.543896
 20
247.750000
 42
-0.001467
  0
VERTEX
  8
0
 10
153.245188
 20
246.408846
 42
-0.000211
  0
VERTEX
  8
0
 10
152.626103
 20
243.672556
 42
-0.000240
  0
VERTEX
  8
0
 10
151.891028
 20
240.437163
 42
-0.000205
  0
VERTEX
  8
0
 10
151.113491
 20
237.028915
 42
0.023105
  0
VERTEX
  8
0
 10
149.992020
 20
230.813189
 42
0.086939
  0
VERTEX
  8
0
 10
150.154280
 20
226.871206
 42
0.123499
  0
VERTEX
  8
0
 10
151.588725
 20
223.978390
 42
0.071288
  0
VERTEX
  8
0
 10
154.520810
 20
221.394408
 42
-0.064642
  0
VERTEX
  8
0
 10
156.094590
 20
220.044042
 42
-0.115664
  0
VERTEX
  8
0
 10
156.910687
 20
218.558129
 42
-0.230197
  0
VERTEX
  8
0
 10
156.714109
 20
217.481330
 42
-0.235935
  0
VERTEX
  8
0
 10
155.750000
 20
216.986345
 42
0.031735
  0
VERTEX
  8
0
 10
155.108892
 20
216.938577
 42
0.010027
  0
VERTEX
  8
0
 10
154.160316
 20
216.787565
 42
0.009969
  0
VERTEX
  8
0
 10
153.106609
 20
216.576310
 42
0.010911
  0
VERTEX
  8
0
 10
152.093628
 20
216.328822
 42
-0.018027
  0
VERTEX
  8
0
 10
150.957185
 20
216.068246
 42
-0.132056
  0
VERTEX
  8
0
 10
150.405658
 20
216.108717
 42
-0.367339
  0
VERTEX
  8
0
 10
150.243580
 20
216.384782
 42
-0.095383
  0
VERTEX
  8
0
 10
150.441589
 20
216.905490
 42
0.139544
  0
VERTEX
  8
0
 10
150.612879
 20
217.509625
 42
0.070881
  0
VERTEX
  8
0
 10
150.499736
 20
218.297976
 42
0.061093
  0
VERTEX
  8
0
 10
150.133993
 20
219.148526
 42
0.051903
  0
VERTEX
  8
0
 10
149.556242
 20
219.937854
 42
-0.026590
  0
VERTEX
  8
0
 10
148.940372
 20
220.695724
 42
-0.031485
  0
VERTEX
  8
0
 10
148.445258
 20
221.474535
 42
-0.033048
  0
VERTEX
  8
0
 10
148.120066
 20
222.170232
 42
-0.138926
  0
VERTEX
  8
0
 10
148.076701
 20
222.624841
 42
0.038052
  0
VERTEX
  8
0
 10
148.119574
 20
223.031983
 42
0.020514
  0
VERTEX
  8
0
 10
148.113429
 20
223.536672
 42
0.020319
  0
VERTEX
  8
0
 10
148.064814
 20
224.053263
 42
0.029983
  0
VERTEX
  8
0
 10
147.976852
 20
224.500000
 42
-0.029820
  0
VERTEX
  8
0
 10
147.869396
 20
225.044808
 42
-0.007560
  0
VERTEX
  8
0
 10
147.761383
 20
225.940625
 42
-0.007683
  0
VERTEX
  8
0
 10
147.669037
 20
226.969531
 42
-0.007700
  0
VERTEX
  8
0
 10
147.608431
 20
228.000000
 42
0.054169
  0
VERTEX
  8
0
 10
147.419291
 20
229.238241
 42
0.130199
  0
VERTEX
  8
0
 10
146.962874
 20
230.037702
 42
0.123654
  0
VERTEX
  8
0
 10
146.152993
 20
230.530957
 42
0.046477
  0
VERTEX
  8
0
 10
144.844014
 20
230.807350
 42
-0.055223
  0
VERTEX
  8
0
 10
143.653176
 20
231.080583
 42
-0.082251
  0
VERTEX
  8
0
 10
142.716979
 20
231.592039
 42
-0.088983
  0
VERTEX
  8
0
 10
142.046161
 20
232.342896
 42
-0.076588
  0
VERTEX
  8
0
 10
141.634658
 20
233.319504
 42
0.073334
  0
VERTEX
  8
0
 10
141.149192
 20
234.492815
 42
0.014104
  0
VERTEX
  8
0
 10
139.910026
 20
236.439250
 42
0.014744
  0
VERTEX
  8
0
 10
138.319531
 20
238.645523
 42
0.013119
  0
VERTEX
  8
0
 10
136.540644
 20
240.843808
 42
-0.015037
  0
VERTEX
  8
0
 10
134.247954
 20
243.699364
 42
-0.044692
  0
VERTEX
  8
0
 10
132.921938
 20
245.828073
 42
-0.061385
  0
VERTEX
  8
0
 10
132.233589
 20
247.742527
 42
-0.055709
  0
VERTEX
  8
0
 10
132.000229
 20
249.831655
 42
-0.101670
  0
VERTEX
  8
0
 10
133.099154
 20
255.178489
 42
-0.039623
  0
VERTEX
  8
0
 10
136.630890
 20
261.887553
 42
-0.039719
  0
VERTEX
  8
0
 10
141.221006
 20
268.012127
 42
-0.092122
  0
VERTEX
  8
0
 10
145.723982
 20
271.539644
 42
-0.034091
  0
VERTEX
  8
0
 10
148.181305
 20
272.615398
 42
-0.105184
  0
VERTEX
  8
0
 10
149.968515
 20
272.857944
 42
-0.080011
  0
VERTEX
  8
0
 10
151.966558
 20
272.380848
 42
-0.014546
  0
SEQEND
  0
POLYLINE
  8
0
 66
1
 70
1
  0
VERTEX
  8
0
 10
164.000000
 20
228.654988
 42
-0.105504
  0
VERTEX
  8
0
 10
163.863101
 20
228.013421
 42
-0.036245
  0
VERTEX
  8
0
 10
163.411307
 20
227.172312
 42
-0.034115
  0
VERTEX
  8
0
 10
162.762848
 20
226.289590
 42
-0.033375
  0
VERTEX
  8
0
 10
161.995938
 20
225.496324
 42
-0.038587
  0
VERTEX
  8
0
 10
160.844508
 20
224.605589
 42
-0.108446
  0
VERTEX
  8
0
 10
159.898347
 20
224.243771
 42
-0.107293
  0
VERTEX
  8
0
 10
158.881503
 20
224.309519
 42
-0.037315
  0
VERTEX
  8
0
 10
157.495938
 20
224.819897
 42
-0.056368
  0
VERTEX
  8
0
 10
156.499473
 20
225.417401
 42
-0.062408
  0
VERTEX
  8
0
 10
155.699329
 20
226.204867
 42
-0.068451
  0
VERTEX
  8
0
 10
155.177807
 20
227.090814
 42
-0.099161
  0
VERTEX
  8
0
 10
155.000000
 20
227.978561
 42
-0.100016
  0
VERTEX
  8
0
 10
155.212321
 20
229.029379
 42
-0.189693
  0
VERTEX
  8
0
 10
155.806534
 20
229.637698
 42
-0.091919
  0
VERTEX
  8
0
 10
157.010253
 20
229.930830
 42
-0.013888
  0
VERTEX
  8
0
 10
159.500000
 20
230.000000
 42
-0.018047
  0
VERTEX
  8
0
 10
161.545030
 20
229.926163
 42
-0.054619
  0
VERTEX
  8
0
 10
162.913577
 20
229.675277
 42
-0.097668
  0
VERTEX
  8
0
 10
163.714432
 20
229.253077
 42
-0.226487
  0
SEQEND
  0
POLYLINE
  8
0
 66
1
 70
1
  0
VERTEX
  8
0
 10
167.423425
 20
210.948743
 42
-0.218980
  0
VERTEX
  8
0
 10
167.674313
 20
210.242823
 42
-0.119320
  0
VERTEX
  8
0
 10
167.372726
 20
209.354197
 42
-0.059613
  0
VERTEX
  8
0
 10
166.424998
 20
208.191267
 42
-0.016477
  0
VERTEX
  8
0
 10
164.673520
 20
206.608085
 42
0.010911
  0
VERTEX
  8
0
 10
162.569823
 20
204.748651
 42
0.087078
  0
VERTEX
  8
0
 10
161.787368
 20
203.722401
 42
0.222547
  0
VERTEX
  8
0
 10
161.755726
 20
202.926634
 42
0.120543
  0
VERTEX
  8
0
 10
162.351685
 20
202.123091
 42
0.212307
  0
VERTEX
  8
0
 10
164.307421
 20
201.572710
 42
0.090883
  0
VERTEX
  8
0
 10
166.935820
 20
202.459353
 42
0.063427
  0
VERTEX
  8
0
 10
169.957615
 20
204.677884
 42
0.035255
  0
VERTEX
  8
0
 10
173.045299
 20
208.057195
 42
-0.018802
  0
VERTEX
  8
0
 10
174.724744
 20
210.021206
 42
-0.057586
  0
VERTEX
  8
0
 10
176.050292
 20
211.162163
 42
-0.089822
  0
VERTEX
  8
0
 10
177.227660
 20
211.682995
 42
-0.116794
  0
VERTEX
  8
0
 10
178.403170
 20
211.688628
 42
-0.023647
  0
VERTEX
  8
0
 10
180.305122
 20
211.151943
 42
-0.005184
  0
VERTEX
  8
0
 10
183.517867
 20
210.041878
 42
-0.003761
  0
VERTEX
  8
0
 10
186.741387
 20
208.863130
 42
-0.049076
  0
VERTEX
  8
0
 10
187.884602
 20
208.302179
 42
-0.314118
  0
VERTEX
  8
0
 10
187.982075
 20
208.076582
 42
-0.015150
  0
VERTEX
  8
0
 10
187.784194
 20
207.235889
 42
-0.020161
  0
VERTEX
  8
0
 10
187.460402
 20
206.195737
 42
-0.012650
  0
VERTEX
  8
0
 10
187.002708
 20
205.006538
 42
-0.032451
  0
VERTEX
  8
0
 10
186.340565
 20
203.661907
 42
-0.081047
  0
VERTEX
  8
0
 10
185.650587
 20
202.815959
 42
-0.120942
  0
VERTEX
  8
0
 10
184.914082
 20
202.428640
 42
-0.137009
  0
VERTEX
  8
0
 10
184.118106
 20
202.451645
 42
0.111185
  0
VERTEX
  8
0
 10
182.651760
 20
202.568844
 42
0.133108
  0
VERTEX
  8
0
 10
181.383236
 20
202.022977
 42
0.065113
  0
VERTEX
  8
0
 10
179.951866
 20
200.546028
 42
0.010949
  0
VERTEX
  8
0
 10
177.666081
 20
197.329212
 42
-0.048147
  0
VERTEX
  8
0
 10
174.894365
 20
193.985324
 42
-0.038064
  0
VERTEX
  8
0
 10
171.318828
 20
190.934518
 42
-0.036611
  0
VERTEX
  8
0
 10
167.161395
 20
188.344815
 42
-0.036122
  0
VERTEX
  8
0
 10
162.652345
 20
186.375956
 42
-0.028359
  0
VERTEX
  8
0
 10
159.976249
 20
185.598373
 42
-0.099545
  0
VERTEX
  8
0
 10
158.191296
 20
185.549022
 42
-0.067094
  0
VERTEX
  8
0
 10
156.176411
 20
186.182871
 42
-0.008373
  0
VERTEX
  8
0
 10
152.049017
 20
188.204770
 42
-0.022156
  0
VERTEX
  8
0
 10
148.784120
 20
190.059255
 42
-0.032347
  0
VERTEX
  8
0
 10
146.103596
 20
191.995407
 42
-0.032927
  0
VERTEX
  8
0
 10
143.730119
 20
194.233458
 42
-0.024164
  0
VERTEX
  8
0
 10
141.397021
 20
197.000000
 42
0.016258
  0
VERTEX
  8
0
 10
139.406735
 20
199.437190
 42
0.035508
  0
VERTEX
  8
0
 10
137.697409
 20
201.136630
 42
0.047486
  0
VERTEX
  8
0
 10
136.230783
 20
202.176184
 42
0.131173
  0
VERTEX
  8
0
 10
135.017709
 20
202.500000
 42
-0.094425
  0
VERTEX
  8
0
 10
133.957930
 20
202.701940
 42
-0.091444
  0
VERTEX
  8
0
 10
133.033156
 20
203.280394
 42
-0.072132
  0
VERTEX
  8
0
 10
132.214663
 20
204.281377
 42
-0.035543
  0
VERTEX
  8
0
 10
131.467979
 20
205.750000
 42
-0.009497
  0
VERTEX
  8
0
 10
130.663667
 20
207.761897
 42
-0.139081
  0
VERTEX
  8
0
 10
130.599522
 20
208.515341
 42
-0.306803
  0
VERTEX
  8
0
 10
130.979490
 20
208.894222
 42
-0.047183
  0
VERTEX
  8
0
 10
132.097934
 20
209.000000
 42
0.055014
  0
VERTEX
  8
0
 10
133.077204
 20
209.108074
 42
0.020779
  0
VERTEX
  8
0
 10
134.409713
 20
209.464529
 42
0.020286
  0
VERTEX
  8
0
 10
135.839713
 20
209.976020
 42
0.023299
  0
VERTEX
  8
0
 10
137.157364
 20
210.581376
 42
-0.067634
  0
VERTEX
  8
0
 10
139.942520
 20
211.573449
 42
-0.118398
  0
VERTEX
  8
0
 10
142.376493
 20
211.503880
 42
-0.121145
  0
VERTEX
  8
0
 10
144.475674
 20
210.342360
 42
-0.072810
  0
VERTEX
  8
0
 10
146.273239
 20
208.114589
 42
0.043700
  0
VERTEX
  8
0
 10
147.200141
 20
206.818734
 42
0.022828
  0
VERTEX
  8
0
 10
148.559712
 20
205.370703
 42
0.022523
  0
VERTEX
  8
0
 10
150.100405
 20
204.002392
 42
0.031910
  0
VERTEX
  8
0
 10
151.595193
 20
202.941168
 42
0.013251
  0
VERTEX
  8
0
 10
153.704698
 20
201.713450
 42
0.092661
  0
VERTEX
  8
0
 10
154.832243
 20
201.345069
 42
0.163839
  0
VERTEX
  8
0
 10
155.713927
 20
201.518119
 42
0.066799
  0
VERTEX
  8
0
 10
156.697562
 20
202.268991
 42
0.051684
  0
VERTEX
  8
0
 10
157.447468
 20
203.192318
 42
0.243754
  0
VERTEX
  8
0
 10
157.513911
 20
203.850122
 42
0.142105
  0
VERTEX
  8
0
 10
156.996130
 20
204.517500
 42
0.015346
  0
VERTEX
  8
0
 10
155.365533
 20
205.628149
 42
-0.023540
  0
VERTEX
  8
0
 10
152.193233
 20
207.865838
 42
-0.165763
  0
VERTEX
  8
0
 10
151.171265
 20
209.422783
 42
-0.303253
  0
VERTEX
  8
0
 10
151.622860
 20
210.713532
 42
-0.069384
  0
VERTEX
  8
0
 10
153.750000
 20
211.894487
 42
-0.080581
  0
VERTEX
  8
0
 10
156.788555
 20
212.534053
 42
-0.028932
  0
VERTEX
  8
0
 10
161.224429
 20
212.484335
 42
-0.025718
  0
VERTEX
  8
0
 10
165.489483
 20
211.967976
 42
-0.157855
  0
SEQEND
  0
POLYLINE
  8
0
 66
1
 70
1
  0
VERTEX
  8
0
 10
180.073336
 20
168.176300
 42
0.162808
  0
VERTEX
  8
0
 10
173.828240
 20
164.998125
 42
0.144315
  0
VERTEX
  8
0
 10
170.379553
 20
158.542049
 42
0.142613
  0
VERTEX
  8
0
 10
170.964370
 20
151.187739
 42
0.158325
  0
VERTEX
  8
0
 10
175.413705
 20
145.648500
 42
0.097869
  0
VERTEX
  8
0
 10
178.392849
 20
144.441555
 42
0.047487
  0
VERTEX
  8
0
 10
182.500000
 20
144.050602
 42
0.047487
  0
VERTEX
  8
0
 10
186.607151
 20
144.441555
 42
0.097869
  0
VERTEX
  8
0
 10
189.586295
 20
145.648500
 42
0.100106
  0
VERTEX
  8
0
 10
192.706038
 20
148.732193
 42
0.088325
  0
VERTEX
  8
0
 10
194.554372
 20
152.922015
 42
0.086922
  0
VERTEX
  8
0
 10
194.859874
 20
157.553443
 42
0.092691
  0
VERTEX
  8
0
 10
193.551112
 20
161.901160
 42
0.084131
  0
VERTEX
  8
0
 10
191.262634
 20
164.942223
 42
0.080692
  0
VERTEX
  8
0
 10
188.069425
 20
167.111749
 42
0.077410
  0
VERTEX
  8
0
 10
184.231536
 20
168.220471
 42
0.068779
  0
SEQEND
  0
POLYLINE
  8
0
 66
1
 70
1
  0
VERTEX
  8
0
 10
187.974564
 20
162.025436
 42
-0.165628
  0
VERTEX
  8
0
 10
190.499239
 20
156.892620
 42
-0.178909
  0
VERTEX
  8
0
 10
189.257654
 20
151.473551
 42
-0.181522
  0
VERTEX
  8
0
 10
184.813558
 20
148.217174
 42
-0.169408
  0
VERTEX
  8
0
 10
179.172215
 20
148.569636
 42
-0.139794
  0
VERTEX
  8
0
 10
175.967556
 20
151.139002
 42
-0.121519
  0
VERTEX
  8
0
 10
174.385350
 20
155.154516
 42
-0.124472
  0
VERTEX
  8
0
 10
174.868683
 20
159.369153
 42
-0.150606
  0
VERTEX
  8
0
 10
177.301689
 20
162.498758
 42
-0.093253
  0
VERTEX
  8
0
 10
179.842242
 20
163.648706
 42
-0.070968
  0
VERTEX
  8
0
 10
182.889284
 20
163.946364
 42
-0.072969
  0
VERTEX
  8
0
 10
185.808809
 20
163.384883
 42
-0.112906
  0
SEQEND
  0
POLYLINE
  8
0
 66
1
 70
1
  0
VERTEX
  8
0
 10
199.000000
 20
156.500000
 42
0.002827
  0
VERTEX
  8
0
 10
199.044103
 20
148.699072
 42
0.036854
  0
VERTEX
  8
0
 10
199.290000
 20
145.812500
 42
0.138781
  0
VERTEX
  8
0
 10
199.895913
 20
144.506719
 42
0.218517
  0
VERTEX
  8
0
 10
201.000000
 20
144.000000
 42
0.150217
  0
VERTEX
  8
0
 10
202.074609
 20
144.330303
 42
0.180365
  0
VERTEX
  8
0
 10
202.683333
 20
145.187500
 42
0.059311
  0
VERTEX
  8
0
 10
202.947194
 20
147.031606
 42
0.005909
  0
VERTEX
  8
0
 10
203.000000
 20
151.500000
 42
-0.004620
  0
VERTEX
  8
0
 10
203.026572
 20
154.375816
 42
-0.007693
  0
VERTEX
  8
0
 10
203.108589
 20
156.796875
 42
-0.002362
  0
VERTEX
  8
0
 10
203.219991
 20
158.858862
 42
-0.397124
  0
VERTEX
  8
0
 10
203.369666
 20
159.000000
 42
-0.194576
  0
VERTEX
  8
0
 10
203.619864
 20
158.898804
 42
-0.000665
  0
VERTEX
  8
0
 10
206.014597
 20
156.576562
 42
-0.003436
  0
VERTEX
  8
0
 10
208.716808
 20
153.912794
 42
-0.002131
  0
VERTEX
  8
0
 10
211.854580
 20
150.750000
 42
0.000000
  0
VERTEX
  8
0
 10
219.969828
 20
142.500000
 42
0.000000
  0
VERTEX
  8
0
 10
219.984914
 20
155.250000
 42
0.002745
  0
VERTEX
  8
0
 10
219.950575
 20
163.221778
 42
0.036176
  0
VERTEX
  8
0
 10
219.708901
 20
166.158136
 42
0.137093
  0
VERTEX
  8
0
 10
219.105041
 20
167.485573
 42
0.221358
  0
VERTEX
  8
0
 10
218.000000
 20
168.000000
 42
0.154605
  0
VERTEX
  8
0
 10
216.923067
 20
167.658847
 42
0.176580
  0
VERTEX
  8
0
 10
216.308724
 20
166.775492
 42
0.057421
  0
VERTEX
  8
0
 10
216.033986
 20
164.872784
 42
0.005686
  0
VERTEX
  8
0
 10
215.953937
 20
160.250000
 42
0.000000
  0
VERTEX
  8
0
 10
215.907873
 20
152.500000
 42
0.000000
  0
VERTEX
  8
0
 10
208.086097
 20
160.750000
 42
0.003773
  0
VERTEX
  8
0
 10
205.042268
 20
163.912331
 42
0.005939
  0
VERTEX
  8
0
 10
202.376271
 20
166.576562
 42
0.001928
  0
VERTEX
  8
0
 10
200.045567
 20
168.833565
 42
0.193741
  0
VERTEX
  8
0
 10
199.632161
 20
169.000000
 42
0.396611
  0
VERTEX
  8
0
 10
199.376318
 20
168.759179
 42
0.002485
  0
VERTEX
  8
0
 10
199.185697
 20
165.328125
 42
0.007892
  0
VERTEX
  8
0
 10
199.045440
 20
161.293021
 42
0.004740
  0
SEQEND
  0
POLYLINE
  8
0
 66
1
 70
1
  0
VERTEX
  8
0
 10
80.000000
 20
156.000000
 42
0.000000
  0
VERTEX
  8
0
 10
80.000000
 20
144.000000
 42
0.000000
  0
VERTEX
  8
0
 10
86.500000
 20
144.000000
 42
0.007414
  0
VERTEX
  8
0
 10
90.303549
 20
144.056399
 42
0.067313
  0
VERTEX
  8
0
 10
91.937500
 20
144.326923
 42
0.186514
  0
VERTEX
  8
0
 10
92.707995
 20
144.933960
 42
0.134481
  0
VERTEX
  8
0
 10
93.000000
 20
146.000000
 42
0.102588
  0
VERTEX
  8
0
 10
92.785276
 20
147.035525
 42
0.188085
  0
VERTEX
  8
0
 10
92.187500
 20
147.638889
 42
0.090841
  0
VERTEX
  8
0
 10
90.979415
 20
147.930739
 42
0.013964
  0
VERTEX
  8
0
 10
88.500000
 20
148.000000
 42
-0.012019
  0
VERTEX
  8
0
 10
85.582500
 20
148.070142
 42
-0.154453
  0
VERTEX
  8
0
 10
84.571429
 20
148.444444
 42
-0.206324
  0
VERTEX
  8
0
 10
84.105988
 20
149.290758
 42
-0.023974
  0
VERTEX
  8
0
 10
84.000000
 20
151.500000
 42
-0.023974
  0
VERTEX
  8
0
 10
84.105988
 20
153.709242
 42
-0.206324
  0
VERTEX
  8
0
 10
84.571429
 20
154.555556
 42
-0.154453
  0
VERTEX
  8
0
 10
85.582500
 20
154.929858
 42
-0.012019
  0
VERTEX
  8
0
 10
88.500000
 20
155.000000
 42
0.013964
  0
VERTEX
  8
0
 10
90.979415
 20
155.069261
 42
0.090841
  0
VERTEX
  8
0
 10
92.187500
 20
155.361111
 42
0.188085
  0
VERTEX
  8
0
 10
92.785276
 20
155.964475
 42
0.102588
  0
VERTEX
  8
0
 10
93.000000
 20
157.000000
 42
0.102588
  0
VERTEX
  8
0
 10
92.785276
 20
158.035525
 42
0.188085
  0
VERTEX
  8
0
 10
92.187500
 20
158.638889
 42
0.090841
  0
VERTEX
  8
0
 10
90.979415
 20
158.930739
 42
0.013964
  0
VERTEX
  8
0
 10
88.500000
 20
159.000000
 42
-0.012699
  0
VERTEX
  8
0
 10
85.820113
 20
159.068074
 42
-0.114574
  0
VERTEX
  8
0
 10
84.700000
 20
159.388889
 42
-0.210352
  0
VERTEX
  8
0
 10
84.165617
 20
160.093239
 42
-0.058662
  0
VERTEX
  8
0
 10
84.000000
 20
161.500000
 42
-0.058662
  0
VERTEX
  8
0
 10
84.165617
 20
162.906761
 42
-0.210352
  0
VERTEX
  8
0
 10
84.700000
 20
163.611111
 42
-0.114574
  0
VERTEX
  8
0
 10
85.820113
 20
163.931926
 42
-0.012699
  0
VERTEX
  8
0
 10
88.500000
 20
164.000000
 42
0.013964
  0
VERTEX
  8
0
 10
90.979415
 20
164.069261
 42
0.090841
  0
VERTEX
  8
0
 10
92.187500
 20
164.361111
 42
0.188085
  0
VERTEX
  8
0
 10
92.785276
 20
164.964475
 42
0.102588
  0
VERTEX
  8
0
 10
93.000000
 20
166.000000
 42
0.134481
  0
VERTEX
  8
0
 10
92.707995
 20
167.066040
 42
0.186514
  0
VERTEX
  8
0
 10
91.937500
 20
167.673077
 42
0.067313
  0
VERTEX
  8
0
 10
90.303549
 20
167.943601
 42
0.007414
  0
VERTEX
  8
0
 10
86.500000
 20
168.000000
 42
0.000000
  0
VERTEX
  8
0
 10
80.000000
 20
168.000000
 42
0.000000
  0
SEQEND
  0
POLYLINE
  8
0
 66
1
 70
1
  0
VERTEX
  8
0
 10
99.234765
 20
155.500000
 42
0.004218
  0
VERTEX
  8
0
 10
101.240164
 20
150.707780
 42
0.006834
  0
VERTEX
  8
0
 10
103.034899
 20
146.671875
 42
0.002012
  0
VERTEX
  8
0
 10
104.639925
 20
143.227999
 42
0.290439
  0
VERTEX
  8
0
 10
104.999322
 20
143.000000
 42
0.282798
  0
VERTEX
  8
0
 10
105.353290
 20
143.217606
 42
0.003929
  0
VERTEX
  8
0
 10
106.520493
 20
145.570312
 42
0.009614
  0
VERTEX
  8
0
 10
107.828099
 20
148.395745
 42
0.006013
  0
VERTEX
  8
0
 10
109.254935
 20
151.750000
 42
-0.000386
  0
VERTEX
  8
0
 10
110.748988
 20
155.374999
 42
-0.000375
  0
VERTEX
  8
0
 10
112.262435
 20
159.031250
 42
-0.000370
  0
VERTEX
  8
0
 10
113.597500
 20
162.243003
 42
-0.001399
  0
VERTEX
  8
0
 10
114.440107
 20
164.250000
 42
0.006653
  0
VERTEX
  8
0
 10
115.457906
 20
166.747504
 42
0.146637
  0
VERTEX
  8
0
 10
115.521997
 20
167.522864
 42
0.319594
  0
VERTEX
  8
0
 10
115.101907
 20
167.909072
 42
0.031193
  0
VERTEX
  8
0
 10
113.645815
 20
168.000000
 42
0.126128
  0
VERTEX
  8
0
 10
112.273988
 20
167.648353
 42
0.114688
  0
VERTEX
  8
0
 10
111.183190
 20
166.671705
 42
0.053235
  0
VERTEX
  8
0
 10
110.078290
 20
164.676824
 42
0.008680
  0
VERTEX
  8
0
 10
108.427189
 20
160.567807
 42
-0.008404
  0
VERTEX
  8
0
 10
107.294739
 20
157.745020
 42
-0.014306
  0
VERTEX
  8
0
 10
106.241947
 20
155.430800
 42
-0.008137
  0
VERTEX
  8
0
 10
105.312240
 20
153.608783
 42
-0.433524
  0
VERTEX
  8
0
 10
104.972784
 20
153.516820
 42
-0.144454
  0
VERTEX
  8
0
 10
104.640189
 20
153.888246
 42
-0.004051
  0
VERTEX
  8
0
 10
103.724549
 20
155.857274
 42
-0.007969
  0
VERTEX
  8
0
 10
102.694389
 20
158.219476
 42
-0.005354
  0
VERTEX
  8
0
 10
101.589621
 20
160.949013
 42
0.009575
  0
VERTEX
  8
0
 10
100.000055
 20
164.782964
 42
0.053888
  0
VERTEX
  8
0
 10
98.900128
 20
166.704685
 42
0.111384
  0
VERTEX
  8
0
 10
97.816448
 20
167.657866
 42
0.125544
  0
VERTEX
  8
0
 10
96.475322
 20
168.000000
 42
0.217512
  0
VERTEX
  8
0
 10
95.381918
 20
167.500721
 42
0.237142
  0
VERTEX
  8
0
 10
95.096437
 20
166.375230
 42
0.040594
  0
VERTEX
  8
0
 10
95.904005
 20
163.749837
 42
0.002083
  0
SEQEND
  0
POLYLINE
  8
0
 66
1
 70
1
  0
VERTEX
  8
0
 10
118.000000
 20
156.000000
 42
0.000000
  0
VERTEX
  8
0
 10
118.000000
 20
144.000000
 42
0.000000
  0
VERTEX
  8
0
 10
125.073324
 20
144.000000
 42
0.006440
  0
VERTEX
  8
0
 10
129.114974
 20
144.052063
 42
0.057121
  0
VERTEX
  8
0
 10
130.876658
 20
144.300107
 42
0.186810
  0
VERTEX
  8
0
 10
131.635537
 20
144.845737
 42
0.193807
  0
VERTEX
  8
0
 10
131.814330
 20
145.750000
 42
0.142409
  0
VERTEX
  8
0
 10
131.384252
 20
146.595456
 42
0.108542
  0
VERTEX
  8
0
 10
130.523383
 20
147.185753
 42
0.062527
  0
VERTEX
  8
0
 10
129.071693
 20
147.571832
 42
0.017713
  0
VERTEX
  8
0
 10
126.741006
 20
147.804791
 42
-0.011786
  0
VERTEX
  8
0
 10
123.698311
 20
148.072536
 42
-0.140379
  0
VERTEX
  8
0
 10
122.616146
 20
148.517714
 42
-0.199870
  0
VERTEX
  8
0
 10
122.120808
 20
149.409437
 42
-0.028133
  0
VERTEX
  8
0
 10
122.000000
 20
151.554791
 42
-0.025001
  0
VERTEX
  8
0
 10
122.108277
 20
153.718865
 42
-0.207243
  0
VERTEX
  8
0
 10
122.576540
 20
154.558600
 42
-0.152501
  0
VERTEX
  8
0
 10
123.591889
 20
154.930085
 42
-0.012019
  0
VERTEX
  8
0
 10
126.500000
 20
155.000000
 42
0.013964
  0
VERTEX
  8
0
 10
128.979415
 20
155.069261
 42
0.090841
  0
VERTEX
  8
0
 10
130.187500
 20
155.361111
 42
0.188085
  0
VERTEX
  8
0
 10
130.785276
 20
155.964475
 42
0.102588
  0
VERTEX
  8
0
 10
131.000000
 20
157.000000
 42
0.102588
  0
VERTEX
  8
0
 10
130.785276
 20
158.035525
 42
0.188085
  0
VERTEX
  8
0
 10
130.187500
 20
158.638889
 42
0.090841
  0
VERTEX
  8
0
 10
128.979415
 20
158.930739
 42
0.013964
  0
VERTEX
  8
0
 10
126.500000
 20
159.000000
 42
-0.012699
  0
VERTEX
  8
0
 10
123.820113
 20
159.068074
 42
-0.114574
  0
VERTEX
  8
0
 10
122.700000
 20
159.388889
 42
-0.210352
  0
VERTEX
  8
0
 10
122.165617
 20
160.093239
 42
-0.058662
  0
VERTEX
  8
0
 10
122.000000
 20
161.500000
 42
-0.063163
  0
VERTEX
  8
0
 10
122.180083
 20
162.919849
 42
-0.217022
  0
VERTEX
  8
0
 10
122.750000
 20
163.625000
 42
-0.105983
  0
VERTEX
  8
0
 10
123.960310
 20
163.937230
 42
-0.010324
  0
VERTEX
  8
0
 10
127.000000
 20
164.000000
 42
0.011557
  0
VERTEX
  8
0
 10
129.809325
 20
164.064942
 42
0.083766
  0
VERTEX
  8
0
 10
131.125000
 20
164.350000
 42
0.189791
  0
VERTEX
  8
0
 10
131.766065
 20
164.953987
 42
0.110458
  0
VERTEX
  8
0
 10
132.000000
 20
166.000000
 42
0.142406
  0
VERTEX
  8
0
 10
131.688767
 20
167.070611
 42
0.183695
  0
VERTEX
  8
0
 10
130.875000
 20
167.678571
 42
0.063075
  0
VERTEX
  8
0
 10
129.135837
 20
167.945542
 42
0.006583
  0
VERTEX
  8
0
 10
125.000000
 20
168.000000
 42
0.000000
  0
VERTEX
  8
0
 10
118.000000
 20
168.000000
 42
0.000000
  0
SEQEND
  0
POLYLINE
  8
0
 66
1
 70
1
  0
VERTEX
  8
0
 10
136.000000
 20
156.000000
 42
0.003074
  0
VERTEX
  8
0
 10
136.045385
 20
148.619161
 42
0.037118
  0
VERTEX
  8
0
 10
136.290525
 20
145.792251
 42
0.134277
  0
VERTEX
  8
0
 10
136.879976
 20
144.499006
 42
0.222616
  0
VERTEX
  8
0
 10
137.945209
 20
144.000000
 42
0.117489
  0
VERTEX
  8
0
 10
138.940089
 20
144.237047
 42
0.164020
  0
VERTEX
  8
0
 10
139.577046
 20
144.883703
 42
0.081839
  0
VERTEX
  8
0
 10
139.958335
 20
146.164308
 42
0.015070
  0
VERTEX
  8
0
 10
140.195209
 20
148.625951
 42
0.000000
  0
VERTEX
  8
0
 10
140.500000
 20
153.251901
 42
0.000000
  0
VERTEX
  8
0
 10
143.812136
 20
148.625951
 42
0.019207
  0
VERTEX
  8
0
 10
145.518912
 20
146.425823
 42
0.050614
  0
VERTEX
  8
0
 10
146.947453
 20
145.036562
 42
0.072270
  0
VERTEX
  8
0
 10
148.276641
 20
144.264842
 42
0.095726
  0
VERTEX
  8
0
 10
149.647304
 20
144.000000
 42
0.000000
  0
VERTEX
  8
0
 10
152.170337
 20
144.000000
 42
0.000000
  0
VERTEX
  8
0
 10
148.678100
 20
148.757379
 42
0.000000
  0
VERTEX
  8
0
 10
145.185862
 20
153.514759
 42
0.000000
  0
VERTEX
  8
0
 10
147.592931
 20
156.313143
 42
0.055839
  0
VERTEX
  8
0
 10
149.321951
 20
158.846946
 42
0.123721
  0
VERTEX
  8
0
 10
149.876551
 20
161.102985
 42
0.130414
  0
VERTEX
  8
0
 10
149.288322
 20
163.274746
 42
0.065475
  0
VERTEX
  8
0
 10
147.545455
 20
165.545455
 42
0.045870
  0
VERTEX
  8
0
 10
146.113781
 20
166.736052
 42
0.066295
  0
VERTEX
  8
0
 10
144.647946
 20
167.480000
 42
0.057879
  0
VERTEX
  8
0
 10
142.892814
 20
167.875477
 42
0.026505
  0
VERTEX
  8
0
 10
140.545455
 20
168.000000
 42
0.000000
  0
VERTEX
  8
0
 10
136.000000
 20
168.000000
 42
0.000000
  0
SEQEND
  0
POLYLINE
  8
0
 66
1
 70
1
  0
VERTEX
  8
0
 10
144.800000
 20
162.800000
 42
-0.052323
  0
VERTEX
  8
0
 10
145.689791
 20
161.701582
 42
-0.167519
  0
VERTEX
  8
0
 10
145.914595
 20
160.799931
 42
-0.141610
  0
VERTEX
  8
0
 10
145.549005
 20
159.854448
 42
-0.033785
  0
VERTEX
  8
0
 10
144.428571
 20
158.571429
 42
-0.063971
  0
VERTEX
  8
0
 10
142.606552
 20
157.164254
 42
-0.239577
  0
VERTEX
  8
0
 10
141.206282
 20
157.080737
 42
-0.233028
  0
VERTEX
  8
0
 10
140.286269
 20
158.168164
 42
-0.061153
  0
VERTEX
  8
0
 10
140.000000
 20
160.500000
 42
-0.023397
  0
VERTEX
  8
0
 10
140.081861
 20
162.248471
 42
-0.095650
  0
VERTEX
  8
0
 10
140.378571
 20
163.263889
 42
-0.163899
  0
VERTEX
  8
0
 10
140.934291
 20
163.803698
 42
-0.111956
  0
VERTEX
  8
0
 10
141.800000
 20
164.000000
 42
-0.056383
  0
VERTEX
  8
0
 10
142.577103
 20
163.912090
 42
-0.038823
  0
VERTEX
  8
0
 10
143.423750
 20
163.647500
 42
-0.039117
  0
VERTEX
  8
0
 10
144.209158
 20
163.259641
 42
-0.062206
  0
SEQEND
  0
POLYLINE
  8
0
 66
1
 70
1
  0
VERTEX
  8
0
 10
151.000000
 20
167.418264
 42
0.120509
  0
VERTEX
  8
0
 10
151.097955
 20
167.017745
 42
0.002700
  0
VERTEX
  8
0
 10
152.028125
 20
165.253185
 42
0.005938
  0
VERTEX
  8
0
 10
153.158764
 20
163.195308
 42
0.003963
  0
VERTEX
  8
0
 10
154.500000
 20
160.864688
 42
-0.016818
  0
VERTEX
  8
0
 10
156.291185
 20
157.558426
 42
-0.041380
  0
VERTEX
  8
0
 10
157.315227
 20
154.995645
 42
-0.046847
  0
VERTEX
  8
0
 10
157.831822
 20
152.496111
 42
-0.027552
  0
VERTEX
  8
0
 10
158.000000
 20
149.446424
 42
0.009958
  0
VERTEX
  8
0
 10
158.061838
 20
146.341759
 42
0.078183
  0
VERTEX
  8
0
 10
158.341803
 20
144.930803
 42
0.189898
  0
VERTEX
  8
0
 10
158.946632
 20
144.251208
 42
0.117591
  0
VERTEX
  8
0
 10
160.000000
 20
144.000000
 42
0.104929
  0
VERTEX
  8
0
 10
161.038973
 20
144.220463
 42
0.188801
  0
VERTEX
  8
0
 10
161.642472
 20
144.831242
 42
0.088623
  0
VERTEX
  8
0
 10
161.932145
 20
146.071707
 42
0.013157
  0
VERTEX
  8
0
 10
162.000000
 20
148.649937
 42
-0.039985
  0
VERTEX
  8
0
 10
162.210868
 20
151.282550
 42
-0.043159
  0
VERTEX
  8
0
 10
162.838068
 20
153.779242
 42
-0.033950
  0
VERTEX
  8
0
 10
164.024106
 20
156.582473
 42
-0.013716
  0
VERTEX
  8
0
 10
166.000000
 20
160.237781
 42
0.002402
  0
VERTEX
  8
0
 10
167.533184
 20
162.926827
 42
0.003749
  0
VERTEX
  8
0
 10
168.825000
 20
165.258748
 42
0.001119
  0
VERTEX
  8
0
 10
169.925229
 20
167.291256
 42
0.124110
  0
VERTEX
  8
0
 10
170.000000
 20
167.587844
 42
0.331952
  0
VERTEX
  8
0
 10
169.879944
 20
167.748751
 42
0.027344
  0
VERTEX
  8
0
 10
169.339063
 20
167.877733
 42
0.028082
  0
VERTEX
  8
0
 10
168.612501
 20
167.967754
 42
0.017234
  0
VERTEX
  8
0
 10
167.750000
 20
167.995930
 42
0.111058
  0
VERTEX
  8
0
 10
166.559952
 20
167.726036
 42
0.078421
  0
VERTEX
  8
0
 10
165.424978
 20
166.948307
 42
0.054021
  0
VERTEX
  8
0
 10
164.251253
 20
165.570509
 42
0.020781
  0
VERTEX
  8
0
 10
162.922528
 20
163.432655
 42
0.000000
  0
VERTEX
  8
0
 10
160.345057
 20
158.873452
 42
0.000000
  0
VERTEX
  8
0
 10
157.924246
 20
163.436726
 42
0.020570
  0
VERTEX
  8
0
 10
156.656774
 20
165.605508
 42
0.056864
  0
VERTEX
  8
0
 10
155.541432
 20
166.974582
 42
0.084232
  0
VERTEX
  8
0
 10
154.442479
 20
167.735326
 42
0.109797
  0
VERTEX
  8
0
 10
153.251717
 20
168.000000
 42
0.024398
  0
VERTEX
  8
0
 10
152.388809
 20
167.957869
 42
0.038832
  0
VERTEX
  8
0
 10
151.661442
 20
167.829115
 42
0.045847
  0
VERTEX
  8
0
 10
151.143375
 20
167.643256
 42
0.291541
  0
SEQEND
  0
POLYLINE
  8
0
 66
1
 70
1
  0
VERTEX
  8
0
 10
226.000000
 20
156.000000
 42
0.000000
  0
VERTEX
  8
0
 10
226.000000
 20
144.000000
 42
0.000000
  0
VERTEX
  8
0
 10
232.500000
 20
144.000000
 42
0.007414
  0
VERTEX
  8
0
 10
236.303549
 20
144.056399
 42
0.067313
  0
VERTEX
  8
0
 10
237.937500
 20
144.326923
 42
0.186514
  0
VERTEX
  8
0
 10
238.707995
 20
144.933960
 42
0.134481
  0
VERTEX
  8
0
 10
239.000000
 20
146.000000
 42
0.102588
  0
VERTEX
  8
0
 10
238.785276
 20
147.035525
 42
0.188085
  0
VERTEX
  8
0
 10
238.187500
 20
147.638889
 42
0.090841
  0
VERTEX
  8
0
 10
236.979415
 20
147.930739
 42
0.013964
  0
VERTEX
  8
0
 10
234.500000
 20
148.000000
 42
-0.012019
  0
VERTEX
  8
0
 10
231.582500
 20
148.070142
 42
-0.154453
  0
VERTEX
  8
0
 10
230.571429
 20
148.444444
 42
-0.206324
  0
VERTEX
  8
0
 10
230.105988
 20
149.290758
 42
-0.023974
  0
VERTEX
  8
0
 10
230.000000
 20
151.500000
 42
-0.023974
  0
VERTEX
  8
0
 10
230.105988
 20
153.709242
 42
-0.206324
  0
VERTEX
  8
0
 10
230.571429
 20
154.555556
 42
-0.154453
  0
VERTEX
  8
0
 10
231.582500
 20
154.929858
 42
-0.012019
  0
VERTEX
  8
0
 10
234.500000
 20
155.000000
 42
0.013964
  0
VERTEX
  8
0
 10
236.979415
 20
155.069261
 42
0.090841
  0
VERTEX
  8
0
 10
238.187500
 20
155.361111
 42
0.188085
  0
VERTEX
  8
0
 10
238.785276
 20
155.964475
 42
0.102588
  0
VERTEX
  8
0
 10
239.000000
 20
157.000000
 42
0.102588
  0
VERTEX
  8
0
 10
238.785276
 20
158.035525
 42
0.188085
  0
VERTEX
  8
0
 10
238.187500
 20
158.638889
 42
0.090841
  0
VERTEX
  8
0
 10
236.979415
 20
158.930739
 42
0.013964
  0
VERTEX
  8
0
 10
234.500000
 20
159.000000
 42
-0.012699
  0
VERTEX
  8
0
 10
231.820113
 20
159.068074
 42
-0.114574
  0
VERTEX
  8
0
 10
230.700000
 20
159.388889
 42
-0.210352
  0
VERTEX
  8
0
 10
230.165617
 20
160.093239
 42
-0.058662
  0
VERTEX
  8
0
 10
230.000000
 20
161.500000
 42
-0.058662
  0
VERTEX
  8
0
 10
230.165617
 20
162.906761
 42
-0.210352
  0
VERTEX
  8
0
 10
230.700000
 20
163.611111
 42
-0.114574
  0
VERTEX
  8
0
 10
231.820113
 20
163.931926
 42
-0.012699
  0
VERTEX
  8
0
 10
234.500000
 20
164.000000
 42
0.013964
  0
VERTEX
  8
0
 10
236.979415
 20
164.069261
 42
0.090841
  0
VERTEX
  8
0
 10
238.187500
 20
164.361111
 42
0.188085
  0
VERTEX
  8
0
 10
238.785276
 20
164.964475
 42
0.102588
  0
VERTEX
  8
0
 10
239.000000
 20
166.000000
 42
0.134481
  0
VERTEX
  8
0
 10
238.707995
 20
167.066040
 42
0.186514
  0
VERTEX
  8
0
 10
237.937500
 20
167.673077
 42
0.067313
  0
VERTEX
  8
0
 10
236.303549
 20
167.943601
 42
0.007414
  0
VERTEX
  8
0
 10
232.500000
 20
168.000000
 42
0.000000
  0
VERTEX
  8
0
 10
226.000000
 20
168.000000
 42
0.000000
  0
SEQEND
  0
POLYLINE
  8
0
 66
1
 70
1
  0
VERTEX
  8
0
 10
52.219378
 20
120.356634
 42
0.000000
  0
VERTEX
  8
0
 10
49.188598
 20
112.500000
 42
0.000000
  0
VERTEX
  8
0
 10
47.594299
 20
116.250000
 42
-0.000705
  0
VERTEX
  8
0
 10
46.878686
 20
117.939831
 42
-0.000437
  0
VERTEX
  8
0
 10
46.042689
 20
119.926563
 42
-0.000438
  0
VERTEX
  8
0
 10
45.220687
 20
121.889643
 42
-0.000791
  0
VERTEX
  8
0
 10
44.551027
 20
123.500000
 42
0.031403
  0
VERTEX
  8
0
 10
43.764315
 20
125.106832
 42
0.070710
  0
VERTEX
  8
0
 10
42.935261
 20
126.176675
 42
0.094015
  0
VERTEX
  8
0
 10
42.010430
 20
126.786391
 42
0.099170
  0
VERTEX
  8
0
 10
40.944038
 20
127.000000
 42
0.040736
  0
VERTEX
  8
0
 10
39.917632
 20
126.916238
 42
0.175408
  0
VERTEX
  8
0
 10
39.391447
 20
126.621818
 42
0.209483
  0
VERTEX
  8
0
 10
39.228948
 20
126.097220
 42
0.060015
  0
VERTEX
  8
0
 10
39.429551
 20
125.250000
 42
0.005599
  0
VERTEX
  8
0
 10
42.308696
 20
117.683158
 42
0.005019
  0
VERTEX
  8
0
 10
45.460713
 20
109.900503
 42
0.000843
  0
VERTEX
  8
0
 10
48.629220
 20
102.333326
 42
0.299031
  0
VERTEX
  8
0
 10
49.116052
 20
102.006349
 42
0.293935
  0
VERTEX
  8
0
 10
49.438410
 20
102.209108
 42
0.004692
  0
VERTEX
  8
0
 10
50.375661
 20
104.262562
 42
0.010630
  0
VERTEX
  8
0
 10
51.418553
 20
106.746229
 42
0.006639
  0
VERTEX
  8
0
 10
52.538988
 20
109.695990
 42
-0.005313
  0
VERTEX
  8
0
 10
54.696542
 20
115.421861
 42
-0.394136
  0
VERTEX
  8
0
 10
55.519488
 20
115.818307
 42
-0.231241
  0
VERTEX
  8
0
 10
56.358018
 20
115.026985
 42
-0.002675
  0
VERTEX
  8
0
 10
59.086095
 20
107.656741
 42
0.015767
  0
VERTEX
  8
0
 10
59.959310
 20
105.474861
 42
0.029343
  0
VERTEX
  8
0
 10
60.823335
 20
103.777647
 42
0.034931
  0
VERTEX
  8
0
 10
61.575840
 20
102.676276
 42
0.456738
  0
VERTEX
  8
0
 10
62.012706
 20
102.656741
 42
0.089891
  0
VERTEX
  8
0
 10
62.902563
 20
104.017045
 42
0.000939
  0
VERTEX
  8
0
 10
67.314202
 20
114.506600
 42
0.000866
  0
VERTEX
  8
0
 10
71.707615
 20
125.059259
 42
0.098510
  0
VERTEX
  8
0
 10
72.000000
 20
126.528890
 42
0.313161
  0
VERTEX
  8
0
 10
71.851779
 20
126.742334
 42
0.056331
  0
VERTEX
  8
0
 10
71.355763
 20
126.865984
 42
0.043320
  0
VERTEX
  8
0
 10
70.647538
 20
126.898001
 42
0.025825
  0
VERTEX
  8
0
 10
69.806853
 20
126.819551
 42
0.125329
  0
VERTEX
  8
0
 10
68.634503
 20
126.332101
 42
0.075159
  0
VERTEX
  8
0
 10
67.570715
 20
125.251073
 42
0.047187
  0
VERTEX
  8
0
 10
66.488759
 20
123.417190
 42
0.014960
  0
VERTEX
  8
0
 10
65.225027
 20
120.500000
 42
-0.006285
  0
VERTEX
  8
0
 10
64.251271
 20
118.140809
 42
-0.008280
  0
VERTEX
  8
0
 10
63.300947
 20
116.016076
 42
-0.006270
  0
VERTEX
  8
0
 10
62.457263
 20
114.268085
 42
-0.076108
  0
VERTEX
  8
0
 10
62.029285
 20
113.661111
 42
-0.471891
  0
VERTEX
  8
0
 10
61.594027
 20
113.694729
 42
-0.030488
  0
VERTEX
  8
0
 10
60.834654
 20
114.930694
 42
-0.027040
  0
VERTEX
  8
0
 10
59.969192
 20
116.788708
 42
-0.014547
  0
VERTEX
  8
0
 10
59.095781
 20
119.161111
 42
0.005984
  0
VERTEX
  8
0
 10
56.761294
 20
125.853464
 42
0.268984
  0
VERTEX
  8
0
 10
55.676074
 20
126.763214
 42
0.348536
  0
VERTEX
  8
0
 10
54.570200
 20
126.161079
 42
0.008321
  0
SEQEND
  0
POLYLINE
  8
0
 66
1
 70
1
  0
VERTEX
  8
0
 10
76.040816
 20
116.750000
 42
0.000900
  0
VERTEX
  8
0
 10
71.354252
 20
106.673282
 42
0.034725
  0
VERTEX
  8
0
 10
70.470701
 20
104.354874
 42
0.296961
  0
VERTEX
  8
0
 10
70.742985
 20
103.417324
 42
0.179599
  0
VERTEX
  8
0
 10
71.867331
 20
103.000000
 42
0.103070
  0
VERTEX
  8
0
 10
72.840356
 20
103.202734
 42
0.069981
  0
VERTEX
  8
0
 10
73.807904
 20
103.796695
 42
0.059400
  0
VERTEX
  8
0
 10
74.713308
 20
104.745802
 42
0.041506
  0
VERTEX
  8
0
 10
75.500000
 20
106.000000
 42
-0.040259
  0
VERTEX
  8
0
 10
76.524364
 20
107.642178
 42
-0.117778
  0
VERTEX
  8
0
 10
77.539815
 20
108.494227
 42
-0.095190
  0
VERTEX
  8
0
 10
78.960284
 20
108.893231
 42
-0.021011
  0
VERTEX
  8
0
 10
81.500000
 20
109.000000
 42
-0.021011
  0
VERTEX
  8
0
 10
84.039716
 20
108.893231
 42
-0.095190
  0
VERTEX
  8
0
 10
85.460185
 20
108.494227
 42
-0.117778
  0
VERTEX
  8
0
 10
86.475636
 20
107.642178
 42
-0.040259
  0
VERTEX
  8
0
 10
87.500000
 20
106.000000
 42
0.095137
  0
VERTEX
  8
0
 10
89.043203
 20
104.039898
 42
0.112420
  0
VERTEX
  8
0
 10
91.120572
 20
102.931213
 42
0.287636
  0
VERTEX
  8
0
 10
92.365889
 20
103.308003
 42
0.277632
  0
VERTEX
  8
0
 10
92.596312
 20
104.609610
 42
0.011556
  0
VERTEX
  8
0
 10
90.187725
 20
110.477156
 42
0.004152
  0
VERTEX
  8
0
 10
86.497354
 20
118.720191
 42
0.000574
  0
VERTEX
  8
0
 10
82.396873
 20
127.651936
 42
0.284529
  0
VERTEX
  8
0
 10
81.898851
 20
127.981691
 42
0.285554
  0
VERTEX
  8
0
 10
81.559899
 20
127.784976
 42
0.001972
  0
VERTEX
  8
0
 10
79.930079
 20
124.689934
 42
0.006740
  0
VERTEX
  8
0
 10
78.099485
 20
121.061651
 42
0.004165
  0
SEQEND
  0
POLYLINE
  8
0
 66
1
 70
1
  0
VERTEX
  8
0
 10
83.454993
 20
115.250000
 42
-0.036750
  0
VERTEX
  8
0
 10
83.729076
 20
114.023983
 42
-0.214321
  0
VERTEX
  8
0
 10
83.553315
 20
113.402900
 42
-0.191590
  0
VERTEX
  8
0
 10
82.954420
 20
113.080243
 42
-0.028902
  0
VERTEX
  8
0
 10
81.567388
 20
113.000000
 42
-0.019464
  0
VERTEX
  8
0
 10
79.687386
 20
113.073214
 42
-0.285344
  0
VERTEX
  8
0
 10
79.176183
 20
113.448892
 42
-0.195143
  0
VERTEX
  8
0
 10
79.179365
 20
114.185699
 42
-0.009442
  0
VERTEX
  8
0
 10
80.172874
 20
116.480073
 42
-0.051065
  0
VERTEX
  8
0
 10
81.071746
 20
118.015720
 42
-0.336326
  0
VERTEX
  8
0
 10
81.872384
 20
118.254907
 42
-0.207192
  0
VERTEX
  8
0
 10
82.644768
 20
117.510165
 42
-0.025408
  0
SEQEND
  0
POLYLINE
  8
0
 66
1
 70
1
  0
VERTEX
  8
0
 10
96.015086
 20
115.750000
 42
0.002745
  0
VERTEX
  8
0
 10
96.049425
 20
107.778222
 42
0.036176
  0
VERTEX
  8
0
 10
96.291099
 20
104.841864
 42
0.137093
  0
VERTEX
  8
0
 10
96.894959
 20
103.514427
 42
0.221358
  0
VERTEX
  8
0
 10
98.000000
 20
103.000000
 42
0.154529
  0
VERTEX
  8
0
 10
99.076862
 20
103.340954
 42
0.176863
  0
VERTEX
  8
0
 10
99.690438
 20
104.223679
 42
0.057445
  0
VERTEX
  8
0
 10
99.963403
 20
106.125496
 42
0.005676
  0
VERTEX
  8
0
 10
100.039435
 20
110.750000
 42
0.000000
  0
VERTEX
  8
0
 10
100.078869
 20
118.500000
 42
0.000000
  0
VERTEX
  8
0
 10
107.983103
 20
110.250000
 42
0.003288
  0
VERTEX
  8
0
 10
111.053169
 20
107.087537
 42
0.005212
  0
VERTEX
  8
0
 10
113.728890
 20
104.423438
 42
0.001499
  0
VERTEX
  8
0
 10
116.076218
 20
102.148216
 42
0.194084
  0
VERTEX
  8
0
 10
116.443668
 20
102.000000
 42
0.399005
  0
VERTEX
  8
0
 10
116.669302
 20
102.214152
 42
0.001931
  0
VERTEX
  8
0
 10
116.836578
 20
105.671875
 42
0.006948
  0
VERTEX
  8
0
 10
116.960013
 20
109.706953
 42
0.004171
  0
VERTEX
  8
0
 10
117.000000
 20
114.500000
 42
0.002827
  0
VERTEX
  8
0
 10
116.955897
 20
122.300928
 42
0.036854
  0
VERTEX
  8
0
 10
116.710000
 20
125.187500
 42
0.138781
  0
VERTEX
  8
0
 10
116.104087
 20
126.493281
 42
0.218517
  0
VERTEX
  8
0
 10
115.000000
 20
127.000000
 42
0.150217
  0
VERTEX
  8
0
 10
113.925391
 20
126.669697
 42
0.180365
  0
VERTEX
  8
0
 10
113.316667
 20
125.812500
 42
0.059311
  0
VERTEX
  8
0
 10
113.052806
 20
123.968394
 42
0.005909
  0
VERTEX
  8
0
 10
113.000000
 20
119.500000
 42
-0.004620
  0
VERTEX
  8
0
 10
112.973428
 20
116.624184
 42
-0.007693
  0
VERTEX
  8
0
 10
112.891411
 20
114.203125
 42
-0.002362
  0
VERTEX
  8
0
 10
112.780009
 20
112.141138
 42
-0.397124
  0
VERTEX
  8
0
 10
112.630334
 20
112.000000
 42
-0.194576
  0
VERTEX
  8
0
 10
112.380136
 20
112.101196
 42
-0.000665
  0
VERTEX
  8
0
 10
109.985403
 20
114.423438
 42
-0.003436
  0
VERTEX
  8
0
 10
107.283192
 20
117.087206
 42
-0.002131
  0
VERTEX
  8
0
 10
104.145420
 20
120.250000
 42
0.000000
  0
VERTEX
  8
0
 10
96.030172
 20
128.500000
 42
0.000000
  0
SEQEND
  0
POLYLINE
  8
0
 66
1
 70
1
  0
VERTEX
  8
0
 10
142.500000
 20
127.198537
 42
0.079148
  0
VERTEX
  8
0
 10
140.335126
 20
126.389175
 42
0.082511
  0
VERTEX
  8
0
 10
138.563843
 20
124.955667
 42
0.085887
  0
VERTEX
  8
0
 10
137.403707
 20
123.082009
 42
0.096057
  0
VERTEX
  8
0
 10
137.000000
 20
121.000000
 42
0.093977
  0
VERTEX
  8
0
 10
137.390374
 20
118.941368
 42
0.091342
  0
VERTEX
  8
0
 10
138.508879
 20
117.145310
 42
0.068982
  0
VERTEX
  8
0
 10
140.488736
 20
115.498278
 42
0.030144
  0
VERTEX
  8
0
 10
143.500000
 20
113.869316
 42
-0.102208
  0
VERTEX
  8
0
 10
145.777221
 20
112.176256
 42
-0.171019
  0
VERTEX
  8
0
 10
146.672434
 20
109.992289
 42
-0.223432
  0
VERTEX
  8
0
 10
145.912521
 20
108.140392
 42
-0.157947
  0
VERTEX
  8
0
 10
143.835840
 20
107.191861
 42
-0.043576
  0
VERTEX
  8
0
 10
142.535755
 20
107.155380
 42
-0.107001
  0
VERTEX
  8
0
 10
141.619837
 20
107.411071
 42
-0.124562
  0
VERTEX
  8
0
 10
140.975987
 20
107.991066
 42
-0.070704
  0
VERTEX
  8
0
 10
140.518453
 20
108.941861
 42
0.040858
  0
VERTEX
  8
0
 10
139.956844
 20
110.312009
 42
0.194156
  0
VERTEX
  8
0
 10
139.330549
 20
110.857538
 42
0.188437
  0
VERTEX
  8
0
 10
138.488269
 20
110.824283
 42
0.038222
  0
VERTEX
  8
0
 10
137.142988
 20
110.109533
 42
0.225476
  0
VERTEX
  8
0
 10
136.292195
 20
108.759949
 42
0.139263
  0
VERTEX
  8
0
 10
136.592671
 20
106.871631
 42
0.100999
  0
VERTEX
  8
0
 10
138.019725
 20
104.938306
 42
0.084095
  0
VERTEX
  8
0
 10
140.179891
 20
103.566408
 42
0.096418
  0
VERTEX
  8
0
 10
144.222425
 20
102.722571
 42
0.133835
  0
VERTEX
  8
0
 10
147.787802
 20
103.642639
 42
0.142389
  0
VERTEX
  8
0
 10
150.245343
 20
106.180689
 42
0.114998
  0
VERTEX
  8
0
 10
151.215220
 20
109.864846
 42
0.071296
  0
VERTEX
  8
0
 10
150.924263
 20
112.407682
 42
0.102256
  0
VERTEX
  8
0
 10
149.920177
 20
114.433880
 42
0.079647
  0
VERTEX
  8
0
 10
147.981147
 20
116.232867
 42
0.029321
  0
VERTEX
  8
0
 10
144.751466
 20
118.126793
 42
-0.026886
  0
VERTEX
  8
0
 10
143.292890
 20
118.972609
 42
-0.039831
  0
VERTEX
  8
0
 10
142.124882
 20
119.877015
 42
-0.045994
  0
VERTEX
  8
0
 10
141.360349
 20
120.713697
 42
-0.246178
  0
VERTEX
  8
0
 10
141.261687
 20
121.303705
 42
-0.227402
  0
VERTEX
  8
0
 10
142.179788
 20
122.261451
 42
-0.058371
  0
VERTEX
  8
0
 10
144.319122
 20
122.791157
 42
-0.065818
  0
VERTEX
  8
0
 10
146.346941
 20
122.780341
 42
-0.374696
  0
VERTEX
  8
0
 10
147.000000
 20
122.031239
 42
0.158160
  0
VERTEX
  8
0
 10
147.137680
 20
121.606869
 42
0.241982
  0
VERTEX
  8
0
 10
147.475698
 20
121.435798
 42
0.100674
  0
VERTEX
  8
0
 10
148.088099
 20
121.564402
 42
0.020936
  0
VERTEX
  8
0
 10
149.082964
 20
122.044401
 42
0.023193
  0
VERTEX
  8
0
 10
150.288050
 20
122.763123
 42
0.212999
  0
VERTEX
  8
0
 10
150.607464
 20
123.264847
 42
0.202568
  0
VERTEX
  8
0
 10
150.455694
 20
123.853005
 42
0.020829
  0
VERTEX
  8
0
 10
149.518199
 20
124.979890
 42
0.058426
  0
VERTEX
  8
0
 10
148.024125
 20
126.286371
 42
0.074037
  0
VERTEX
  8
0
 10
146.378004
 20
127.089655
 42
0.072724
  0
VERTEX
  8
0
 10
144.545489
 20
127.387256
 42
0.053954
  0
SEQEND
  0
POLYLINE
  8
0
 66
1
 70
1
  0
VERTEX
  8
0
 10
238.040816
 20
116.750000
 42
0.000900
  0
VERTEX
  8
0
 10
233.354252
 20
106.673282
 42
0.034725
  0
VERTEX
  8
0
 10
232.470701
 20
104.354874
 42
0.296961
  0
VERTEX
  8
0
 10
232.742985
 20
103.417324
 42
0.179599
  0
VERTEX
  8
0
 10
233.867331
 20
103.000000
 42
0.103070
  0
VERTEX
  8
0
 10
234.840356
 20
103.202734
 42
0.069981
  0
VERTEX
  8
0
 10
235.807904
 20
103.796695
 42
0.059400
  0
VERTEX
  8
0
 10
236.713308
 20
104.745802
 42
0.041506
  0
VERTEX
  8
0
 10
237.500000
 20
106.000000
 42
-0.040259
  0
VERTEX
  8
0
 10
238.524364
 20
107.642178
 42
-0.117778
  0
VERTEX
  8
0
 10
239.539815
 20
108.494227
 42
-0.095190
  0
VERTEX
  8
0
 10
240.960284
 20
108.893231
 42
-0.021011
  0
VERTEX
  8
0
 10
243.500000
 20
109.000000
 42
-0.021011
  0
VERTEX
  8
0
 10
246.039716
 20
108.893231
 42
-0.095190
  0
VERTEX
  8
0
 10
247.460185
 20
108.494227
 42
-0.117778
  0
VERTEX
  8
0
 10
248.475636
 20
107.642178
 42
-0.040259
  0
VERTEX
  8
0
 10
249.500000
 20
106.000000
 42
0.095137
  0
VERTEX
  8
0
 10
251.043203
 20
104.039898
 42
0.112420
  0
VERTEX
  8
0
 10
253.120572
 20
102.931213
 42
0.287636
  0
VERTEX
  8
0
 10
254.365889
 20
103.308003
 42
0.277632
  0
VERTEX
  8
0
 10
254.596312
 20
104.609610
 42
0.011556
  0
VERTEX
  8
0
 10
252.187725
 20
110.477156
 42
0.004152
  0
VERTEX
  8
0
 10
248.497354
 20
118.720191
 42
0.000574
  0
VERTEX
  8
0
 10
244.396873
 20
127.651936
 42
0.284529
  0
VERTEX
  8
0
 10
243.898851
 20
127.981691
 42
0.285554
  0
VERTEX
  8
0
 10
243.559899
 20
127.784976
 42
0.001972
  0
VERTEX
  8
0
 10
241.930079
 20
124.689934
 42
0.006740
  0
VERTEX
  8
0
 10
240.099485
 20
121.061651
 42
0.004165
  0
SEQEND
  0
POLYLINE
  8
0
 66
1
 70
1
  0
VERTEX
  8
0
 10
245.454993
 20
115.250000
 42
-0.036750
  0
VERTEX
  8
0
 10
245.729076
 20
114.023983
 42
-0.214321
  0
VERTEX
  8
0
 10
245.553315
 20
113.402900
 42
-0.191590
  0
VERTEX
  8
0
 10
244.954420
 20
113.080243
 42
-0.028902
  0
VERTEX
  8
0
 10
243.567388
 20
113.000000
 42
-0.019464
  0
VERTEX
  8
0
 10
241.687386
 20
113.073214
 42
-0.285344
  0
VERTEX
  8
0
 10
241.176183
 20
113.448892
 42
-0.195143
  0
VERTEX
  8
0
 10
241.179365
 20
114.185699
 42
-0.009442
  0
VERTEX
  8
0
 10
242.172874
 20
116.480073
 42
-0.051065
  0
VERTEX
  8
0
 10
243.071746
 20
118.015720
 42
-0.336326
  0
VERTEX
  8
0
 10
243.872384
 20
118.254907
 42
-0.207192
  0
VERTEX
  8
0
 10
244.644768
 20
117.510165
 42
-0.025408
  0
SEQEND
  0
POLYLINE
  8
0
 66
1
 70
1
  0
VERTEX
  8
0
 10
120.000000
 20
125.000000
 42
0.075780
  0
VERTEX
  8
0
 10
120.142566
 20
124.064742
 42
0.149477
  0
VERTEX
  8
0
 10
120.562500
 20
123.450000
 42
0.124434
  0
VERTEX
  8
0
 10
121.317234
 20
123.106468
 42
0.044917
  0
VERTEX
  8
0
 10
122.500000
 20
123.000000
 42
0.000000
  0
VERTEX
  8
0
 10
125.000000
 20
123.000000
 42
0.000000
  0
VERTEX
  8
0
 10
125.000000
 20
113.000000
 42
0.003852
  0
VERTEX
  8
0
 10
125.047257
 20
106.866382
 42
0.045528
  0
VERTEX
  8
0
 10
125.300000
 20
104.500000
 42
0.160003
  0
VERTEX
  8
0
 10
125.909584
 20
103.422160
 42
0.186821
  0
VERTEX
  8
0
 10
127.000000
 20
103.000000
 42
0.185910
  0
VERTEX
  8
0
 10
128.090041
 20
103.419808
 42
0.160577
  0
VERTEX
  8
0
 10
128.699666
 20
104.491697
 42
0.045813
  0
VERTEX
  8
0
 10
128.952635
 20
106.844237
 42
0.003889
  0
VERTEX
  8
0
 10
129.000000
 20
112.933578
 42
0.000000
  0
VERTEX
  8
0
 10
129.000000
 20
122.867155
 42
0.000000
  0
VERTEX
  8
0
 10
131.741449
 20
123.183578
 42
0.050305
  0
VERTEX
  8
0
 10
132.881310
 20
123.433018
 42
0.069105
  0
VERTEX
  8
0
 10
133.823094
 20
123.892551
 42
0.081487
  0
VERTEX
  8
0
 10
134.486746
 20
124.516482
 42
0.117082
  0
VERTEX
  8
0
 10
134.814774
 20
125.250000
 42
0.204909
  0
VERTEX
  8
0
 10
134.614892
 20
126.157455
 42
0.180072
  0
VERTEX
  8
0
 10
133.805867
 20
126.703187
 42
0.053480
  0
VERTEX
  8
0
 10
131.929218
 20
126.949031
 42
0.005850
  0
VERTEX
  8
0
 10
127.573324
 20
127.000000
 42
0.005820
  0
VERTEX
  8
0
 10
123.056142
 20
126.947415
 42
0.058795
  0
VERTEX
  8
0
 10
121.196666
 20
126.683979
 42
0.179842
  0
VERTEX
  8
0
 10
120.333084
 20
126.075158
 42
0.151352
  0
SEQEND
  0
POLYLINE
  8
0
 66
1
 70
1
  0
VERTEX
  8
0
 10
163.000000
 20
125.000000
 42
0.075780
  0
VERTEX
  8
0
 10
163.142566
 20
124.064742
 42
0.149477
  0
VERTEX
  8
0
 10
163.562500
 20
123.450000
 42
0.124434
  0
VERTEX
  8
0
 10
164.317234
 20
123.106468
 42
0.044917
  0
VERTEX
  8
0
 10
165.500000
 20
123.000000
 42
0.000000
  0
VERTEX
  8
0
 10
168.000000
 20
123.000000
 42
0.000000
  0
VERTEX
  8
0
 10
168.000000
 20
113.000000
 42
0.003852
  0
VERTEX
  8
0
 10
168.047257
 20
106.866382
 42
0.045528
  0
VERTEX
  8
0
 10
168.300000
 20
104.500000
 42
0.160003
  0
VERTEX
  8
0
 10
168.909584
 20
103.422160
 42
0.186821
  0
VERTEX
  8
0
 10
170.000000
 20
103.000000
 42
0.185910
  0
VERTEX
  8
0
 10
171.090041
 20
103.419808
 42
0.160577
  0
VERTEX
  8
0
 10
171.699666
 20
104.491697
 42
0.045813
  0
VERTEX
  8
0
 10
171.952635
 20
106.844237
 42
0.003889
  0
VERTEX
  8
0
 10
172.000000
 20
112.933578
 42
0.000000
  0
VERTEX
  8
0
 10
172.000000
 20
122.867155
 42
0.000000
  0
VERTEX
  8
0
 10
174.741449
 20
123.183578
 42
0.050305
  0
VERTEX
  8
0
 10
175.881310
 20
123.433018
 42
0.069105
  0
VERTEX
  8
0
 10
176.823094
 20
123.892551
 42
0.081487
  0
VERTEX
  8
0
 10
177.486746
 20
124.516482
 42
0.117082
  0
VERTEX
  8
0
 10
177.814774
 20
125.250000
 42
0.204909
  0
VERTEX
  8
0
 10
177.614892
 20
126.157455
 42
0.180072
  0
VERTEX
  8
0
 10
176.805867
 20
126.703187
 42
0.053480
  0
VERTEX
  8
0
 10
174.929218
 20
126.949031
 42
0.005850
  0
VERTEX
  8
0
 10
170.573324
 20
127.000000
 42
0.005820
  0
VERTEX
  8
0
 10
166.056142
 20
126.947415
 42
0.058795
  0
VERTEX
  8
0
 10
164.196666
 20
126.683979
 42
0.179842
  0
VERTEX
  8
0
 10
163.333084
 20
126.075158
 42
0.151352
  0
SEQEND
  0
POLYLINE
  8
0
 66
1
 70
1
  0
VERTEX
  8
0
 10
183.143477
 20
124.467274
 42
0.145400
  0
VERTEX
  8
0
 10
178.972501
 20
118.135789
 42
0.162553
  0
VERTEX
  8
0
 10
179.180375
 20
110.856561
 42
0.162359
  0
VERTEX
  8
0
 10
183.721663
 20
105.156668
 42
0.145040
  0
VERTEX
  8
0
 10
191.000000
 20
103.000000
 42
0.107518
  0
VERTEX
  8
0
 10
196.648264
 20
104.228785
 42
0.122102
  0
VERTEX
  8
0
 10
200.977573
 20
107.668770
 42
0.122840
  0
VERTEX
  8
0
 10
203.182018
 20
112.714351
 42
0.109651
  0
VERTEX
  8
0
 10
202.890136
 20
118.435724
 42
0.134436
  0
VERTEX
  8
0
 10
199.897176
 20
123.466637
 42
0.118147
  0
VERTEX
  8
0
 10
194.616571
 20
126.572351
 42
0.117672
  0
VERTEX
  8
0
 10
188.484090
 20
126.954159
 42
0.132624
  0
SEQEND
  0
POLYLINE
  8
0
 66
1
 70
1
  0
VERTEX
  8
0
 10
196.685549
 20
120.825686
 42
-0.155205
  0
VERTEX
  8
0
 10
198.934874
 20
116.791708
 42
-0.146575
  0
VERTEX
  8
0
 10
198.509352
 20
112.096039
 42
-0.145933
  0
VERTEX
  8
0
 10
195.568214
 20
108.393345
 42
-0.153618
  0
VERTEX
  8
0
 10
191.140137
 20
107.000000
 42
-0.086924
  0
VERTEX
  8
0
 10
187.893185
 20
107.568773
 42
-0.105655
  0
VERTEX
  8
0
 10
185.277478
 20
109.199061
 42
-0.107783
  0
VERTEX
  8
0
 10
183.591991
 20
111.726334
 42
-0.093633
  0
VERTEX
  8
0
 10
183.000000
 20
114.859863
 42
-0.142579
  0
VERTEX
  8
0
 10
184.323032
 20
119.405199
 42
-0.149401
  0
VERTEX
  8
0
 10
187.860438
 20
122.431533
 42
-0.149836
  0
VERTEX
  8
0
 10
192.476835
 20
122.958340
 42
-0.143563
  0
SEQEND
  0
POLYLINE
  8
0
 66
1
 70
1
  0
VERTEX
  8
0
 10
217.000000
 20
115.000000
 42
0.000000
  0
VERTEX
  8
0
 10
217.000000
 20
103.000000
 42
0.000000
  0
VERTEX
  8
0
 10
224.073324
 20
103.000000
 42
0.006440
  0
VERTEX
  8
0
 10
228.114974
 20
103.052063
 42
0.057121
  0
VERTEX
  8
0
 10
229.876658
 20
103.300107
 42
0.186810
  0
VERTEX
  8
0
 10
230.635537
 20
103.845737
 42
0.193807
  0
VERTEX
  8
0
 10
230.814330
 20
104.750000
 42
0.142409
  0
VERTEX
  8
0
 10
230.384252
 20
105.595456
 42
0.108542
  0
VERTEX
  8
0
 10
229.523383
 20
106.185753
 42
0.062527
  0
VERTEX
  8
0
 10
228.071693
 20
106.571832
 42
0.017713
  0
VERTEX
  8
0
 10
225.741006
 20
106.804791
 42
-0.011786
  0
VERTEX
  8
0
 10
222.698311
 20
107.072536
 42
-0.140379
  0
VERTEX
  8
0
 10
221.616146
 20
107.517714
 42
-0.199870
  0
VERTEX
  8
0
 10
221.120808
 20
108.409437
 42
-0.028133
  0
VERTEX
  8
0
 10
221.000000
 20
110.554791
 42
-0.025001
  0
VERTEX
  8
0
 10
221.108277
 20
112.718865
 42
-0.207243
  0
VERTEX
  8
0
 10
221.576540
 20
113.558600
 42
-0.152501
  0
VERTEX
  8
0
 10
222.591889
 20
113.930085
 42
-0.012019
  0
VERTEX
  8
0
 10
225.500000
 20
114.000000
 42
0.013964
  0
VERTEX
  8
0
 10
227.979415
 20
114.069261
 42
0.090841
  0
VERTEX
  8
0
 10
229.187500
 20
114.361111
 42
0.188085
  0
VERTEX
  8
0
 10
229.785276
 20
114.964475
 42
0.102588
  0
VERTEX
  8
0
 10
230.000000
 20
116.000000
 42
0.102588
  0
VERTEX
  8
0
 10
229.785276
 20
117.035525
 42
0.188085
  0
VERTEX
  8
0
 10
229.187500
 20
117.638889
 42
0.090841
  0
VERTEX
  8
0
 10
227.979415
 20
117.930739
 42
0.013964
  0
VERTEX
  8
0
 10
225.500000
 20
118.000000
 42
-0.012699
  0
VERTEX
  8
0
 10
222.820113
 20
118.068074
 42
-0.114574
  0
VERTEX
  8
0
 10
221.700000
 20
118.388889
 42
-0.210352
  0
VERTEX
  8
0
 10
221.165617
 20
119.093239
 42
-0.058662
  0
VERTEX
  8
0
 10
221.000000
 20
120.500000
 42
-0.063163
  0
VERTEX
  8
0
 10
221.180083
 20
121.919849
 42
-0.217022
  0
VERTEX
  8
0
 10
221.750000
 20
122.625000
 42
-0.105983
  0
VERTEX
  8
0
 10
222.960310
 20
122.937230
 42
-0.010324
  0
VERTEX
  8
0
 10
226.000000
 20
123.000000
 42
0.011557
  0
VERTEX
  8
0
 10
228.809325
 20
123.064942
 42
0.083766
  0
VERTEX
  8
0
 10
230.125000
 20
123.350000
 42
0.189791
  0
VERTEX
  8
0
 10
230.766065
 20
123.953987
 42
0.110458
  0
VERTEX
  8
0
 10
231.000000
 20
125.000000
 42
0.142406
  0
VERTEX
  8
0
 10
230.688767
 20
126.070611
 42
0.183695
  0
VERTEX
  8
0
 10
229.875000
 20
126.678571
 42
0.063075
  0
VERTEX
  8
0
 10
228.135837
 20
126.945542
 42
0.006583
  0
VERTEX
  8
0
 10
224.000000
 20
127.000000
 42
0.000000
  0
VERTEX
  8
0
 10
217.000000
 20
127.000000
 42
0.000000
  0
SEQEND
  0
POLYLINE
  8
0
 66
1
 70
1
  0
VERTEX
  8
0
 10
254.000000
 20
125.000000
 42
0.075780
  0
VERTEX
  8
0
 10
254.142566
 20
124.064742
 42
0.149477
  0
VERTEX
  8
0
 10
254.562500
 20
123.450000
 42
0.124434
  0
VERTEX
  8
0
 10
255.317234
 20
123.106468
 42
0.044917
  0
VERTEX
  8
0
 10
256.500000
 20
123.000000
 42
0.000000
  0
VERTEX
  8
0
 10
259.000000
 20
123.000000
 42
0.000000
  0
VERTEX
  8
0
 10
259.000000
 20
113.000000
 42
0.000000
  0
VERTEX
  8
0
 10
259.000000
 20
103.000000
 42
0.000000
  0
VERTEX
  8
0
 10
261.500000
 20
103.000000
 42
0.000000
  0
VERTEX
  8
0
 10
264.000000
 20
103.000000
 42
0.000000
  0
VERTEX
  8
0
 10
264.000000
 20
113.000000
 42
0.000000
  0
VERTEX
  8
0
 10
264.000000
 20
123.000000
 42
0.000000
  0
VERTEX
  8
0
 10
266.500000
 20
123.000000
 42
0.044917
  0
VERTEX
  8
0
 10
267.682766
 20
123.106468
 42
0.124434
  0
VERTEX
  8
0
 10
268.437500
 20
123.450000
 42
0.149477
  0
VERTEX
  8
0
 10
268.857434
 20
124.064742
 42
0.075780
  0
VERTEX
  8
0
 10
269.000000
 20
125.000000
 42
0.150217
  0
VERTEX
  8
0
 10
268.669697
 20
126.074609
 42
0.180365
  0
VERTEX
  8
0
 10
267.812500
 20
126.683333
 42
0.059311
  0
VERTEX
  8
0
 10
265.968394
 20
126.947194
 42
0.005909
  0
VERTEX
  8
0
 10
261.500000
 20
127.000000
 42
0.005909
  0
VERTEX
  8
0
 10
257.031606
 20
126.947194
 42
0.059311
  0
VERTEX
  8
0
 10
255.187500
 20
126.683333
 42
0.180365
  0
VERTEX
  8
0
 10
254.330303
 20
126.074609
 42
0.150217
  0
SEQEND
  0
POLYLINE
  8
0
 66
1
 70
1
  0
VERTEX
  8
0
 10
271.059564
 20
104.250000
 42
-0.000389
  0
VERTEX
  8
0
 10
270.511548
 20
102.722647
 42
-0.000420
  0
VERTEX
  8
0
 10
269.974837
 20
101.234375
 42
-0.000395
  0
VERTEX
  8
0
 10
269.512251
 20
99.958169
 42
-0.002018
  0
VERTEX
  8
0
 10
269.251687
 20
99.250000
 42
0.124538
  0
VERTEX
  8
0
 10
269.199720
 20
98.774267
 42
0.149103
  0
VERTEX
  8
0
 10
269.388894
 20
98.367188
 42
0.128687
  0
VERTEX
  8
0
 10
269.801811
 20
98.094418
 42
0.082138
  0
VERTEX
  8
0
 10
270.372687
 20
98.000000
 42
0.172886
  0
VERTEX
  8
0
 10
271.122018
 20
98.267081
 42
0.039178
  0
VERTEX
  8
0
 10
272.113038
 20
99.214848
 42
0.036125
  0
VERTEX
  8
0
 10
273.145048
 20
100.552376
 42
0.028309
  0
VERTEX
  8
0
 10
274.069204
 20
102.135652
 42
0.012863
  0
VERTEX
  8
0
 10
275.121927
 20
104.337289
 42
0.066841
  0
VERTEX
  8
0
 10
275.502110
 20
105.626299
 42
0.142634
  0
VERTEX
  8
0
 10
275.390644
 20
106.478675
 42
0.149213
  0
VERTEX
  8
0
 10
274.839528
 20
107.120339
 42
0.050182
  0
VERTEX
  8
0
 10
273.496343
 20
107.793607
 42
0.259027
  0
VERTEX
  8
0
 10
272.702692
 20
107.679700
 42
0.133752
  0
VERTEX
  8
0
 10
272.050873
 20
106.831831
 42
0.011442
  0
SEQEND
  0
POLYLINE
  8
0
 66
1
 70
1
  0
VERTEX
  8
0
 10
172.246164
 20
83.000000
 42
0.006277
  0
VERTEX
  8
0
 10
171.407506
 20
80.988485
 42
0.004148
  0
VERTEX
  8
0
 10
170.492252
 20
78.657590
 42
0.004174
  0
VERTEX
  8
0
 10
169.640180
 20
76.376720
 42
0.008077
  0
VERTEX
  8
0
 10
169.003641
 20
74.536475
 42
0.000000
  0
VERTEX
  8
0
 10
167.703957
 20
70.572950
 42
0.000000
  0
VERTEX
  8
0
 10
164.767494
 20
78.286475
 42
0.008331
  0
VERTEX
  8
0
 10
163.069228
 20
82.533311
 42
0.050657
  0
VERTEX
  8
0
 10
161.939376
 20
84.609879
 42
0.110262
  0
VERTEX
  8
0
 10
160.845531
 20
85.632246
 42
0.133789
  0
VERTEX
  8
0
 10
159.495755
 20
86.000000
 42
0.219844
  0
VERTEX
  8
0
 10
158.408160
 20
85.497512
 42
0.233805
  0
VERTEX
  8
0
 10
158.123688
 20
84.363739
 42
0.040275
  0
VERTEX
  8
0
 10
158.924121
 20
81.720387
 42
0.002083
  0
VERTEX
  8
0
 10
162.219349
 20
73.439110
 42
0.006927
  0
VERTEX
  8
0
 10
164.213471
 20
68.679184
 42
0.012145
  0
VERTEX
  8
0
 10
166.012584
 20
64.806180
 42
0.006459
  0
VERTEX
  8
0
 10
167.573529
 20
61.748975
 42
0.517430
  0
VERTEX
  8
0
 10
168.028545
 20
61.689110
 42
0.080684
  0
VERTEX
  8
0
 10
168.423731
 20
62.284981
 42
0.005858
  0
VERTEX
  8
0
 10
169.217800
 20
64.097738
 42
0.008073
  0
VERTEX
  8
0
 10
170.108999
 20
66.296996
 42
0.006019
  0
VERTEX
  8
0
 10
171.023426
 20
68.750000
 42
-0.008654
  0
VERTEX
  8
0
 10
171.930887
 20
71.145668
 42
-0.013657
  0
VERTEX
  8
0
 10
172.800266
 20
73.164062
 42
-0.007595
  0
VERTEX
  8
0
 10
173.585749
 20
74.793402
 42
-0.283875
  0
VERTEX
  8
0
 10
173.920315
 20
75.000000
 42
-0.290587
  0
VERTEX
  8
0
 10
174.255086
 20
74.787496
 42
-0.006283
  0
VERTEX
  8
0
 10
175.094060
 20
72.943750
 42
-0.012383
  0
VERTEX
  8
0
 10
176.022456
 20
70.683284
 42
-0.007788
  0
VERTEX
  8
0
 10
177.000000
 20
68.000000
 42
0.007337
  0
VERTEX
  8
0
 10
177.974826
 20
65.316660
 42
0.011701
  0
VERTEX
  8
0
 10
178.894848
 20
63.056250
 42
0.005637
  0
VERTEX
  8
0
 10
179.725374
 20
61.202521
 42
0.292516
  0
VERTEX
  8
0
 10
180.041924
 20
61.000000
 42
0.284362
  0
VERTEX
  8
0
 10
180.374134
 20
61.205558
 42
0.003468
  0
VERTEX
  8
0
 10
181.533007
 20
63.570312
 42
0.009017
  0
VERTEX
  8
0
 10
182.831157
 20
66.395680
 42
0.005624
  0
VERTEX
  8
0
 10
184.254935
 20
69.750000
 42
-0.000386
  0
VERTEX
  8
0
 10
185.748988
 20
73.374999
 42
-0.000375
  0
VERTEX
  8
0
 10
187.262435
 20
77.031250
 42
-0.000370
  0
VERTEX
  8
0
 10
188.597500
 20
80.243003
 42
-0.001399
  0
VERTEX
  8
0
 10
189.440107
 20
82.250000
 42
0.006656
  0
VERTEX
  8
0
 10
190.455702
 20
84.742135
 42
0.144899
  0
VERTEX
  8
0
 10
190.522685
 20
85.520298
 42
0.320366
  0
VERTEX
  8
0
 10
190.105934
 20
85.907606
 42
0.032193
  0
VERTEX
  8
0
 10
188.672409
 20
86.000000
 42
0.125102
  0
VERTEX
  8
0
 10
187.326358
 20
85.657858
 42
0.109816
  0
VERTEX
  8
0
 10
186.230285
 20
84.703145
 42
0.053571
  0
VERTEX
  8
0
 10
185.109073
 20
82.782605
 42
0.009666
  0
VERTEX
  8
0
 10
183.488229
 20
78.970760
 42
-0.011972
  0
VERTEX
  8
0
 10
182.350842
 20
76.329776
 42
-0.021649
  0
VERTEX
  8
0
 10
181.276613
 20
74.235262
 42
-0.019698
  0
VERTEX
  8
0
 10
180.354493
 20
72.753216
 42
-0.481806
  0
VERTEX
  8
0
 10
179.933016
 20
72.720760
 42
-0.084302
  0
VERTEX
  8
0
 10
179.544236
 20
73.312268
 42
-0.004799
  0
VERTEX
  8
0
 10
178.683558
 20
75.327348
 42
-0.007231
  0
VERTEX
  8
0
 10
177.712315
 20
77.761811
 42
-0.005237
  0
VERTEX
  8
0
 10
176.698277
 20
80.500000
 42
0.000000
  0
VERTEX
  8
0
 10
174.189002
 20
87.500000
 42
0.000000
  0
SEQEND
  0
POLYLINE
  8
0
 66
1
 70
1
  0
VERTEX
  8
0
 10
207.029029
 20
76.513705
 42
-0.000736
  0
VERTEX
  8
0
 10
204.964091
 20
72.177200
 42
-0.000975
  0
VERTEX
  8
0
 10
203.071075
 20
68.236545
 42
-0.000693
  0
VERTEX
  8
0
 10
201.472810
 20
64.937707
 42
-0.009712
  0
VERTEX
  8
0
 10
200.873539
 20
63.763705
 42
0.042718
  0
VERTEX
  8
0
 10
200.473090
 20
62.832207
 42
0.259456
  0
VERTEX
  8
0
 10
200.567230
 20
62.334905
 42
0.196333
  0
VERTEX
  8
0
 10
201.077897
 20
62.063664
 42
0.025136
  0
VERTEX
  8
0
 10
202.343496
 20
62.000000
 42
0.073969
  0
VERTEX
  8
0
 10
203.529188
 20
62.176375
 42
0.098252
  0
VERTEX
  8
0
 10
204.488211
 20
62.689404
 42
0.083194
  0
VERTEX
  8
0
 10
205.287519
 20
63.604983
 42
0.039770
  0
VERTEX
  8
0
 10
206.000000
 20
65.000000
 42
-0.042143
  0
VERTEX
  8
0
 10
206.872782
 20
66.689076
 42
-0.137348
  0
VERTEX
  8
0
 10
207.796738
 20
67.527049
 42
-0.099662
  0
VERTEX
  8
0
 10
209.197016
 20
67.907030
 42
-0.016580
  0
VERTEX
  8
0
 10
212.000000
 20
68.000000
 42
-0.016580
  0
VERTEX
  8
0
 10
214.802984
 20
67.907030
 42
-0.099662
  0
VERTEX
  8
0
 10
216.203262
 20
67.527049
 42
-0.137348
  0
VERTEX
  8
0
 10
217.127218
 20
66.689076
 42
-0.042143
  0
VERTEX
  8
0
 10
218.000000
 20
65.000000
 42
0.040068
  0
VERTEX
  8
0
 10
218.701841
 20
63.627836
 42
0.079790
  0
VERTEX
  8
0
 10
219.497141
 20
62.706539
 42
0.095355
  0
VERTEX
  8
0
 10
220.437022
 20
62.181687
 42
0.079958
  0
VERTEX
  8
0
 10
221.565901
 20
62.000000
 42
0.000000
  0
VERTEX
  8
0
 10
223.889162
 20
62.000000
 42
0.000000
  0
VERTEX
  8
0
 10
221.896997
 20
66.750000
 42
0.005750
  0
VERTEX
  8
0
 10
220.870805
 20
69.119997
 42
0.002094
  0
VERTEX
  8
0
 10
219.364348
 20
72.454687
 42
0.002076
  0
VERTEX
  8
0
 10
217.685917
 20
76.088960
 42
0.002479
  0
VERTEX
  8
0
 10
216.072723
 20
79.500000
 42
0.000000
  0
VERTEX
  8
0
 10
212.240614
 20
87.500000
 42
0.000000
  0
SEQEND
  0
POLYLINE
  8
0
 66
1
 70
1
  0
VERTEX
  8
0
 10
212.750003
 20
72.169197
 42
-0.059221
  0
VERTEX
  8
0
 10
211.062636
 20
72.081099
 42
-0.264561
  0
VERTEX
  8
0
 10
210.266558
 20
72.606554
 42
-0.193484
  0
VERTEX
  8
0
 10
210.168203
 20
73.722993
 42
-0.033502
  0
VERTEX
  8
0
 10
210.932711
 20
75.745774
 42
0.000000
  0
VERTEX
  8
0
 10
212.190302
 20
78.500000
 42
0.000000
  0
VERTEX
  8
0
 10
213.431018
 20
75.500000
 42
-0.014129
  0
VERTEX
  8
0
 10
214.104612
 20
73.731373
 42
-0.135144
  0
VERTEX
  8
0
 10
214.158135
 20
72.933492
 42
-0.248649
  0
VERTEX
  8
0
 10
213.773013
 20
72.466005
 42
-0.056014
  0
SEQEND
  0
POLYLINE
  8
0
 66
1
 70
1
  0
VERTEX
  8
0
 10
61.000000
 20
74.000000
 42
0.000000
  0
VERTEX
  8
0
 10
61.000000
 20
62.000000
 42
0.000000
  0
VERTEX
  8
0
 10
65.825686
 20
62.000000
 42
0.022655
  0
VERTEX
  8
0
 10
68.321639
 20
62.113151
 42
0.057241
  0
VERTEX
  8
0
 10
70.098581
 20
62.482545
 42
0.071043
  0
VERTEX
  8
0
 10
71.509656
 20
63.183716
 42
0.053449
  0
VERTEX
  8
0
 10
72.825686
 20
64.314451
 42
0.082728
  0
VERTEX
  8
0
 10
74.279465
 20
66.489898
 42
0.086644
  0
VERTEX
  8
0
 10
74.919577
 20
68.984570
 42
0.097471
  0
VERTEX
  8
0
 10
74.649355
 20
71.303380
 42
0.142894
  0
VERTEX
  8
0
 10
73.506853
 20
72.994313
 42
-0.095669
  0
VERTEX
  8
0
 10
72.865511
 20
73.775643
 42
-0.077490
  0
VERTEX
  8
0
 10
72.501258
 20
74.799225
 42
-0.058644
  0
VERTEX
  8
0
 10
72.407585
 20
76.134024
 42
-0.027147
  0
VERTEX
  8
0
 10
72.583841
 20
77.866757
 42
0.092542
  0
VERTEX
  8
0
 10
72.486957
 20
81.217441
 42
0.135711
  0
VERTEX
  8
0
 10
71.124690
 20
83.813546
 42
0.127882
  0
VERTEX
  8
0
 10
68.547803
 20
85.441360
 42
0.077409
  0
VERTEX
  8
0
 10
64.961045
 20
86.000000
 42
0.000000
  0
VERTEX
  8
0
 10
61.000000
 20
86.000000
 42
0.000000
  0
SEQEND
  0
POLYLINE
  8
0
 66
1
 70
1
  0
VERTEX
  8
0
 10
68.500000
 20
79.000000
 42
-0.054239
  0
VERTEX
  8
0
 10
68.384440
 20
77.937852
 42
-0.085284
  0
VERTEX
  8
0
 10
68.038986
 20
77.089983
 42
-0.100563
  0
VERTEX
  8
0
 10
67.482254
 20
76.501297
 42
-0.106041
  0
VERTEX
  8
0
 10
66.750000
 20
76.190371
 42
-0.100057
  0
VERTEX
  8
0
 10
65.899296
 20
76.198194
 42
-0.204036
  0
VERTEX
  8
0
 10
65.362261
 20
76.574492
 42
-0.115792
  0
VERTEX
  8
0
 10
65.075836
 20
77.420352
 42
-0.023990
  0
VERTEX
  8
0
 10
65.000000
 20
79.000000
 42
-0.023990
  0
VERTEX
  8
0
 10
65.075836
 20
80.579648
 42
-0.115792
  0
VERTEX
  8
0
 10
65.362261
 20
81.425508
 42
-0.204036
  0
VERTEX
  8
0
 10
65.899296
 20
81.801806
 42
-0.100057
  0
VERTEX
  8
0
 10
66.750000
 20
81.809629
 42
-0.106041
  0
VERTEX
  8
0
 10
67.482254
 20
81.498703
 42
-0.100563
  0
VERTEX
  8
0
 10
68.038986
 20
80.910017
 42
-0.085284
  0
VERTEX
  8
0
 10
68.384440
 20
80.062148
 42
-0.054239
  0
SEQEND
  0
POLYLINE
  8
0
 66
1
 70
1
  0
VERTEX
  8
0
 10
70.643260
 20
70.487265
 42
-0.158111
  0
VERTEX
  8
0
 10
70.721510
 20
69.006151
 42
-0.109775
  0
VERTEX
  8
0
 10
69.942441
 20
67.507929
 42
-0.101710
  0
VERTEX
  8
0
 10
68.537164
 20
66.394859
 42
-0.117324
  0
VERTEX
  8
0
 10
66.877555
 20
66.000000
 42
-0.093955
  0
VERTEX
  8
0
 10
65.984504
 20
66.169307
 42
-0.160576
  0
VERTEX
  8
0
 10
65.406463
 20
66.649456
 42
-0.109107
  0
VERTEX
  8
0
 10
65.091308
 20
67.535150
 42
-0.031136
  0
VERTEX
  8
0
 10
65.000000
 20
69.000000
 42
-0.030112
  0
VERTEX
  8
0
 10
65.097605
 20
70.619215
 42
-0.146144
  0
VERTEX
  8
0
 10
65.460949
 20
71.453719
 42
-0.172948
  0
VERTEX
  8
0
 10
66.184455
 20
71.875119
 42
-0.046258
  0
VERTEX
  8
0
 10
67.531385
 20
72.000000
 42
-0.055457
  0
VERTEX
  8
0
 10
68.542645
 20
71.887490
 42
-0.057784
  0
VERTEX
  8
0
 10
69.489694
 20
71.555634
 42
-0.064283
  0
VERTEX
  8
0
 10
70.235095
 20
71.066346
 42
-0.124419
  0
SEQEND
  0
POLYLINE
  8
0
 66
1
 70
1
  0
VERTEX
  8
0
 10
79.000000
 20
76.174314
 42
0.005612
  0
VERTEX
  8
0
 10
79.066553
 20
70.244768
 42
0.043783
  0
VERTEX
  8
0
 10
79.369463
 20
67.501073
 42
0.089647
  0
VERTEX
  8
0
 10
80.072334
 20
65.722141
 42
0.065471
  0
VERTEX
  8
0
 10
81.420896
 20
64.074314
 42
0.100252
  0
VERTEX
  8
0
 10
84.279603
 20
62.304464
 42
0.095636
  0
VERTEX
  8
0
 10
87.651094
 20
61.747143
 42
0.094597
  0
VERTEX
  8
0
 10
91.018472
 20
62.484268
 42
0.095605
  0
VERTEX
  8
0
 10
93.863261
 20
64.408715
 42
0.052512
  0
VERTEX
  8
0
 10
95.331334
 20
66.222406
 42
0.089671
  0
VERTEX
  8
0
 10
96.081964
 20
68.014378
 42
0.047748
  0
VERTEX
  8
0
 10
96.406086
 20
70.649346
 42
0.006364
  0
VERTEX
  8
0
 10
96.485988
 20
76.258715
 42
0.004224
  0
VERTEX
  8
0
 10
96.445706
 20
82.069210
 42
0.053641
  0
VERTEX
  8
0
 10
96.178948
 20
84.234838
 42
0.170960
  0
VERTEX
  8
0
 10
95.509103
 20
85.283613
 42
0.131420
  0
VERTEX
  8
0
 10
94.250000
 20
85.819551
 42
0.134076
  0
VERTEX
  8
0
 10
92.981730
 20
85.659565
 42
0.235591
  0
VERTEX
  8
0
 10
92.303547
 20
84.880070
 42
0.059712
  0
VERTEX
  8
0
 10
92.042766
 20
82.945316
 42
0.003675
  0
VERTEX
  8
0
 10
92.000000
 20
77.126255
 42
-0.006086
  0
VERTEX
  8
0
 10
91.935365
 20
71.816183
 42
-0.045394
  0
VERTEX
  8
0
 10
91.646062
 20
69.313111
 42
-0.098443
  0
VERTEX
  8
0
 10
90.996450
 20
67.785357
 42
-0.090618
  0
VERTEX
  8
0
 10
89.796379
 20
66.569931
 42
-0.031220
  0
VERTEX
  8
0
 10
88.532011
 20
65.797186
 42
-0.110949
  0
VERTEX
  8
0
 10
87.621144
 20
65.549817
 42
-0.119170
  0
VERTEX
  8
0
 10
86.728835
 20
65.724237
 42
-0.038720
  0
VERTEX
  8
0
 10
85.546379
 20
66.382022
 42
-0.108588
  0
VERTEX
  8
0
 10
84.454475
 20
67.509412
 42
-0.083718
  0
VERTEX
  8
0
 10
83.808121
 20
69.099747
 42
-0.040319
  0
VERTEX
  8
0
 10
83.442133
 20
71.727379
 42
-0.006581
  0
VERTEX
  8
0
 10
83.212474
 20
76.868794
 42
0.004767
  0
VERTEX
  8
0
 10
82.989440
 20
82.304060
 42
0.047799
  0
VERTEX
  8
0
 10
82.659000
 20
84.550146
 42
0.151992
  0
VERTEX
  8
0
 10
82.027746
 20
85.595467
 42
0.183481
  0
VERTEX
  8
0
 10
80.962474
 20
86.000000
 42
0.191120
  0
VERTEX
  8
0
 10
79.898557
 20
85.577910
 42
0.155815
  0
VERTEX
  8
0
 10
79.299932
 20
84.498304
 42
0.045292
  0
VERTEX
  8
0
 10
79.048034
 20
82.144522
 42
0.004023
  0
SEQEND
  0
POLYLINE
  8
0
 66
1
 70
1
  0
VERTEX
  8
0
 10
100.000000
 20
84.000000
 42
0.075780
  0
VERTEX
  8
0
 10
100.142566
 20
83.064742
 42
0.149477
  0
VERTEX
  8
0
 10
100.562500
 20
82.450000
 42
0.124434
  0
VERTEX
  8
0
 10
101.317234
 20
82.106468
 42
0.044917
  0
VERTEX
  8
0
 10
102.500000
 20
82.000000
 42
0.000000
  0
VERTEX
  8
0
 10
105.000000
 20
82.000000
 42
0.000000
  0
VERTEX
  8
0
 10
105.000000
 20
72.000000
 42
0.003852
  0
VERTEX
  8
0
 10
105.047257
 20
65.866382
 42
0.045528
  0
VERTEX
  8
0
 10
105.300000
 20
63.500000
 42
0.160003
  0
VERTEX
  8
0
 10
105.909584
 20
62.422160
 42
0.186821
  0
VERTEX
  8
0
 10
107.000000
 20
62.000000
 42
0.185910
  0
VERTEX
  8
0
 10
108.090041
 20
62.419808
 42
0.160577
  0
VERTEX
  8
0
 10
108.699666
 20
63.491697
 42
0.045813
  0
VERTEX
  8
0
 10
108.952635
 20
65.844237
 42
0.003889
  0
VERTEX
  8
0
 10
109.000000
 20
71.933578
 42
0.000000
  0
VERTEX
  8
0
 10
109.000000
 20
81.867155
 42
0.000000
  0
VERTEX
  8
0
 10
111.741449
 20
82.183578
 42
0.050305
  0
VERTEX
  8
0
 10
112.881310
 20
82.433018
 42
0.069105
  0
VERTEX
  8
0
 10
113.823094
 20
82.892551
 42
0.081487
  0
VERTEX
  8
0
 10
114.486746
 20
83.516482
 42
0.117082
  0
VERTEX
  8
0
 10
114.814774
 20
84.250000
 42
0.204909
  0
VERTEX
  8
0
 10
114.614892
 20
85.157455
 42
0.180072
  0
VERTEX
  8
0
 10
113.805867
 20
85.703187
 42
0.053480
  0
VERTEX
  8
0
 10
111.929218
 20
85.949031
 42
0.005850
  0
VERTEX
  8
0
 10
107.573324
 20
86.000000
 42
0.005820
  0
VERTEX
  8
0
 10
103.056142
 20
85.947415
 42
0.058795
  0
VERTEX
  8
0
 10
101.196666
 20
85.683979
 42
0.179842
  0
VERTEX
  8
0
 10
100.333084
 20
85.075158
 42
0.151352
  0
SEQEND
  0
POLYLINE
  8
0
 66
1
 70
1
  0
VERTEX
  8
0
 10
127.000000
 20
74.000000
 42
0.002988
  0
VERTEX
  8
0
 10
127.044620
 20
66.532631
 42
0.038318
  0
VERTEX
  8
0
 10
127.291667
 20
63.750000
 42
0.142907
  0
VERTEX
  8
0
 10
127.898615
 20
62.490438
 42
0.212584
  0
VERTEX
  8
0
 10
129.000000
 20
62.000000
 42
0.118451
  0
VERTEX
  8
0
 10
130.054152
 20
62.253284
 42
0.189837
  0
VERTEX
  8
0
 10
130.659091
 20
62.937500
 42
0.077556
  0
VERTEX
  8
0
 10
130.938496
 20
64.359853
 42
0.009792
  0
VERTEX
  8
0
 10
131.000000
 20
67.500000
 42
0.000000
  0
VERTEX
  8
0
 10
131.000000
 20
73.000000
 42
0.000000
  0
VERTEX
  8
0
 10
135.000000
 20
73.000000
 42
0.017388
  0
VERTEX
  8
0
 10
137.150836
 20
73.074821
 42
0.098846
  0
VERTEX
  8
0
 10
138.250000
 20
73.375000
 42
0.184152
  0
VERTEX
  8
0
 10
138.804216
 20
73.978414
 42
0.094959
  0
VERTEX
  8
0
 10
139.000000
 20
75.000000
 42
0.094959
  0
VERTEX
  8
0
 10
138.804216
 20
76.021586
 42
0.184152
  0
VERTEX
  8
0
 10
138.250000
 20
76.625000
 42
0.098846
  0
VERTEX
  8
0
 10
137.150836
 20
76.925179
 42
0.017388
  0
VERTEX
  8
0
 10
135.000000
 20
77.000000
 42
-0.016149
  0
VERTEX
  8
0
 10
132.678456
 20
77.074999
 42
-0.124134
  0
VERTEX
  8
0
 10
131.650000
 20
77.406250
 42
-0.201266
  0
VERTEX
  8
0
 10
131.151756
 20
78.111634
 42
-0.054490
  0
VERTEX
  8
0
 10
131.000000
 20
79.500000
 42
-0.054490
  0
VERTEX
  8
0
 10
131.151756
 20
80.888366
 42
-0.201266
  0
VERTEX
  8
0
 10
131.650000
 20
81.593750
 42
-0.124134
  0
VERTEX
  8
0
 10
132.678456
 20
81.925001
 42
-0.016149
  0
VERTEX
  8
0
 10
135.000000
 20
82.000000
 42
0.017388
  0
VERTEX
  8
0
 10
137.150836
 20
82.074821
 42
0.098846
  0
VERTEX
  8
0
 10
138.250000
 20
82.375000
 42
0.184152
  0
VERTEX
  8
0
 10
138.804216
 20
82.978414
 42
0.094959
  0
VERTEX
  8
0
 10
139.000000
 20
84.000000
 42
0.126480
  0
VERTEX
  8
0
 10
138.727332
 20
85.060666
 42
0.188641
  0
VERTEX
  8
0
 10
138.000000
 20
85.666667
 42
0.072107
  0
VERTEX
  8
0
 10
136.471613
 20
85.941290
 42
0.008455
  0
VERTEX
  8
0
 10
133.000000
 20
86.000000
 42
0.000000
  0
VERTEX
  8
0
 10
127.000000
 20
86.000000
 42
0.000000
  0
SEQEND
  0
POLYLINE
  8
0
 66
1
 70
1
  0
VERTEX
  8
0
 10
143.000000
 20
74.000000
 42
0.000000
  0
VERTEX
  8
0
 10
143.000000
 20
62.000000
 42
0.000000
  0
VERTEX
  8
0
 10
149.500000
 20
62.000000
 42
0.007414
  0
VERTEX
  8
0
 10
153.303549
 20
62.056399
 42
0.067313
  0
VERTEX
  8
0
 10
154.937500
 20
62.326923
 42
0.186514
  0
VERTEX
  8
0
 10
155.707995
 20
62.933960
 42
0.134481
  0
VERTEX
  8
0
 10
156.000000
 20
64.000000
 42
0.102588
  0
VERTEX
  8
0
 10
155.785276
 20
65.035525
 42
0.188085
  0
VERTEX
  8
0
 10
155.187500
 20
65.638889
 42
0.090841
  0
VERTEX
  8
0
 10
153.979415
 20
65.930739
 42
0.013964
  0
VERTEX
  8
0
 10
151.500000
 20
66.000000
 42
-0.012019
  0
VERTEX
  8
0
 10
148.582500
 20
66.070142
 42
-0.154453
  0
VERTEX
  8
0
 10
147.571429
 20
66.444444
 42
-0.206324
  0
VERTEX
  8
0
 10
147.105988
 20
67.290758
 42
-0.023974
  0
VERTEX
  8
0
 10
147.000000
 20
69.500000
 42
-0.023974
  0
VERTEX
  8
0
 10
147.105988
 20
71.709242
 42
-0.206324
  0
VERTEX
  8
0
 10
147.571429
 20
72.555556
 42
-0.154453
  0
VERTEX
  8
0
 10
148.582500
 20
72.929858
 42
-0.012019
  0
VERTEX
  8
0
 10
151.500000
 20
73.000000
 42
0.013964
  0
VERTEX
  8
0
 10
153.979415
 20
73.069261
 42
0.090841
  0
VERTEX
  8
0
 10
155.187500
 20
73.361111
 42
0.188085
  0
VERTEX
  8
0
 10
155.785276
 20
73.964475
 42
0.102588
  0
VERTEX
  8
0
 10
156.000000
 20
75.000000
 42
0.102588
  0
VERTEX
  8
0
 10
155.785276
 20
76.035525
 42
0.188085
  0
VERTEX
  8
0
 10
155.187500
 20
76.638889
 42
0.090841
  0
VERTEX
  8
0
 10
153.979415
 20
76.930739
 42
0.013964
  0
VERTEX
  8
0
 10
151.500000
 20
77.000000
 42
-0.012699
  0
VERTEX
  8
0
 10
148.820113
 20
77.068074
 42
-0.114574
  0
VERTEX
  8
0
 10
147.700000
 20
77.388889
 42
-0.210352
  0
VERTEX
  8
0
 10
147.165617
 20
78.093239
 42
-0.058662
  0
VERTEX
  8
0
 10
147.000000
 20
79.500000
 42
-0.058662
  0
VERTEX
  8
0
 10
147.165617
 20
80.906761
 42
-0.210352
  0
VERTEX
  8
0
 10
147.700000
 20
81.611111
 42
-0.114574
  0
VERTEX
  8
0
 10
148.820113
 20
81.931926
 42
-0.012699
  0
VERTEX
  8
0
 10
151.500000
 20
82.000000
 42
0.013964
  0
VERTEX
  8
0
 10
153.979415
 20
82.069261
 42
0.090841
  0
VERTEX
  8
0
 10
155.187500
 20
82.361111
 42
0.188085
  0
VERTEX
  8
0
 10
155.785276
 20
82.964475
 42
0.102588
  0
VERTEX
  8
0
 10
156.000000
 20
84.000000
 42
0.134481
  0
VERTEX
  8
0
 10
155.707995
 20
85.066040
 42
0.186514
  0
VERTEX
  8
0
 10
154.937500
 20
85.673077
 42
0.067313
  0
VERTEX
  8
0
 10
153.303549
 20
85.943601
 42
0.007414
  0
VERTEX
  8
0
 10
149.500000
 20
86.000000
 42
0.000000
  0
VERTEX
  8
0
 10
143.000000
 20
86.000000
 42
0.000000
  0
SEQEND
  0
POLYLINE
  8
0
 66
1
 70
1
  0
VERTEX
  8
0
 10
226.000000
 20
74.000000
 42
0.003074
  0
VERTEX
  8
0
 10
226.045385
 20
66.619161
 42
0.037118
  0
VERTEX
  8
0
 10
226.290525
 20
63.792251
 42
0.134277
  0
VERTEX
  8
0
 10
226.879976
 20
62.499006
 42
0.222616
  0
VERTEX
  8
0
 10
227.945209
 20
62.000000
 42
0.117489
  0
VERTEX
  8
0
 10
228.940089
 20
62.237047
 42
0.164020
  0
VERTEX
  8
0
 10
229.577046
 20
62.883703
 42
0.081839
  0
VERTEX
  8
0
 10
229.958335
 20
64.164308
 42
0.015070
  0
VERTEX
  8
0
 10
230.195209
 20
66.625951
 42
0.000000
  0
VERTEX
  8
0
 10
230.500000
 20
71.251901
 42
0.000000
  0
VERTEX
  8
0
 10
233.812136
 20
66.625951
 42
0.019207
  0
VERTEX
  8
0
 10
235.518912
 20
64.425823
 42
0.050614
  0
VERTEX
  8
0
 10
236.947453
 20
63.036562
 42
0.072270
  0
VERTEX
  8
0
 10
238.276641
 20
62.264842
 42
0.095726
  0
VERTEX
  8
0
 10
239.647304
 20
62.000000
 42
0.000000
  0
VERTEX
  8
0
 10
242.170337
 20
62.000000
 42
0.000000
  0
VERTEX
  8
0
 10
238.678100
 20
66.757379
 42
0.000000
  0
VERTEX
  8
0
 10
235.185862
 20
71.514759
 42
0.000000
  0
VERTEX
  8
0
 10
237.592931
 20
74.313143
 42
0.055839
  0
VERTEX
  8
0
 10
239.321951
 20
76.846946
 42
0.123721
  0
VERTEX
  8
0
 10
239.876551
 20
79.102985
 42
0.130414
  0
VERTEX
  8
0
 10
239.288322
 20
81.274746
 42
0.065475
  0
VERTEX
  8
0
 10
237.545455
 20
83.545455
 42
0.045870
  0
VERTEX
  8
0
 10
236.113781
 20
84.736052
 42
0.066295
  0
VERTEX
  8
0
 10
234.647946
 20
85.480000
 42
0.057879
  0
VERTEX
  8
0
 10
232.892814
 20
85.875477
 42
0.026505
  0
VERTEX
  8
0
 10
230.545455
 20
86.000000
 42
0.000000
  0
VERTEX
  8
0
 10
226.000000
 20
86.000000
 42
0.000000
  0
SEQEND
  0
POLYLINE
  8
0
 66
1
 70
1
  0
VERTEX
  8
0
 10
234.800000
 20
80.800000
 42
-0.052323
  0
VERTEX
  8
0
 10
235.689791
 20
79.701582
 42
-0.167519
  0
VERTEX
  8
0
 10
235.914595
 20
78.799931
 42
-0.141610
  0
VERTEX
  8
0
 10
235.549005
 20
77.854448
 42
-0.033785
  0
VERTEX
  8
0
 10
234.428571
 20
76.571429
 42
-0.063971
  0
VERTEX
  8
0
 10
232.606552
 20
75.164254
 42
-0.239577
  0
VERTEX
  8
0
 10
231.206282
 20
75.080737
 42
-0.233028
  0
VERTEX
  8
0
 10
230.286269
 20
76.168164
 42
-0.061153
  0
VERTEX
  8
0
 10
230.000000
 20
78.500000
 42
-0.023397
  0
VERTEX
  8
0
 10
230.081861
 20
80.248471
 42
-0.095650
  0
VERTEX
  8
0
 10
230.378571
 20
81.263889
 42
-0.163899
  0
VERTEX
  8
0
 10
230.934291
 20
81.803698
 42
-0.111956
  0
VERTEX
  8
0
 10
231.800000
 20
82.000000
 42
-0.056383
  0
VERTEX
  8
0
 10
232.577103
 20
81.912090
 42
-0.038823
  0
VERTEX
  8
0
 10
233.423750
 20
81.647500
 42
-0.039117
  0
VERTEX
  8
0
 10
234.209158
 20
81.259641
 42
-0.062206
  0
SEQEND
  0
POLYLINE
  8
0
 66
1
 70
1
  0
VERTEX
  8
0
 10
245.000000
 20
74.000000
 42
0.000000
  0
VERTEX
  8
0
 10
245.000000
 20
62.000000
 42
0.000000
  0
VERTEX
  8
0
 10
252.073324
 20
62.000000
 42
0.006440
  0
VERTEX
  8
0
 10
256.114974
 20
62.052063
 42
0.057121
  0
VERTEX
  8
0
 10
257.876658
 20
62.300107
 42
0.186810
  0
VERTEX
  8
0
 10
258.635537
 20
62.845737
 42
0.193807
  0
VERTEX
  8
0
 10
258.814330
 20
63.750000
 42
0.142409
  0
VERTEX
  8
0
 10
258.384252
 20
64.595456
 42
0.108542
  0
VERTEX
  8
0
 10
257.523383
 20
65.185753
 42
0.062527
  0
VERTEX
  8
0
 10
256.071693
 20
65.571832
 42
0.017713
  0
VERTEX
  8
0
 10
253.741006
 20
65.804791
 42
-0.011786
  0
VERTEX
  8
0
 10
250.698311
 20
66.072536
 42
-0.140379
  0
VERTEX
  8
0
 10
249.616146
 20
66.517714
 42
-0.199870
  0
VERTEX
  8
0
 10
249.120808
 20
67.409437
 42
-0.028133
  0
VERTEX
  8
0
 10
249.000000
 20
69.554791
 42
-0.025001
  0
VERTEX
  8
0
 10
249.108277
 20
71.718865
 42
-0.207243
  0
VERTEX
  8
0
 10
249.576540
 20
72.558600
 42
-0.152501
  0
VERTEX
  8
0
 10
250.591889
 20
72.930085
 42
-0.012019
  0
VERTEX
  8
0
 10
253.500000
 20
73.000000
 42
0.013964
  0
VERTEX
  8
0
 10
255.979415
 20
73.069261
 42
0.090841
  0
VERTEX
  8
0
 10
257.187500
 20
73.361111
 42
0.188085
  0
VERTEX
  8
0
 10
257.785276
 20
73.964475
 42
0.102588
  0
VERTEX
  8
0
 10
258.000000
 20
75.000000
 42
0.102588
  0
VERTEX
  8
0
 10
257.785276
 20
76.035525
 42
0.188085
  0
VERTEX
  8
0
 10
257.187500
 20
76.638889
 42
0.090841
  0
VERTEX
  8
0
 10
255.979415
 20
76.930739
 42
0.013964
  0
VERTEX
  8
0
 10
253.500000
 20
77.000000
 42
-0.012699
  0
VERTEX
  8
0
 10
250.820113
 20
77.068074
 42
-0.114574
  0
VERTEX
  8
0
 10
249.700000
 20
77.388889
 42
-0.210352
  0
VERTEX
  8
0
 10
249.165617
 20
78.093239
 42
-0.058662
  0
VERTEX
  8
0
 10
249.000000
 20
79.500000
 42
-0.063163
  0
VERTEX
  8
0
 10
249.180083
 20
80.919849
 42
-0.217022
  0
VERTEX
  8
0
 10
249.750000
 20
81.625000
 42
-0.105983
  0
VERTEX
  8
0
 10
250.960310
 20
81.937230
 42
-0.010324
  0
VERTEX
  8
0
 10
254.000000
 20
82.000000
 42
0.011557
  0
VERTEX
  8
0
 10
256.809325
 20
82.064942
 42
0.083766
  0
VERTEX
  8
0
 10
258.125000
 20
82.350000
 42
0.189791
  0
VERTEX
  8
0
 10
258.766065
 20
82.953987
 42
0.110458
  0
VERTEX
  8
0
 10
259.000000
 20
84.000000
 42
0.142406
  0
VERTEX
  8
0
 10
258.688767
 20
85.070611
 42
0.183695
  0
VERTEX
  8
0
 10
257.875000
 20
85.678571
 42
0.063075
  0
VERTEX
  8
0
 10
256.135837
 20
85.945542
 42
0.006583
  0
VERTEX
  8
0
 10
252.000000
 20
86.000000
 42
0.000000
  0
VERTEX
  8
0
 10
245.000000
 20
86.000000
 42
0.000000
  0
SEQEND
  0
POLYLINE
  8
0
 66
1
 70
1
  0
VERTEX
  8
0
 10
27.219378
 20
37.356634
 42
0.000000
  0
VERTEX
  8
0
 10
24.188598
 20
29.500000
 42
0.000000
  0
VERTEX
  8
0
 10
22.594299
 20
33.250000
 42
-0.000705
  0
VERTEX
  8
0
 10
21.878686
 20
34.939831
 42
-0.000437
  0
VERTEX
  8
0
 10
21.042689
 20
36.926563
 42
-0.000438
  0
VERTEX
  8
0
 10
20.220687
 20
38.889643
 42
-0.000791
  0
VERTEX
  8
0
 10
19.551027
 20
40.500000
 42
0.031403
  0
VERTEX
  8
0
 10
18.764315
 20
42.106832
 42
0.070710
  0
VERTEX
  8
0
 10
17.935261
 20
43.176675
 42
0.094015
  0
VERTEX
  8
0
 10
17.010430
 20
43.786391
 42
0.099170
  0
VERTEX
  8
0
 10
15.944038
 20
44.000000
 42
0.040736
  0
VERTEX
  8
0
 10
14.917632
 20
43.916238
 42
0.175408
  0
VERTEX
  8
0
 10
14.391447
 20
43.621818
 42
0.209483
  0
VERTEX
  8
0
 10
14.228948
 20
43.097220
 42
0.060015
  0
VERTEX
  8
0
 10
14.429551
 20
42.250000
 42
0.005599
  0
VERTEX
  8
0
 10
17.308696
 20
34.683158
 42
0.005019
  0
VERTEX
  8
0
 10
20.460713
 20
26.900503
 42
0.000843
  0
VERTEX
  8
0
 10
23.629220
 20
19.333326
 42
0.299031
  0
VERTEX
  8
0
 10
24.116052
 20
19.006349
 42
0.293935
  0
VERTEX
  8
0
 10
24.438410
 20
19.209108
 42
0.004692
  0
VERTEX
  8
0
 10
25.375661
 20
21.262562
 42
0.010630
  0
VERTEX
  8
0
 10
26.418553
 20
23.746229
 42
0.006639
  0
VERTEX
  8
0
 10
27.538988
 20
26.695990
 42
-0.005313
  0
VERTEX
  8
0
 10
29.696542
 20
32.421861
 42
-0.394136
  0
VERTEX
  8
0
 10
30.519488
 20
32.818307
 42
-0.231241
  0
VERTEX
  8
0
 10
31.358018
 20
32.026985
 42
-0.002675
  0
VERTEX
  8
0
 10
34.086095
 20
24.656741
 42
0.015767
  0
VERTEX
  8
0
 10
34.959310
 20
22.474861
 42
0.029343
  0
VERTEX
  8
0
 10
35.823335
 20
20.777647
 42
0.034931
  0
VERTEX
  8
0
 10
36.575840
 20
19.676276
 42
0.456738
  0
VERTEX
  8
0
 10
37.012706
 20
19.656741
 42
0.089891
  0
VERTEX
  8
0
 10
37.902563
 20
21.017045
 42
0.000939
  0
VERTEX
  8
0
 10
42.314202
 20
31.506600
 42
0.000866
  0
VERTEX
  8
0
 10
46.707615
 20
42.059259
 42
0.098510
  0
VERTEX
  8
0
 10
47.000000
 20
43.528890
 42
0.313161
  0
VERTEX
  8
0
 10
46.851779
 20
43.742334
 42
0.056331
  0
VERTEX
  8
0
 10
46.355763
 20
43.865984
 42
0.043320
  0
VERTEX
  8
0
 10
45.647538
 20
43.898001
 42
0.025825
  0
VERTEX
  8
0
 10
44.806853
 20
43.819551
 42
0.125329
  0
VERTEX
  8
0
 10
43.634503
 20
43.332101
 42
0.075159
  0
VERTEX
  8
0
 10
42.570715
 20
42.251073
 42
0.047187
  0
VERTEX
  8
0
 10
41.488759
 20
40.417190
 42
0.014960
  0
VERTEX
  8
0
 10
40.225027
 20
37.500000
 42
-0.006285
  0
VERTEX
  8
0
 10
39.251271
 20
35.140809
 42
-0.008280
  0
VERTEX
  8
0
 10
38.300947
 20
33.016076
 42
-0.006270
  0
VERTEX
  8
0
 10
37.457263
 20
31.268085
 42
-0.076108
  0
VERTEX
  8
0
 10
37.029285
 20
30.661111
 42
-0.471891
  0
VERTEX
  8
0
 10
36.594027
 20
30.694729
 42
-0.030488
  0
VERTEX
  8
0
 10
35.834654
 20
31.930694
 42
-0.027040
  0
VERTEX
  8
0
 10
34.969192
 20
33.788708
 42
-0.014547
  0
VERTEX
  8
0
 10
34.095781
 20
36.161111
 42
0.005984
  0
VERTEX
  8
0
 10
31.761294
 20
42.853464
 42
0.268984
  0
VERTEX
  8
0
 10
30.676074
 20
43.763214
 42
0.348536
  0
VERTEX
  8
0
 10
29.570200
 20
43.161079
 42
0.008321
  0
SEQEND
  0
POLYLINE
  8
0
 66
1
 70
1
  0
VERTEX
  8
0
 10
96.015086
 20
32.750000
 42
0.002745
  0
VERTEX
  8
0
 10
96.049425
 20
24.778222
 42
0.036176
  0
VERTEX
  8
0
 10
96.291099
 20
21.841864
 42
0.137093
  0
VERTEX
  8
0
 10
96.894959
 20
20.514427
 42
0.221358
  0
VERTEX
  8
0
 10
98.000000
 20
20.000000
 42
0.154529
  0
VERTEX
  8
0
 10
99.076862
 20
20.340954
 42
0.176863
  0
VERTEX
  8
0
 10
99.690438
 20
21.223679
 42
0.057445
  0
VERTEX
  8
0
 10
99.963403
 20
23.125496
 42
0.005676
  0
VERTEX
  8
0
 10
100.039435
 20
27.750000
 42
0.000000
  0
VERTEX
  8
0
 10
100.078869
 20
35.500000
 42
0.000000
  0
VERTEX
  8
0
 10
107.983103
 20
27.250000
 42
0.003288
  0
VERTEX
  8
0
 10
111.053169
 20
24.087537
 42
0.005212
  0
VERTEX
  8
0
 10
113.728890
 20
21.423437
 42
0.001499
  0
VERTEX
  8
0
 10
116.076218
 20
19.148216
 42
0.194084
  0
VERTEX
  8
0
 10
116.443668
 20
19.000000
 42
0.399005
  0
VERTEX
  8
0
 10
116.669302
 20
19.214152
 42
0.001931
  0
VERTEX
  8
0
 10
116.836578
 20
22.671875
 42
0.006948
  0
VERTEX
  8
0
 10
116.960013
 20
26.706953
 42
0.004171
  0
VERTEX
  8
0
 10
117.000000
 20
31.500000
 42
0.002827
  0
VERTEX
  8
0
 10
116.955897
 20
39.300928
 42
0.036854
  0
VERTEX
  8
0
 10
116.710000
 20
42.187500
 42
0.138781
  0
VERTEX
  8
0
 10
116.104087
 20
43.493281
 42
0.218517
  0
VERTEX
  8
0
 10
115.000000
 20
44.000000
 42
0.150217
  0
VERTEX
  8
0
 10
113.925391
 20
43.669697
 42
0.180365
  0
VERTEX
  8
0
 10
113.316667
 20
42.812500
 42
0.059311
  0
VERTEX
  8
0
 10
113.052806
 20
40.968394
 42
0.005909
  0
VERTEX
  8
0
 10
113.000000
 20
36.500000
 42
-0.004620
  0
VERTEX
  8
0
 10
112.973428
 20
33.624184
 42
-0.007693
  0
VERTEX
  8
0
 10
112.891411
 20
31.203125
 42
-0.002362
  0
VERTEX
  8
0
 10
112.780009
 20
29.141138
 42
-0.397124
  0
VERTEX
  8
0
 10
112.630334
 20
29.000000
 42
-0.194576
  0
VERTEX
  8
0
 10
112.380136
 20
29.101196
 42
-0.000665
  0
VERTEX
  8
0
 10
109.985403
 20
31.423438
 42
-0.003436
  0
VERTEX
  8
0
 10
107.283192
 20
34.087206
 42
-0.002131
  0
VERTEX
  8
0
 10
104.145420
 20
37.250000
 42
0.000000
  0
VERTEX
  8
0
 10
96.030172
 20
45.500000
 42
0.000000
  0
SEQEND
  0
POLYLINE
  8
0
 66
1
 70
1
  0
VERTEX
  8
0
 10
257.015086
 20
32.750000
 42
0.002745
  0
VERTEX
  8
0
 10
257.049425
 20
24.778222
 42
0.036176
  0
VERTEX
  8
0
 10
257.291099
 20
21.841864
 42
0.137093
  0
VERTEX
  8
0
 10
257.894959
 20
20.514427
 42
0.221358
  0
VERTEX
  8
0
 10
259.000000
 20
20.000000
 42
0.154529
  0
VERTEX
  8
0
 10
260.076862
 20
20.340954
 42
0.176863
  0
VERTEX
  8
0
 10
260.690438
 20
21.223679
 42
0.057445
  0
VERTEX
  8
0
 10
260.963403
 20
23.125496
 42
0.005676
  0
VERTEX
  8
0
 10
261.039435
 20
27.750000
 42
0.000000
  0
VERTEX
  8
0
 10
261.078869
 20
35.500000
 42
0.000000
  0
VERTEX
  8
0
 10
268.983103
 20
27.250000
 42
0.003288
  0
VERTEX
  8
0
 10
272.053169
 20
24.087537
 42
0.005212
  0
VERTEX
  8
0
 10
274.728890
 20
21.423437
 42
0.001499
  0
VERTEX
  8
0
 10
277.076218
 20
19.148216
 42
0.194084
  0
VERTEX
  8
0
 10
277.443668
 20
19.000000
 42
0.399005
  0
VERTEX
  8
0
 10
277.669302
 20
19.214152
 42
0.001931
  0
VERTEX
  8
0
 10
277.836578
 20
22.671875
 42
0.006948
  0
VERTEX
  8
0
 10
277.960013
 20
26.706953
 42
0.004171
  0
VERTEX
  8
0
 10
278.000000
 20
31.500000
 42
0.002827
  0
VERTEX
  8
0
 10
277.955897
 20
39.300928
 42
0.036854
  0
VERTEX
  8
0
 10
277.710000
 20
42.187500
 42
0.138781
  0
VERTEX
  8
0
 10
277.104087
 20
43.493281
 42
0.218517
  0
VERTEX
  8
0
 10
276.000000
 20
44.000000
 42
0.150217
  0
VERTEX
  8
0
 10
274.925391
 20
43.669697
 42
0.180365
  0
VERTEX
  8
0
 10
274.316667
 20
42.812500
 42
0.059311
  0
VERTEX
  8
0
 10
274.052806
 20
40.968394
 42
0.005909
  0
VERTEX
  8
0
 10
274.000000
 20
36.500000
 42
-0.004620
  0
VERTEX
  8
0
 10
273.973428
 20
33.624184
 42
-0.007693
  0
VERTEX
  8
0
 10
273.891411
 20
31.203125
 42
-0.002362
  0
VERTEX
  8
0
 10
273.780009
 20
29.141138
 42
-0.397124
  0
VERTEX
  8
0
 10
273.630334
 20
29.000000
 42
-0.194576
  0
VERTEX
  8
0
 10
273.380136
 20
29.101196
 42
-0.000665
  0
VERTEX
  8
0
 10
270.985403
 20
31.423438
 42
-0.003436
  0
VERTEX
  8
0
 10
268.283192
 20
34.087206
 42
-0.002131
  0
VERTEX
  8
0
 10
265.145420
 20
37.250000
 42
0.000000
  0
VERTEX
  8
0
 10
257.030172
 20
45.500000
 42
0.000000
  0
SEQEND
  0
POLYLINE
  8
0
 66
1
 70
1
  0
VERTEX
  8
0
 10
50.000000
 20
32.000000
 42
0.002988
  0
VERTEX
  8
0
 10
50.044620
 20
24.532631
 42
0.038318
  0
VERTEX
  8
0
 10
50.291667
 20
21.750000
 42
0.142907
  0
VERTEX
  8
0
 10
50.898615
 20
20.490438
 42
0.212584
  0
VERTEX
  8
0
 10
52.000000
 20
20.000000
 42
0.212584
  0
VERTEX
  8
0
 10
53.101385
 20
20.490438
 42
0.142907
  0
VERTEX
  8
0
 10
53.708333
 20
21.750000
 42
0.038318
  0
VERTEX
  8
0
 10
53.955380
 20
24.532631
 42
0.002988
  0
VERTEX
  8
0
 10
54.000000
 20
32.000000
 42
0.002988
  0
VERTEX
  8
0
 10
53.955380
 20
39.467369
 42
0.038318
  0
VERTEX
  8
0
 10
53.708333
 20
42.250000
 42
0.142907
  0
VERTEX
  8
0
 10
53.101385
 20
43.509562
 42
0.212584
  0
VERTEX
  8
0
 10
52.000000
 20
44.000000
 42
0.212584
  0
VERTEX
  8
0
 10
50.898615
 20
43.509562
 42
0.142907
  0
VERTEX
  8
0
 10
50.291667
 20
42.250000
 42
0.038318
  0
VERTEX
  8
0
 10
50.044620
 20
39.467369
 42
0.002988
  0
SEQEND
  0
POLYLINE
  8
0
 66
1
 70
1
  0
VERTEX
  8
0
 10
59.000000
 20
32.000000
 42
0.000000
  0
VERTEX
  8
0
 10
59.000000
 20
20.000000
 42
0.000000
  0
VERTEX
  8
0
 10
64.573324
 20
20.000000
 42
0.009155
  0
VERTEX
  8
0
 10
67.672035
 20
20.056742
 42
0.071522
  0
VERTEX
  8
0
 10
69.088406
 20
20.313628
 42
0.204480
  0
VERTEX
  8
0
 10
69.700841
 20
20.856893
 42
0.158559
  0
VERTEX
  8
0
 10
69.815135
 20
21.750000
 42
0.122511
  0
VERTEX
  8
0
 10
69.458613
 20
22.525281
 42
0.093346
  0
VERTEX
  8
0
 10
68.747242
 20
23.136493
 42
0.070566
  0
VERTEX
  8
0
 10
67.673051
 20
23.568983
 42
0.036391
  0
VERTEX
  8
0
 10
66.241811
 20
23.813358
 42
0.000000
  0
VERTEX
  8
0
 10
63.000000
 20
24.126717
 42
0.000000
  0
VERTEX
  8
0
 10
63.000000
 20
34.063358
 42
0.003887
  0
VERTEX
  8
0
 10
62.952640
 20
40.154741
 42
0.045800
  0
VERTEX
  8
0
 10
62.699681
 20
42.507920
 42
0.160550
  0
VERTEX
  8
0
 10
62.090058
 20
43.580083
 42
0.185952
  0
VERTEX
  8
0
 10
61.000000
 20
44.000000
 42
0.212584
  0
VERTEX
  8
0
 10
59.898615
 20
43.509562
 42
0.142907
  0
VERTEX
  8
0
 10
59.291667
 20
42.250000
 42
0.038318
  0
VERTEX
  8
0
 10
59.044620
 20
39.467369
 42
0.002988
  0
SEQEND
  0
POLYLINE
  8
0
 66
1
 70
1
  0
VERTEX
  8
0
 10
73.000000
 20
32.000000
 42
0.000000
  0
VERTEX
  8
0
 10
73.000000
 20
20.000000
 42
0.000000
  0
VERTEX
  8
0
 10
78.573324
 20
20.000000
 42
0.009155
  0
VERTEX
  8
0
 10
81.672035
 20
20.056742
 42
0.071522
  0
VERTEX
  8
0
 10
83.088406
 20
20.313628
 42
0.204480
  0
VERTEX
  8
0
 10
83.700841
 20
20.856893
 42
0.158559
  0
VERTEX
  8
0
 10
83.815135
 20
21.750000
 42
0.122511
  0
VERTEX
  8
0
 10
83.458613
 20
22.525281
 42
0.093346
  0
VERTEX
  8
0
 10
82.747242
 20
23.136493
 42
0.070566
  0
VERTEX
  8
0
 10
81.673051
 20
23.568983
 42
0.036391
  0
VERTEX
  8
0
 10
80.241811
 20
23.813358
 42
0.000000
  0
VERTEX
  8
0
 10
77.000000
 20
24.126717
 42
0.000000
  0
VERTEX
  8
0
 10
77.000000
 20
34.063358
 42
0.003887
  0
VERTEX
  8
0
 10
76.952640
 20
40.154741
 42
0.045800
  0
VERTEX
  8
0
 10
76.699681
 20
42.507920
 42
0.160550
  0
VERTEX
  8
0
 10
76.090058
 20
43.580083
 42
0.185952
  0
VERTEX
  8
0
 10
75.000000
 20
44.000000
 42
0.212584
  0
VERTEX
  8
0
 10
73.898615
 20
43.509562
 42
0.142907
  0
VERTEX
  8
0
 10
73.291667
 20
42.250000
 42
0.038318
  0
VERTEX
  8
0
 10
73.044620
 20
39.467369
 42
0.002988
  0
SEQEND
  0
POLYLINE
  8
0
 66
1
 70
1
  0
VERTEX
  8
0
 10
87.000000
 20
32.000000
 42
0.002988
  0
VERTEX
  8
0
 10
87.044620
 20
24.532631
 42
0.038318
  0
VERTEX
  8
0
 10
87.291667
 20
21.750000
 42
0.142907
  0
VERTEX
  8
0
 10
87.898615
 20
20.490438
 42
0.212584
  0
VERTEX
  8
0
 10
89.000000
 20
20.000000
 42
0.212584
  0
VERTEX
  8
0
 10
90.101385
 20
20.490438
 42
0.142907
  0
VERTEX
  8
0
 10
90.708333
 20
21.750000
 42
0.038318
  0
VERTEX
  8
0
 10
90.955380
 20
24.532631
 42
0.002988
  0
VERTEX
  8
0
 10
91.000000
 20
32.000000
 42
0.002988
  0
VERTEX
  8
0
 10
90.955380
 20
39.467369
 42
0.038318
  0
VERTEX
  8
0
 10
90.708333
 20
42.250000
 42
0.142907
  0
VERTEX
  8
0
 10
90.101385
 20
43.509562
 42
0.212584
  0
VERTEX
  8
0
 10
89.000000
 20
44.000000
 42
0.212584
  0
VERTEX
  8
0
 10
87.898615
 20
43.509562
 42
0.142907
  0
VERTEX
  8
0
 10
87.291667
 20
42.250000
 42
0.038318
  0
VERTEX
  8
0
 10
87.044620
 20
39.467369
 42
0.002988
  0
SEQEND
  0
POLYLINE
  8
0
 66
1
 70
1
  0
VERTEX
  8
0
 10
126.094787
 20
41.426304
 42
0.044667
  0
VERTEX
  8
0
 10
124.839568
 20
40.162563
 42
0.027888
  0
VERTEX
  8
0
 10
123.597650
 20
38.483972
 42
0.027888
  0
VERTEX
  8
0
 10
122.550293
 20
36.677651
 42
0.044679
  0
VERTEX
  8
0
 10
121.889039
 20
35.023981
 42
0.162113
  0
VERTEX
  8
0
 10
122.091204
 20
28.361056
 42
0.136346
  0
VERTEX
  8
0
 10
126.229443
 20
22.598434
 42
0.135296
  0
VERTEX
  8
0
 10
132.775912
 20
19.768408
 42
0.158937
  0
VERTEX
  8
0
 10
139.402923
 20
20.948046
 42
0.095046
  0
VERTEX
  8
0
 10
141.375542
 20
22.546228
 42
0.047055
  0
VERTEX
  8
0
 10
143.218835
 20
25.204392
 42
0.046725
  0
VERTEX
  8
0
 10
144.558706
 20
28.213699
 42
0.081557
  0
VERTEX
  8
0
 10
145.000000
 20
30.901129
 42
0.098428
  0
VERTEX
  8
0
 10
144.777889
 20
32.018491
 42
0.197747
  0
VERTEX
  8
0
 10
144.154442
 20
32.645056
 42
0.088347
  0
VERTEX
  8
0
 10
142.862246
 20
32.935643
 42
0.011241
  0
VERTEX
  8
0
 10
140.000000
 20
33.000000
 42
0.011557
  0
VERTEX
  8
0
 10
137.190675
 20
32.935058
 42
0.083766
  0
VERTEX
  8
0
 10
135.875000
 20
32.650000
 42
0.189791
  0
VERTEX
  8
0
 10
135.233935
 20
32.046013
 42
0.110458
  0
VERTEX
  8
0
 10
135.000000
 20
31.000000
 42
0.075780
  0
VERTEX
  8
0
 10
135.142566
 20
30.064742
 42
0.149477
  0
VERTEX
  8
0
 10
135.562500
 20
29.450000
 42
0.124434
  0
VERTEX
  8
0
 10
136.317234
 20
29.106468
 42
0.044917
  0
VERTEX
  8
0
 10
137.500000
 20
29.000000
 42
-0.059336
  0
VERTEX
  8
0
 10
139.203639
 20
28.797110
 42
-0.273864
  0
VERTEX
  8
0
 10
139.886874
 20
28.132358
 42
-0.223121
  0
VERTEX
  8
0
 10
139.702167
 20
27.085013
 42
-0.042973
  0
VERTEX
  8
0
 10
138.428571
 20
25.571429
 42
-0.169255
  0
VERTEX
  8
0
 10
134.747929
 20
23.793174
 42
-0.149111
  0
VERTEX
  8
0
 10
130.537568
 20
24.565010
 42
-0.137080
  0
VERTEX
  8
0
 10
127.223567
 20
27.651133
 42
-0.137998
  0
VERTEX
  8
0
 10
126.000000
 20
32.000000
 42
-0.147190
  0
VERTEX
  8
0
 10
127.293378
 20
36.298383
 42
-0.135817
  0
VERTEX
  8
0
 10
130.777711
 20
39.331347
 42
-0.139615
  0
VERTEX
  8
0
 10
135.246917
 20
40.093145
 42
-0.158036
  0
VERTEX
  8
0
 10
139.202387
 20
38.316842
 42
0.024249
  0
VERTEX
  8
0
 10
140.320831
 20
37.399234
 42
0.150881
  0
VERTEX
  8
0
 10
141.011926
 20
37.155479
 42
0.173483
  0
VERTEX
  8
0
 10
141.668181
 20
37.361337
 42
0.034486
  0
VERTEX
  8
0
 10
142.610444
 20
38.181872
 42
0.052295
  0
VERTEX
  8
0
 10
143.375530
 20
39.126242
 42
0.224407
  0
VERTEX
  8
0
 10
143.470349
 20
39.824813
 42
0.134633
  0
VERTEX
  8
0
 10
142.987139
 20
40.571688
 42
0.015595
  0
VERTEX
  8
0
 10
141.444457
 20
41.865030
 42
0.100355
  0
VERTEX
  8
0
 10
138.012166
 20
43.593333
 42
0.073887
  0
VERTEX
  8
0
 10
133.773918
 20
44.099786
 42
0.073240
  0
VERTEX
  8
0
 10
129.533503
 20
43.350949
 42
0.094907
  0
SEQEND
  0
POLYLINE
  8
0
 66
1
 70
1
  0
VERTEX
  8
0
 10
156.000000
 20
42.000000
 42
0.075780
  0
VERTEX
  8
0
 10
156.142566
 20
41.064742
 42
0.149477
  0
VERTEX
  8
0
 10
156.562500
 20
40.450000
 42
0.124434
  0
VERTEX
  8
0
 10
157.317234
 20
40.106468
 42
0.044917
  0
VERTEX
  8
0
 10
158.500000
 20
40.000000
 42
0.000000
  0
VERTEX
  8
0
 10
161.000000
 20
40.000000
 42
0.000000
  0
VERTEX
  8
0
 10
161.000000
 20
30.000000
 42
0.000000
  0
VERTEX
  8
0
 10
161.000000
 20
20.000000
 42
0.000000
  0
VERTEX
  8
0
 10
163.500000
 20
20.000000
 42
0.000000
  0
VERTEX
  8
0
 10
166.000000
 20
20.000000
 42
0.000000
  0
VERTEX
  8
0
 10
166.000000
 20
30.000000
 42
0.000000
  0
VERTEX
  8
0
 10
166.000000
 20
40.000000
 42
0.000000
  0
VERTEX
  8
0
 10
168.500000
 20
40.000000
 42
0.044917
  0
VERTEX
  8
0
 10
169.682766
 20
40.106468
 42
0.124434
  0
VERTEX
  8
0
 10
170.437500
 20
40.450000
 42
0.149477
  0
VERTEX
  8
0
 10
170.857434
 20
41.064742
 42
0.075780
  0
VERTEX
  8
0
 10
171.000000
 20
42.000000
 42
0.150217
  0
VERTEX
  8
0
 10
170.669697
 20
43.074609
 42
0.180365
  0
VERTEX
  8
0
 10
169.812500
 20
43.683333
 42
0.059311
  0
VERTEX
  8
0
 10
167.968394
 20
43.947194
 42
0.005909
  0
VERTEX
  8
0
 10
163.500000
 20
44.000000
 42
0.005909
  0
VERTEX
  8
0
 10
159.031606
 20
43.947194
 42
0.059311
  0
VERTEX
  8
0
 10
157.187500
 20
43.683333
 42
0.180365
  0
VERTEX
  8
0
 10
156.330303
 20
43.074609
 42
0.150217
  0
SEQEND
  0
POLYLINE
  8
0
 66
1
 70
1
  0
VERTEX
  8
0
 10
176.143477
 20
41.467274
 42
0.145400
  0
VERTEX
  8
0
 10
171.972501
 20
35.135789
 42
0.162553
  0
VERTEX
  8
0
 10
172.180375
 20
27.856561
 42
0.162359
  0
VERTEX
  8
0
 10
176.721663
 20
22.156668
 42
0.145040
  0
VERTEX
  8
0
 10
184.000000
 20
20.000000
 42
0.107518
  0
VERTEX
  8
0
 10
189.648264
 20
21.228785
 42
0.122102
  0
VERTEX
  8
0
 10
193.977573
 20
24.668770
 42
0.122840
  0
VERTEX
  8
0
 10
196.182018
 20
29.714351
 42
0.109651
  0
VERTEX
  8
0
 10
195.890136
 20
35.435724
 42
0.134436
  0
VERTEX
  8
0
 10
192.897176
 20
40.466637
 42
0.118147
  0
VERTEX
  8
0
 10
187.616571
 20
43.572351
 42
0.117672
  0
VERTEX
  8
0
 10
181.484090
 20
43.954159
 42
0.132624
  0
SEQEND
  0
POLYLINE
  8
0
 66
1
 70
1
  0
VERTEX
  8
0
 10
189.685549
 20
37.825686
 42
-0.155205
  0
VERTEX
  8
0
 10
191.934874
 20
33.791708
 42
-0.146575
  0
VERTEX
  8
0
 10
191.509352
 20
29.096039
 42
-0.145933
  0
VERTEX
  8
0
 10
188.568214
 20
25.393345
 42
-0.153618
  0
VERTEX
  8
0
 10
184.140137
 20
24.000000
 42
-0.086924
  0
VERTEX
  8
0
 10
180.893185
 20
24.568773
 42
-0.105655
  0
VERTEX
  8
0
 10
178.277478
 20
26.199061
 42
-0.107783
  0
VERTEX
  8
0
 10
176.591991
 20
28.726334
 42
-0.093633
  0
VERTEX
  8
0
 10
176.000000
 20
31.859863
 42
-0.142579
  0
VERTEX
  8
0
 10
177.323032
 20
36.405199
 42
-0.149401
  0
VERTEX
  8
0
 10
180.860438
 20
39.431533
 42
-0.149836
  0
VERTEX
  8
0
 10
185.476835
 20
39.958340
 42
-0.143563
  0
SEQEND
  0
POLYLINE
  8
0
 66
1
 70
1
  0
VERTEX
  8
0
 10
210.000000
 20
32.000000
 42
0.002988
  0
VERTEX
  8
0
 10
210.044620
 20
24.532631
 42
0.038318
  0
VERTEX
  8
0
 10
210.291667
 20
21.750000
 42
0.142907
  0
VERTEX
  8
0
 10
210.898615
 20
20.490438
 42
0.212584
  0
VERTEX
  8
0
 10
212.000000
 20
20.000000
 42
0.118451
  0
VERTEX
  8
0
 10
213.054152
 20
20.253284
 42
0.189837
  0
VERTEX
  8
0
 10
213.659091
 20
20.937500
 42
0.077556
  0
VERTEX
  8
0
 10
213.938496
 20
22.359853
 42
0.009792
  0
VERTEX
  8
0
 10
214.000000
 20
25.500000
 42
0.000000
  0
VERTEX
  8
0
 10
214.000000
 20
31.000000
 42
0.000000
  0
VERTEX
  8
0
 10
219.000000
 20
31.000000
 42
0.000000
  0
VERTEX
  8
0
 10
224.000000
 20
31.000000
 42
0.000000
  0
VERTEX
  8
0
 10
224.000000
 20
25.500000
 42
0.009792
  0
VERTEX
  8
0
 10
224.061504
 20
22.359853
 42
0.077556
  0
VERTEX
  8
0
 10
224.340909
 20
20.937500
 42
0.189837
  0
VERTEX
  8
0
 10
224.945848
 20
20.253284
 42
0.118451
  0
VERTEX
  8
0
 10
226.000000
 20
20.000000
 42
0.212584
  0
VERTEX
  8
0
 10
227.101385
 20
20.490438
 42
0.142907
  0
VERTEX
  8
0
 10
227.708333
 20
21.750000
 42
0.038318
  0
VERTEX
  8
0
 10
227.955380
 20
24.532631
 42
0.002988
  0
VERTEX
  8
0
 10
228.000000
 20
32.000000
 42
0.002988
  0
VERTEX
  8
0
 10
227.955380
 20
39.467369
 42
0.038318
  0
VERTEX
  8
0
 10
227.708333
 20
42.250000
 42
0.142907
  0
VERTEX
  8
0
 10
227.101385
 20
43.509562
 42
0.212584
  0
VERTEX
  8
0
 10
226.000000
 20
44.000000
 42
0.102588
  0
VERTEX
  8
0
 10
224.964475
 20
43.785276
 42
0.188085
  0
VERTEX
  8
0
 10
224.361111
 20
43.187500
 42
0.090841
  0
VERTEX
  8
0
 10
224.069261
 20
41.979415
 42
0.013964
  0
VERTEX
  8
0
 10
224.000000
 20
39.500000
 42
0.000000
  0
VERTEX
  8
0
 10
224.000000
 20
35.000000
 42
0.000000
  0
VERTEX
  8
0
 10
219.000000
 20
35.000000
 42
0.000000
  0
VERTEX
  8
0
 10
214.000000
 20
35.000000
 42
0.000000
  0
VERTEX
  8
0
 10
214.000000
 20
39.500000
 42
0.013964
  0
VERTEX
  8
0
 10
213.930739
 20
41.979415
 42
0.090841
  0
VERTEX
  8
0
 10
213.638889
 20
43.187500
 42
0.188085
  0
VERTEX
  8
0
 10
213.035525
 20
43.785276
 42
0.102588
  0
VERTEX
  8
0
 10
212.000000
 20
44.000000
 42
0.212584
  0
VERTEX
  8
0
 10
210.898615
 20
43.509562
 42
0.142907
  0
VERTEX
  8
0
 10
210.291667
 20
42.250000
 42
0.038318
  0
VERTEX
  8
0
 10
210.044620
 20
39.467369
 42
0.002988
  0
SEQEND
  0
POLYLINE
  8
0
 66
1
 70
1
  0
VERTEX
  8
0
 10
233.000000
 20
35.450340
 42
0.022119
  0
VERTEX
  8
0
 10
233.263476
 20
29.497265
 42
0.052280
  0
VERTEX
  8
0
 10
234.113795
 20
25.144561
 42
0.076424
  0
VERTEX
  8
0
 10
235.532798
 20
22.206557
 42
0.151620
  0
VERTEX
  8
0
 10
237.544802
 20
20.621181
 42
0.071017
  0
VERTEX
  8
0
 10
240.425580
 20
19.963021
 42
0.062069
  0
VERTEX
  8
0
 10
243.515815
 20
20.090298
 42
0.064327
  0
VERTEX
  8
0
 10
246.367542
 20
20.952543
 42
0.091076
  0
VERTEX
  8
0
 10
248.545455
 20
22.454545
 42
0.059748
  0
VERTEX
  8
0
 10
249.909776
 20
24.190688
 42
0.086446
  0
VERTEX
  8
0
 10
250.621429
 20
26.002742
 42
0.044403
  0
VERTEX
  8
0
 10
250.930487
 20
28.725767
 42
0.006067
  0
VERTEX
  8
0
 10
251.000000
 20
34.454545
 42
0.004118
  0
VERTEX
  8
0
 10
250.951972
 20
40.285186
 42
0.047551
  0
VERTEX
  8
0
 10
250.697619
 20
42.556818
 42
0.163920
  0
VERTEX
  8
0
 10
250.087822
 20
43.594039
 42
0.180513
  0
VERTEX
  8
0
 10
249.000000
 20
44.000000
 42
0.158885
  0
VERTEX
  8
0
 10
247.921350
 20
43.648360
 42
0.176155
  0
VERTEX
  8
0
 10
247.311991
 20
42.741782
 42
0.055537
  0
VERTEX
  8
0
 10
247.051213
 20
40.779186
 42
0.005285
  0
VERTEX
  8
0
 10
247.000000
 20
35.934259
 42
-0.016252
  0
VERTEX
  8
0
 10
246.797829
 20
29.715927
 42
-0.083127
  0
VERTEX
  8
0
 10
246.009789
 20
26.363486
 42
-0.168058
  0
VERTEX
  8
0
 10
244.469140
 20
24.641063
 42
-0.127698
  0
VERTEX
  8
0
 10
242.000000
 20
24.000000
 42
-0.127698
  0
VERTEX
  8
0
 10
239.530860
 20
24.641063
 42
-0.168058
  0
VERTEX
  8
0
 10
237.990211
 20
26.363486
 42
-0.083127
  0
VERTEX
  8
0
 10
237.202171
 20
29.715927
 42
-0.016252
  0
VERTEX
  8
0
 10
237.000000
 20
35.934259
 42
0.005285
  0
VERTEX
  8
0
 10
236.948787
 20
40.779186
 42
0.055537
  0
VERTEX
  8
0
 10
236.688009
 20
42.741782
 42
0.176155
  0
VERTEX
  8
0
 10
236.078650
 20
43.648360
 42
0.158885
  0
VERTEX
  8
0
 10
235.000000
 20
44.000000
 42
0.166134
  0
VERTEX
  8
0
 10
233.918180
 20
43.630343
 42
0.172295
  0
VERTEX
  8
0
 10
233.308482
 20
42.681293
 42
0.052656
  0
VERTEX
  8
0
 10
233.050036
 20
40.617511
 42
0.004842
  0
SEQEND
  0
POLYLINE
  8
0
 66
1
 70
1
  0
VERTEX
  8
0
 10
280.000000
 20
42.000000
 42
0.075780
  0
VERTEX
  8
0
 10
280.142566
 20
41.064742
 42
0.149477
  0
VERTEX
  8
0
 10
280.562500
 20
40.450000
 42
0.124434
  0
VERTEX
  8
0
 10
281.317234
 20
40.106468
 42
0.044917
  0
VERTEX
  8
0
 10
282.500000
 20
40.000000
 42
0.000000
  0
VERTEX
  8
0
 10
285.000000
 20
40.000000
 42
0.000000
  0
VERTEX
  8
0
 10
285.000000
 20
30.000000
 42
0.000000
  0
VERTEX
  8
0
 10
285.000000
 20
20.000000
 42
0.000000
  0
VERTEX
  8
0
 10
287.500000
 20
20.000000
 42
0.000000
  0
VERTEX
  8
0
 10
290.000000
 20
20.000000
 42
0.000000
  0
VERTEX
  8
0
 10
290.000000
 20
30.000000
 42
0.000000
  0
VERTEX
  8
0
 10
290.000000
 20
40.000000
 42
0.000000
  0
VERTEX
  8
0
 10
292.500000
 20
40.000000
 42
0.044917
  0
VERTEX
  8
0
 10
293.682766
 20
40.106468
 42
0.124434
  0
VERTEX
  8
0
 10
294.437500
 20
40.450000
 42
0.149477
  0
VERTEX
  8
0
 10
294.857434
 20
41.064742
 42
0.075780
  0
VERTEX
  8
0
 10
295.000000
 20
42.000000
 42
0.150217
  0
VERTEX
  8
0
 10
294.669697
 20
43.074609
 42
0.180365
  0
VERTEX
  8
0
 10
293.812500
 20
43.683333
 42
0.059311
  0
VERTEX
  8
0
 10
291.968394
 20
43.947194
 42
0.005909
  0
VERTEX
  8
0
 10
287.500000
 20
44.000000
 42
0.005909
  0
VERTEX
  8
0
 10
283.031606
 20
43.947194
 42
0.059311
  0
VERTEX
  8
0
 10
281.187500
 20
43.683333
 42
0.180365
  0
VERTEX
  8
0
 10
280.330303
 20
43.074609
 42
0.150217
  0
SEQEND
  0
POLYLINE
  8
0
 66
1
 70
1
  0
VERTEX
  8
0
 10
297.701236
 20
23.367903
 42
0.117996
  0
VERTEX
  8
0
 10
296.986502
 20
22.203426
 42
0.194364
  0
VERTEX
  8
0
 10
297.064300
 20
21.067087
 42
0.197095
  0
VERTEX
  8
0
 10
297.906345
 20
20.314595
 42
0.120877
  0
VERTEX
  8
0
 10
299.250000
 20
20.180449
 42
0.061838
  0
VERTEX
  8
0
 10
300.110251
 20
20.413534
 42
0.072178
  0
VERTEX
  8
0
 10
300.839063
 20
20.842734
 42
0.083895
  0
VERTEX
  8
0
 10
301.329918
 20
21.394468
 42
0.140839
  0
VERTEX
  8
0
 10
301.500000
 20
21.986305
 42
0.188356
  0
VERTEX
  8
0
 10
301.104319
 20
22.999396
 42
0.119888
  0
VERTEX
  8
0
 10
300.037505
 20
23.709772
 42
0.115797
  0
VERTEX
  8
0
 10
298.732861
 20
23.864778
 42
0.169878
  0
SEQEND
  0
POLYLINE
  8
0
 66
1
 70
1
  0
VERTEX
  8
0
 10
142.277679
 20
256.750000
 42
0.052625
  0
VERTEX
  8
0
 10
141.159585
 20
254.940126
 42
0.072771
  0
VERTEX
  8
0
 10
140.590950
 20
253.120894
 42
0.079869
  0
VERTEX
  8
0
 10
140.594029
 20
251.349411
 42
0.081015
  0
VERTEX
  8
0
 10
141.153290
 20
249.677558
 42
0.040006
  0
VERTEX
  8
0
 10
142.266907
 20
247.918785
 42
0.085466
  0
VERTEX
  8
0
 10
143.433335
 20
246.819329
 42
0.092233
  0
VERTEX
  8
0
 10
144.839249
 20
246.222619
 42
0.052651
  0
VERTEX
  8
0
 10
146.678571
 20
246.015313
 42
0.174353
  0
VERTEX
  8
0
 10
149.686132
 20
247.073131
 42
0.141254
  0
VERTEX
  8
0
 10
151.648444
 20
249.900569
 42
0.135337
  0
VERTEX
  8
0
 10
151.850292
 20
253.437042
 42
0.157075
  0
VERTEX
  8
0
 10
150.171259
 20
256.345012
 42
0.097981
  0
VERTEX
  8
0
 10
148.295389
 20
257.470040
 42
0.073539
  0
VERTEX
  8
0
 10
145.929231
 20
257.944941
 42
0.079196
  0
VERTEX
  8
0
 10
143.711768
 20
257.707212
 42
0.163277
  0
SEQEND
  0
POLYLINE
  8
0
 66
1
 70
1
  0
VERTEX
  8
0
 10
147.000000
 20
252.000000
 42
-0.105053
  0
VERTEX
  8
0
 10
146.918938
 20
251.618444
 42
-0.099167
  0
VERTEX
  8
0
 10
146.688914
 20
251.293750
 42
-0.096420
  0
VERTEX
  8
0
 10
146.345238
 20
251.076123
 42
-0.093332
  0
VERTEX
  8
0
 10
145.940983
 20
251.000000
 42
-0.108972
  0
VERTEX
  8
0
 10
145.586039
 20
251.078288
 42
-0.182303
  0
VERTEX
  8
0
 10
145.374600
 20
251.293750
 42
-0.161196
  0
VERTEX
  8
0
 10
145.343488
 20
251.617900
 42
-0.082592
  0
VERTEX
  8
0
 10
145.500000
 20
252.000000
 42
-0.029505
  0
VERTEX
  8
0
 10
145.768994
 20
252.382774
 42
-0.035638
  0
VERTEX
  8
0
 10
146.066025
 20
252.706250
 42
-0.038439
  0
VERTEX
  8
0
 10
146.348290
 20
252.934461
 42
-0.151918
  0
VERTEX
  8
0
 10
146.559017
 20
253.000000
 42
-0.210953
  0
VERTEX
  8
0
 10
146.727648
 20
252.925540
 42
-0.081139
  0
VERTEX
  8
0
 10
146.870461
 20
252.706250
 42
-0.061769
  0
VERTEX
  8
0
 10
146.967655
 20
252.382849
 42
-0.042167
  0
SEQEND
  0
POLYLINE
  8
0
 66
1
 70
1
  0
VERTEX
  8
0
 10
168.571429
 20
256.428571
 42
0.164856
  0
VERTEX
  8
0
 10
166.999437
 20
253.244718
 42
0.149106
  0
VERTEX
  8
0
 10
167.601310
 20
249.611711
 42
0.147557
  0
VERTEX
  8
0
 10
170.137446
 20
246.906806
 42
0.161090
  0
VERTEX
  8
0
 10
173.654178
 20
246.175044
 42
0.171671
  0
VERTEX
  8
0
 10
176.680449
 20
247.653021
 42
0.151717
  0
VERTEX
  8
0
 10
178.292732
 20
250.785630
 42
0.142408
  0
VERTEX
  8
0
 10
177.894074
 20
254.437616
 42
0.148687
  0
VERTEX
  8
0
 10
175.600296
 20
257.234687
 42
0.106560
  0
VERTEX
  8
0
 10
173.998001
 20
257.868006
 42
0.069683
  0
VERTEX
  8
0
 10
172.004487
 20
257.917760
 42
0.069018
  0
VERTEX
  8
0
 10
170.052620
 20
257.415195
 42
0.099217
  0
SEQEND
  0
POLYLINE
  8
0
 66
1
 70
1
  0
VERTEX
  8
0
 10
174.000000
 20
252.000000
 42
-0.099038
  0
VERTEX
  8
0
 10
173.923658
 20
251.618362
 42
-0.097945
  0
VERTEX
  8
0
 10
173.706250
 20
251.293750
 42
-0.097945
  0
VERTEX
  8
0
 10
173.381638
 20
251.076342
 42
-0.099038
  0
VERTEX
  8
0
 10
173.000000
 20
251.000000
 42
-0.099038
  0
VERTEX
  8
0
 10
172.618362
 20
251.076342
 42
-0.097945
  0
VERTEX
  8
0
 10
172.293750
 20
251.293750
 42
-0.097945
  0
VERTEX
  8
0
 10
172.076342
 20
251.618362
 42
-0.099038
  0
VERTEX
  8
0
 10
172.000000
 20
252.000000
 42
-0.099038
  0
VERTEX
  8
0
 10
172.076342
 20
252.381638
 42
-0.097945
  0
VERTEX
  8
0
 10
172.293750
 20
252.706250
 42
-0.097945
  0
VERTEX
  8
0
 10
172.618362
 20
252.923658
 42
-0.099038
  0
VERTEX
  8
0
 10
173.000000
 20
253.000000
 42
-0.099038
  0
VERTEX
  8
0
 10
173.381638
 20
252.923658
 42
-0.097945
  0
VERTEX
  8
0
 10
173.706250
 20
252.706250
 42
-0.097945
  0
VERTEX
  8
0
 10
173.923658
 20
252.381638
 42
-0.099038
  0
SEQEND
  0
ENDSEC
  0
EOF
