  0
SECTION
  2
HEADER
  9
$ACADVER
  1
AC1006
  9
$EXTMIN
 10
0.000000
 20
0.000000
 30
0.000000
  9
$EXTMAX
 10
319.000000
 20
319.000000
 30
0.000000
  0
ENDSEC
  0
SECTION
  2
ENTITIES
  0
POLYLINE
  8
0
 66
1
 70
1
  0
VERTEX
  8
0
 10
29.000000
 20
212.500000
 42
0.000000
  0
VERTEX
  8
0
 10
29.000000
 20
193.000000
 42
0.000000
  0
VERTEX
  8
0
 10
35.000000
 20
193.000000
 42
0.000000
  0
VERTEX
  8
0
 10
41.000000
 20
193.000000
 42
0.000000
  0
VERTEX
  8
0
 10
41.000000
 20
199.945209
 42
0.000000
  0
VERTEX
  8
0
 10
41.000000
 20
206.890418
 42
0.000000
  0
VERTEX
  8
0
 10
45.750000
 20
207.195209
 42
0.000000
  0
VERTEX
  8
0
 10
50.500000
 20
207.500000
 42
0.000000
  0
VERTEX
  8
0
 10
50.804791
 20
212.250000
 42
0.000000
  0
VERTEX
  8
0
 10
51.109582
 20
217.000000
 42
0.000000
  0
VERTEX
  8
0
 10
46.054791
 20
217.000000
 42
-0.010109
  0
VERTEX
  8
0
 10
42.975610
 20
217.062264
 42
-0.105101
  0
VERTEX
  8
0
 10
41.755479
 20
217.373645
 42
-0.217628
  0
VERTEX
  8
0
 10
41.181699
 20
218.078966
 42
-0.063673
  0
VERTEX
  8
0
 10
41.000000
 20
219.500000
 42
-0.067911
  0
VERTEX
  8
0
 10
41.195020
 20
220.929226
 42
-0.221767
  0
VERTEX
  8
0
 10
41.800000
 20
221.636364
 42
-0.098356
  0
VERTEX
  8
0
 10
43.099576
 20
221.941399
 42
-0.008616
  0
VERTEX
  8
0
 10
46.500000
 20
222.000000
 42
0.000000
  0
VERTEX
  8
0
 10
52.000000
 20
222.000000
 42
0.000000
  0
VERTEX
  8
0
 10
52.000000
 20
227.000000
 42
0.000000
  0
VERTEX
  8
0
 10
52.000000
 20
232.000000
 42
0.000000
  0
VERTEX
  8
0
 10
40.500000
 20
232.000000
 42
0.000000
  0
VERTEX
  8
0
 10
29.000000
 20
232.000000
 42
0.000000
  0
SEQEND
  0
POLYLINE
  8
0
 66
1
 70
1
  0
VERTEX
  8
0
 10
253.242976
 20
229.842976
 42
0.156980
  0
VERTEX
  8
0
 10
252.084763
 20
227.585178
 42
0.176156
  0
VERTEX
  8
0
 10
252.535012
 20
225.194715
 42
0.162381
  0
VERTEX
  8
0
 10
254.471317
 20
223.517091
 42
0.133996
  0
VERTEX
  8
0
 10
257.194958
 20
223.173236
 42
0.066687
  0
VERTEX
  8
0
 10
258.378349
 20
223.505851
 42
0.156631
  0
VERTEX
  8
0
 10
259.062014
 20
224.102954
 42
0.110897
  0
VERTEX
  8
0
 10
259.406493
 20
225.138111
 42
0.025095
  0
VERTEX
  8
0
 10
259.500000
 20
227.000000
 42
0.024350
  0
VERTEX
  8
0
 10
259.406498
 20
228.918827
 42
0.122270
  0
VERTEX
  8
0
 10
259.050000
 20
229.924353
 42
0.164610
  0
VERTEX
  8
0
 10
258.324640
 20
230.487841
 42
0.054511
  0
VERTEX
  8
0
 10
256.992976
 20
230.792976
 42
0.048605
  0
VERTEX
  8
0
 10
255.941859
 20
230.813162
 42
0.042571
  0
VERTEX
  8
0
 10
254.857266
 20
230.634766
 42
0.044841
  0
VERTEX
  8
0
 10
253.899812
 20
230.298518
 42
0.089750
  0
SEQEND
  0
POLYLINE
  8
0
 66
1
 70
1
  0
VERTEX
  8
0
 10
113.960023
 20
222.697261
 42
0.073249
  0
VERTEX
  8
0
 10
110.537232
 20
220.187641
 42
0.056854
  0
VERTEX
  8
0
 10
107.635313
 20
216.586638
 42
0.057788
  0
VERTEX
  8
0
 10
105.664633
 20
212.499451
 42
0.083651
  0
VERTEX
  8
0
 10
105.000000
 20
208.554606
 42
0.081354
  0
VERTEX
  8
0
 10
105.640278
 20
204.645539
 42
0.052632
  0
VERTEX
  8
0
 10
107.555042
 20
200.469065
 42
0.052323
  0
VERTEX
  8
0
 10
110.319779
 20
196.752552
 42
0.076606
  0
VERTEX
  8
0
 10
113.500000
 20
194.213580
 42
0.031391
  0
VERTEX
  8
0
 10
115.831930
 20
193.063835
 42
0.051650
  0
VERTEX
  8
0
 10
117.935838
 20
192.431193
 42
0.044014
  0
VERTEX
  8
0
 10
120.351165
 20
192.186614
 42
0.016738
  0
VERTEX
  8
0
 10
123.739229
 20
192.256171
 42
0.069553
  0
VERTEX
  8
0
 10
130.224948
 20
193.522903
 42
0.105597
  0
VERTEX
  8
0
 10
135.128138
 20
196.476577
 42
0.109136
  0
VERTEX
  8
0
 10
138.291545
 20
201.092704
 42
0.078194
  0
VERTEX
  8
0
 10
139.706157
 20
207.208529
 42
0.137370
  0
VERTEX
  8
0
 10
137.915125
 20
215.963178
 42
0.139489
  0
VERTEX
  8
0
 10
131.843991
 20
222.453800
 42
0.134420
  0
VERTEX
  8
0
 10
123.069840
 20
224.923286
 42
0.124016
  0
SEQEND
  0
POLYLINE
  8
0
 66
1
 70
1
  0
VERTEX
  8
0
 10
127.685549
 20
213.825686
 42
-0.151148
  0
VERTEX
  8
0
 10
129.831138
 20
210.048462
 42
-0.149169
  0
VERTEX
  8
0
 10
129.484088
 20
205.697549
 42
-0.149375
  0
VERTEX
  8
0
 10
126.768235
 20
202.285757
 42
-0.151629
  0
VERTEX
  8
0
 10
122.625890
 20
201.000000
 42
-0.151968
  0
VERTEX
  8
0
 10
118.319707
 20
202.339746
 42
-0.150902
  0
VERTEX
  8
0
 10
115.519194
 20
205.889213
 42
-0.156538
  0
VERTEX
  8
0
 10
115.263767
 20
210.296262
 42
-0.164361
  0
VERTEX
  8
0
 10
117.634859
 20
213.927420
 42
-0.071826
  0
VERTEX
  8
0
 10
120.211414
 20
215.413321
 42
-0.097767
  0
VERTEX
  8
0
 10
122.842018
 20
215.905047
 42
-0.102007
  0
VERTEX
  8
0
 10
125.378454
 20
215.355314
 42
-0.084562
  0
SEQEND
  0
POLYLINE
  8
0
 66
1
 70
1
  0
VERTEX
  8
0
 10
150.961890
 20
222.750000
 42
0.032548
  0
VERTEX
  8
0
 10
148.747942
 20
221.446466
 42
0.047084
  0
VERTEX
  8
0
 10
147.000000
 20
220.000000
 42
0.047084
  0
VERTEX
  8
0
 10
145.553534
 20
218.252058
 42
0.032548
  0
VERTEX
  8
0
 10
144.250000
 20
216.038110
 42
0.041793
  0
VERTEX
  8
0
 10
142.695720
 20
212.186120
 42
0.069222
  0
VERTEX
  8
0
 10
142.132137
 20
208.732487
 42
0.069676
  0
VERTEX
  8
0
 10
142.533919
 20
205.272058
 42
0.042921
  0
VERTEX
  8
0
 10
143.905434
 20
201.401069
 42
0.063852
  0
VERTEX
  8
0
 10
146.184769
 20
197.715102
 42
0.073963
  0
VERTEX
  8
0
 10
149.224622
 20
194.929489
 42
0.071923
  0
VERTEX
  8
0
 10
153.018027
 20
193.094606
 42
0.056106
  0
VERTEX
  8
0
 10
157.514950
 20
192.207203
 42
0.034198
  0
VERTEX
  8
0
 10
162.263038
 20
192.138976
 42
0.133286
  0
VERTEX
  8
0
 10
165.026988
 20
193.051888
 42
0.177108
  0
VERTEX
  8
0
 10
166.508451
 20
195.057538
 42
0.071525
  0
VERTEX
  8
0
 10
167.000000
 20
198.476167
 42
0.026539
  0
VERTEX
  8
0
 10
166.835670
 20
201.569964
 42
0.135137
  0
VERTEX
  8
0
 10
166.210478
 20
203.159283
 42
0.345723
  0
VERTEX
  8
0
 10
165.238093
 20
203.419680
 42
0.119060
  0
VERTEX
  8
0
 10
163.990862
 20
202.488990
 42
-0.156225
  0
VERTEX
  8
0
 10
162.088726
 20
201.274802
 42
-0.085727
  0
VERTEX
  8
0
 10
159.308612
 20
201.031914
 42
-0.079947
  0
VERTEX
  8
0
 10
156.411543
 20
201.751464
 42
-0.103772
  0
VERTEX
  8
0
 10
154.174314
 20
203.314451
 42
-0.185642
  0
VERTEX
  8
0
 10
152.157993
 20
208.260647
 42
-0.181104
  0
VERTEX
  8
0
 10
153.947444
 20
213.346117
 42
-0.189059
  0
VERTEX
  8
0
 10
158.554326
 20
215.865386
 42
-0.196023
  0
VERTEX
  8
0
 10
163.558870
 20
214.531803
 42
0.035393
  0
VERTEX
  8
0
 10
165.497955
 20
213.270216
 42
0.336647
  0
VERTEX
  8
0
 10
166.416937
 20
213.402920
 42
0.183694
  0
VERTEX
  8
0
 10
166.910269
 20
214.523881
 42
0.012813
  0
VERTEX
  8
0
 10
167.000000
 20
218.024751
 42
0.014410
  0
VERTEX
  8
0
 10
166.916590
 20
220.918341
 42
0.086808
  0
VERTEX
  8
0
 10
166.573855
 20
222.376749
 42
0.140782
  0
VERTEX
  8
0
 10
165.830950
 20
223.288464
 42
0.061081
  0
VERTEX
  8
0
 10
164.434900
 20
224.024751
 42
0.058585
  0
VERTEX
  8
0
 10
161.264261
 20
224.821815
 42
0.055954
  0
VERTEX
  8
0
 10
157.944465
 20
224.879777
 42
0.052369
  0
VERTEX
  8
0
 10
154.500477
 20
224.185312
 42
0.040882
  0
SEQEND
  0
POLYLINE
  8
0
 66
1
 70
1
  0
VERTEX
  8
0
 10
56.000000
 20
208.500000
 42
0.000000
  0
VERTEX
  8
0
 10
56.000000
 20
193.000000
 42
0.000000
  0
VERTEX
  8
0
 10
65.060365
 20
193.000000
 42
0.000000
  0
VERTEX
  8
0
 10
74.120731
 20
193.000000
 42
0.000000
  0
VERTEX
  8
0
 10
73.810365
 20
196.750000
 42
0.023701
  0
VERTEX
  8
0
 10
73.508419
 20
199.060132
 42
0.168139
  0
VERTEX
  8
0
 10
72.964223
 20
200.031832
 42
0.147749
  0
VERTEX
  8
0
 10
71.899921
 20
200.524764
 42
0.017035
  0
VERTEX
  8
0
 10
69.250000
 20
200.807498
 42
-0.017695
  0
VERTEX
  8
0
 10
67.033113
 20
201.046989
 42
-0.086187
  0
VERTEX
  8
0
 10
65.836550
 20
201.436822
 42
-0.160679
  0
VERTEX
  8
0
 10
65.222991
 20
202.075601
 42
-0.112123
  0
VERTEX
  8
0
 10
65.000000
 20
203.057498
 42
-0.109873
  0
VERTEX
  8
0
 10
65.221280
 20
204.052318
 42
-0.183405
  0
VERTEX
  8
0
 10
65.829150
 20
204.642083
 42
-0.087921
  0
VERTEX
  8
0
 10
67.049228
 20
204.930476
 42
-0.014181
  0
VERTEX
  8
0
 10
69.500000
 20
205.000000
 42
0.012019
  0
VERTEX
  8
0
 10
72.417500
 20
205.070142
 42
0.154453
  0
VERTEX
  8
0
 10
73.428571
 20
205.444444
 42
0.206324
  0
VERTEX
  8
0
 10
73.894012
 20
206.290758
 42
0.023974
  0
VERTEX
  8
0
 10
74.000000
 20
208.500000
 42
0.023974
  0
VERTEX
  8
0
 10
73.894012
 20
210.709242
 42
0.206324
  0
VERTEX
  8
0
 10
73.428571
 20
211.555556
 42
0.154453
  0
VERTEX
  8
0
 10
72.417500
 20
211.929858
 42
0.012019
  0
VERTEX
  8
0
 10
69.500000
 20
212.000000
 42
-0.013964
  0
VERTEX
  8
0
 10
67.020585
 20
212.069261
 42
-0.090841
  0
VERTEX
  8
0
 10
65.812500
 20
212.361111
 42
-0.188085
  0
VERTEX
  8
0
 10
65.214724
 20
212.964475
 42
-0.102588
  0
VERTEX
  8
0
 10
65.000000
 20
214.000000
 42
-0.102588
  0
VERTEX
  8
0
 10
65.214724
 20
215.035525
 42
-0.188085
  0
VERTEX
  8
0
 10
65.812500
 20
215.638889
 42
-0.090841
  0
VERTEX
  8
0
 10
67.020585
 20
215.930739
 42
-0.013964
  0
VERTEX
  8
0
 10
69.500000
 20
216.000000
 42
0.000000
  0
VERTEX
  8
0
 10
74.000000
 20
216.000000
 42
0.000000
  0
VERTEX
  8
0
 10
74.000000
 20
220.000000
 42
0.000000
  0
VERTEX
  8
0
 10
74.000000
 20
224.000000
 42
0.000000
  0
VERTEX
  8
0
 10
65.000000
 20
224.000000
 42
0.000000
  0
VERTEX
  8
0
 10
56.000000
 20
224.000000
 42
0.000000
  0
SEQEND
  0
POLYLINE
  8
0
 66
1
 70
1
  0
VERTEX
  8
0
 10
79.000000
 20
208.500000
 42
0.000000
  0
VERTEX
  8
0
 10
79.000000
 20
193.000000
 42
0.000000
  0
VERTEX
  8
0
 10
83.442502
 20
193.000000
 42
0.000000
  0
VERTEX
  8
0
 10
87.885004
 20
193.000000
 42
0.000000
  0
VERTEX
  8
0
 10
88.192502
 20
197.193392
 42
0.000000
  0
VERTEX
  8
0
 10
88.500000
 20
201.386784
 42
0.000000
  0
VERTEX
  8
0
 10
91.264188
 20
197.193392
 42
0.019878
  0
VERTEX
  8
0
 10
93.103150
 20
194.631330
 42
0.110727
  0
VERTEX
  8
0
 10
94.402165
 20
193.563697
 42
0.101702
  0
VERTEX
  8
0
 10
96.082801
 20
193.108184
 42
0.015494
  0
VERTEX
  8
0
 10
99.573205
 20
193.000000
 42
0.014656
  0
VERTEX
  8
0
 10
103.579243
 20
193.117448
 42
0.390719
  0
VERTEX
  8
0
 10
104.260504
 20
193.823942
 42
0.169936
  0
VERTEX
  8
0
 10
103.836244
 20
195.128619
 42
0.003797
  0
VERTEX
  8
0
 10
99.738465
 20
200.423307
 42
-0.006827
  0
VERTEX
  8
0
 10
97.460993
 20
203.403138
 42
-0.075767
  0
VERTEX
  8
0
 10
96.761029
 20
204.722776
 42
-0.236964
  0
VERTEX
  8
0
 10
96.870949
 20
205.570783
 42
-0.124166
  0
VERTEX
  8
0
 10
97.683990
 20
206.297630
 42
0.062600
  0
VERTEX
  8
0
 10
99.656221
 20
207.668595
 42
0.085711
  0
VERTEX
  8
0
 10
100.991793
 20
209.363761
 42
0.078994
  0
VERTEX
  8
0
 10
101.750459
 20
211.517827
 42
0.045274
  0
VERTEX
  8
0
 10
102.000000
 20
214.268053
 42
0.038015
  0
VERTEX
  8
0
 10
101.845238
 20
216.300662
 42
0.063466
  0
VERTEX
  8
0
 10
101.373876
 20
217.947632
 42
0.061532
  0
VERTEX
  8
0
 10
100.492092
 20
219.458064
 42
0.033530
  0
VERTEX
  8
0
 10
99.076923
 20
221.076923
 42
0.040372
  0
VERTEX
  8
0
 10
97.097506
 20
222.760124
 42
0.094048
  0
VERTEX
  8
0
 10
95.340697
 20
223.579596
 42
0.055088
  0
VERTEX
  8
0
 10
92.878189
 20
223.923714
 42
0.007195
  0
VERTEX
  8
0
 10
87.576923
 20
224.000000
 42
0.000000
  0
VERTEX
  8
0
 10
79.000000
 20
224.000000
 42
0.000000
  0
SEQEND
  0
POLYLINE
  8
0
 66
1
 70
1
  0
VERTEX
  8
0
 10
91.894808
 20
215.626748
 42
-0.135825
  0
VERTEX
  8
0
 10
92.547674
 20
214.175441
 42
-0.141194
  0
VERTEX
  8
0
 10
92.347619
 20
212.618654
 42
-0.145688
  0
VERTEX
  8
0
 10
91.360238
 20
211.440858
 42
-0.146989
  0
VERTEX
  8
0
 10
89.893011
 20
211.000000
 42
-0.092211
  0
VERTEX
  8
0
 10
88.989657
 20
211.168028
 42
-0.161402
  0
VERTEX
  8
0
 10
88.407751
 20
211.646194
 42
-0.110105
  0
VERTEX
  8
0
 10
88.091421
 20
212.530367
 42
-0.031073
  0
VERTEX
  8
0
 10
88.000000
 20
214.000000
 42
-0.077396
  0
VERTEX
  8
0
 10
88.301627
 20
215.936913
 42
-0.219994
  0
VERTEX
  8
0
 10
89.202538
 20
216.919502
 42
-0.236256
  0
VERTEX
  8
0
 10
90.478789
 20
216.832126
 42
-0.086644
  0
SEQEND
  0
POLYLINE
  8
0
 66
1
 70
1
  0
VERTEX
  8
0
 10
171.000000
 20
208.500000
 42
0.000000
  0
VERTEX
  8
0
 10
171.000000
 20
193.000000
 42
0.000000
  0
VERTEX
  8
0
 10
175.500000
 20
193.000000
 42
0.000000
  0
VERTEX
  8
0
 10
180.000000
 20
193.000000
 42
0.000000
  0
VERTEX
  8
0
 10
180.000000
 20
208.500000
 42
0.000000
  0
VERTEX
  8
0
 10
180.000000
 20
224.000000
 42
0.000000
  0
VERTEX
  8
0
 10
175.500000
 20
224.000000
 42
0.000000
  0
VERTEX
  8
0
 10
171.000000
 20
224.000000
 42
0.000000
  0
SEQEND
  0
POLYLINE
  8
0
 66
1
 70
1
  0
VERTEX
  8
0
 10
182.000000
 20
220.000000
 42
0.015744
  0
VERTEX
  8
0
 10
182.076799
 20
217.561635
 42
0.146160
  0
VERTEX
  8
0
 10
182.437500
 20
216.583333
 42
0.200505
  0
VERTEX
  8
0
 10
183.224263
 20
216.120733
 42
0.033956
  0
VERTEX
  8
0
 10
185.000000
 20
216.000000
 42
0.000000
  0
VERTEX
  8
0
 10
188.000000
 20
216.000000
 42
0.000000
  0
VERTEX
  8
0
 10
188.000000
 20
204.500000
 42
0.000000
  0
VERTEX
  8
0
 10
188.000000
 20
193.000000
 42
0.000000
  0
VERTEX
  8
0
 10
192.500000
 20
193.000000
 42
0.000000
  0
VERTEX
  8
0
 10
197.000000
 20
193.000000
 42
0.000000
  0
VERTEX
  8
0
 10
197.000000
 20
204.500000
 42
0.000000
  0
VERTEX
  8
0
 10
197.000000
 20
216.000000
 42
0.000000
  0
VERTEX
  8
0
 10
200.500000
 20
216.000000
 42
0.022778
  0
VERTEX
  8
0
 10
202.675038
 20
216.099137
 42
0.192545
  0
VERTEX
  8
0
 10
203.531250
 20
216.535714
 42
0.165362
  0
VERTEX
  8
0
 10
203.920164
 20
217.478972
 42
0.015830
  0
VERTEX
  8
0
 10
204.000000
 20
220.000000
 42
0.000000
  0
VERTEX
  8
0
 10
204.000000
 20
224.000000
 42
0.000000
  0
VERTEX
  8
0
 10
193.000000
 20
224.000000
 42
0.000000
  0
VERTEX
  8
0
 10
182.000000
 20
224.000000
 42
0.000000
  0
SEQEND
  0
POLYLINE
  8
0
 66
1
 70
1
  0
VERTEX
  8
0
 10
205.000000
 20
223.467885
 42
0.144696
  0
VERTEX
  8
0
 10
205.110014
 20
223.095689
 42
0.001487
  0
VERTEX
  8
0
 10
206.615625
 20
220.786409
 42
0.004639
  0
VERTEX
  8
0
 10
208.391894
 20
218.133621
 42
0.002977
  0
VERTEX
  8
0
 10
210.500000
 20
215.086682
 42
-0.008112
  0
VERTEX
  8
0
 10
213.939000
 20
210.005400
 42
-0.056716
  0
VERTEX
  8
0
 10
215.281203
 20
207.333037
 42
-0.071366
  0
VERTEX
  8
0
 10
215.846984
 20
204.673973
 42
-0.016791
  0
VERTEX
  8
0
 10
216.000000
 20
200.118798
 42
0.000000
  0
VERTEX
  8
0
 10
216.000000
 20
193.000000
 42
0.000000
  0
VERTEX
  8
0
 10
220.500000
 20
193.000000
 42
0.000000
  0
VERTEX
  8
0
 10
225.000000
 20
193.000000
 42
0.000000
  0
VERTEX
  8
0
 10
225.000000
 20
200.256905
 42
-0.015886
  0
VERTEX
  8
0
 10
225.148270
 20
204.922448
 42
-0.071994
  0
VERTEX
  8
0
 10
225.706907
 20
207.578846
 42
-0.058257
  0
VERTEX
  8
0
 10
227.040120
 20
210.220445
 42
-0.008156
  0
VERTEX
  8
0
 10
230.500000
 20
215.276719
 42
0.002727
  0
VERTEX
  8
0
 10
232.608183
 20
218.286966
 42
0.004277
  0
VERTEX
  8
0
 10
234.384375
 20
220.900328
 42
0.001259
  0
VERTEX
  8
0
 10
235.898658
 20
223.182275
 42
0.146881
  0
VERTEX
  8
0
 10
236.000000
 20
223.519814
 42
0.379097
  0
VERTEX
  8
0
 10
235.830363
 20
223.711397
 42
0.007861
  0
VERTEX
  8
0
 10
234.457812
 20
223.856938
 42
0.014227
  0
VERTEX
  8
0
 10
232.762962
 20
223.961246
 42
0.008579
  0
VERTEX
  8
0
 10
230.750000
 20
223.993167
 42
0.017183
  0
VERTEX
  8
0
 10
227.581671
 20
223.880124
 42
0.092328
  0
VERTEX
  8
0
 10
225.918184
 20
223.447987
 42
0.107104
  0
VERTEX
  8
0
 10
224.641237
 20
222.473837
 42
0.026944
  0
VERTEX
  8
0
 10
223.044732
 20
220.381718
 42
0.000000
  0
VERTEX
  8
0
 10
220.589464
 20
216.777102
 42
0.000000
  0
VERTEX
  8
0
 10
218.299699
 20
219.638551
 42
-0.011728
  0
VERTEX
  8
0
 10
217.422402
 20
220.789197
 42
-0.015480
  0
VERTEX
  8
0
 10
216.681094
 20
221.879762
 42
-0.012876
  0
VERTEX
  8
0
 10
216.121638
 20
222.812450
 42
-0.127667
  0
VERTEX
  8
0
 10
216.004967
 20
223.250000
 42
0.354620
  0
VERTEX
  8
0
 10
215.761514
 20
223.546063
 42
0.016408
  0
VERTEX
  8
0
 10
214.385834
 20
223.779687
 42
0.021050
  0
VERTEX
  8
0
 10
212.608956
 20
223.945977
 42
0.012806
  0
VERTEX
  8
0
 10
210.500000
 20
224.000000
 42
0.009076
  0
VERTEX
  8
0
 10
208.391205
 20
223.961719
 42
0.015038
  0
VERTEX
  8
0
 10
206.615625
 20
223.843691
 42
0.008741
  0
VERTEX
  8
0
 10
205.186018
 20
223.680107
 42
0.376227
  0
SEQEND
  0
POLYLINE
  8
0
 66
1
 70
1
  0
VERTEX
  8
0
 10
271.354429
 20
218.213135
 42
0.102361
  0
VERTEX
  8
0
 10
269.231292
 20
217.427809
 42
0.087292
  0
VERTEX
  8
0
 10
267.453368
 20
215.828897
 42
0.082289
  0
VERTEX
  8
0
 10
266.249060
 20
213.624475
 42
0.076996
  0
VERTEX
  8
0
 10
265.783709
 20
211.097504
 42
0.084782
  0
VERTEX
  8
0
 10
266.140506
 20
208.579034
 42
0.087379
  0
VERTEX
  8
0
 10
267.312441
 20
206.350915
 42
0.078055
  0
VERTEX
  8
0
 10
269.306090
 20
204.469375
 42
0.052043
  0
VERTEX
  8
0
 10
272.072294
 20
202.970055
 42
-0.061123
  0
VERTEX
  8
0
 10
273.902541
 20
201.934742
 42
-0.141634
  0
VERTEX
  8
0
 10
274.851977
 20
200.692313
 42
-0.208894
  0
VERTEX
  8
0
 10
274.801782
 20
199.461200
 42
-0.142097
  0
VERTEX
  8
0
 10
273.848296
 20
198.406242
 42
-0.144083
  0
VERTEX
  8
0
 10
273.316572
 20
198.260582
 42
-0.090383
  0
VERTEX
  8
0
 10
272.679897
 20
198.389041
 42
-0.076762
  0
VERTEX
  8
0
 10
272.036096
 20
198.768501
 42
-0.063487
  0
VERTEX
  8
0
 10
271.488054
 20
199.347225
 42
0.092911
  0
VERTEX
  8
0
 10
270.279239
 20
200.482723
 42
0.131607
  0
VERTEX
  8
0
 10
268.879309
 20
200.926740
 42
0.112782
  0
VERTEX
  8
0
 10
267.282096
 20
200.637434
 42
0.056954
  0
VERTEX
  8
0
 10
265.494540
 20
199.619666
 42
0.050649
  0
VERTEX
  8
0
 10
264.481344
 20
198.708213
 42
0.256466
  0
VERTEX
  8
0
 10
264.310632
 20
197.994861
 42
0.121178
  0
VERTEX
  8
0
 10
264.800347
 20
197.116068
 42
0.008955
  0
VERTEX
  8
0
 10
266.726488
 20
195.119666
 42
0.131110
  0
VERTEX
  8
0
 10
271.531134
 20
192.338869
 42
0.149745
  0
VERTEX
  8
0
 10
276.822547
 20
192.515395
 42
0.160100
  0
VERTEX
  8
0
 10
280.862805
 20
195.574935
 42
0.152454
  0
VERTEX
  8
0
 10
282.400000
 20
200.499249
 42
0.065011
  0
VERTEX
  8
0
 10
282.056202
 20
203.132225
 42
0.111015
  0
VERTEX
  8
0
 10
281.035331
 20
205.089298
 42
0.074483
  0
VERTEX
  8
0
 10
278.962277
 20
206.908160
 42
0.017370
  0
VERTEX
  8
0
 10
274.974071
 20
209.281223
 42
-0.021212
  0
VERTEX
  8
0
 10
273.773426
 20
210.008177
 42
-0.037668
  0
VERTEX
  8
0
 10
272.861883
 20
210.718775
 42
-0.048402
  0
VERTEX
  8
0
 10
272.314761
 20
211.322058
 42
-0.372210
  0
VERTEX
  8
0
 10
272.340391
 20
211.673724
 42
-0.189595
  0
VERTEX
  8
0
 10
272.678643
 20
211.821003
 42
-0.076715
  0
VERTEX
  8
0
 10
273.186952
 20
211.761147
 42
-0.061025
  0
VERTEX
  8
0
 10
273.778387
 20
211.516481
 42
-0.044675
  0
VERTEX
  8
0
 10
274.363911
 20
211.112944
 42
0.073528
  0
VERTEX
  8
0
 10
275.186316
 20
210.613313
 42
0.101249
  0
VERTEX
  8
0
 10
276.031812
 20
210.444269
 42
0.077613
  0
VERTEX
  8
0
 10
277.038570
 20
210.606111
 42
0.028312
  0
VERTEX
  8
0
 10
278.388077
 20
211.130958
 42
0.024588
  0
VERTEX
  8
0
 10
280.267770
 20
212.101657
 42
0.202179
  0
VERTEX
  8
0
 10
280.835463
 20
212.854719
 42
0.194366
  0
VERTEX
  8
0
 10
280.704526
 20
213.804715
 42
0.022530
  0
VERTEX
  8
0
 10
279.528807
 20
215.655410
 42
0.089369
  0
VERTEX
  8
0
 10
278.127975
 20
217.045416
 42
0.075143
  0
VERTEX
  8
0
 10
276.245636
 20
217.962247
 42
0.066180
  0
VERTEX
  8
0
 10
273.954576
 20
218.358064
 42
0.047331
  0
SEQEND
  0
POLYLINE
  8
0
 66
1
 70
1
  0
VERTEX
  8
0
 10
253.000000
 20
205.563358
 42
0.000000
  0
VERTEX
  8
0
 10
253.000000
 20
193.000000
 42
0.000000
  0
VERTEX
  8
0
 10
256.530779
 20
193.000000
 42
0.000000
  0
VERTEX
  8
0
 10
260.061558
 20
193.000000
 42
0.000000
  0
VERTEX
  8
0
 10
259.780779
 20
205.250000
 42
0.000000
  0
VERTEX
  8
0
 10
259.500000
 20
217.500000
 42
0.000000
  0
VERTEX
  8
0
 10
256.250000
 20
217.813358
 42
0.000000
  0
VERTEX
  8
0
 10
253.000000
 20
218.126717
 42
0.000000
  0
SEQEND
  0
POLYLINE
  8
0
 66
1
 70
1
  0
VERTEX
  8
0
 10
258.713008
 20
175.254052
 42
0.000000
  0
VERTEX
  8
0
 10
248.926017
 20
174.926684
 42
0.000000
  0
VERTEX
  8
0
 10
246.966746
 20
171.713342
 42
0.034242
  0
VERTEX
  8
0
 10
245.453365
 20
168.799913
 42
0.104288
  0
VERTEX
  8
0
 10
245.006556
 20
166.627046
 42
0.255002
  0
VERTEX
  8
0
 10
245.625977
 20
165.504923
 42
0.208658
  0
VERTEX
  8
0
 10
246.999004
 20
165.289489
 42
-0.038413
  0
VERTEX
  8
0
 10
247.798350
 20
165.434112
 42
-0.048873
  0
VERTEX
  8
0
 10
248.547493
 20
165.437510
 42
-0.057258
  0
VERTEX
  8
0
 10
249.144304
 20
165.311849
 42
-0.175599
  0
VERTEX
  8
0
 10
249.463342
 20
165.059314
 42
0.205094
  0
VERTEX
  8
0
 10
250.178035
 20
164.556983
 42
0.018360
  0
VERTEX
  8
0
 10
252.387713
 20
164.174604
 42
0.020427
  0
VERTEX
  8
0
 10
255.268744
 20
163.903611
 42
0.011793
  0
VERTEX
  8
0
 10
258.750000
 20
163.801401
 42
-0.037868
  0
VERTEX
  8
0
 10
259.611622
 20
163.731053
 42
-0.056583
  0
VERTEX
  8
0
 10
260.339063
 20
163.529563
 42
-0.074119
  0
VERTEX
  8
0
 10
260.835874
 20
163.237654
 42
-0.226667
  0
VERTEX
  8
0
 10
261.000000
 20
162.894213
 42
-0.164256
  0
VERTEX
  8
0
 10
260.884834
 20
162.553105
 42
-0.095794
  0
VERTEX
  8
0
 10
260.559375
 20
162.262675
 42
-0.076920
  0
VERTEX
  8
0
 10
260.073712
 20
162.066416
 42
-0.057690
  0
VERTEX
  8
0
 10
259.500000
 20
162.000000
 42
0.052557
  0
VERTEX
  8
0
 10
258.926101
 20
161.939508
 42
0.072411
  0
VERTEX
  8
0
 10
258.440625
 20
161.759757
 42
0.092324
  0
VERTEX
  8
0
 10
258.114529
 20
161.494271
 42
0.177678
  0
VERTEX
  8
0
 10
258.000000
 20
161.182153
 42
-0.321635
  0
VERTEX
  8
0
 10
257.784820
 20
160.882247
 42
-0.042599
  0
VERTEX
  8
0
 10
256.981099
 20
160.684790
 42
-0.036479
  0
VERTEX
  8
0
 10
255.860987
 20
160.591793
 42
-0.022129
  0
VERTEX
  8
0
 10
254.531402
 20
160.637470
 42
0.024104
  0
VERTEX
  8
0
 10
253.164252
 20
160.679036
 42
0.032056
  0
VERTEX
  8
0
 10
251.925313
 20
160.577346
 42
0.033392
  0
VERTEX
  8
0
 10
250.949211
 20
160.366495
 42
0.186549
  0
VERTEX
  8
0
 10
250.530406
 20
160.049198
 42
-0.166486
  0
VERTEX
  8
0
 10
250.175633
 20
159.758012
 42
-0.060343
  0
VERTEX
  8
0
 10
249.533748
 20
159.603112
 42
-0.051498
  0
VERTEX
  8
0
 10
248.732961
 20
159.592423
 42
-0.041579
  0
VERTEX
  8
0
 10
247.885149
 20
159.740285
 42
0.029567
  0
VERTEX
  8
0
 10
246.720690
 20
159.972288
 42
0.272574
  0
VERTEX
  8
0
 10
246.264325
 20
159.782199
 42
0.218263
  0
VERTEX
  8
0
 10
246.148137
 20
159.247875
 42
0.019893
  0
VERTEX
  8
0
 10
246.501080
 20
157.896405
 42
0.040382
  0
VERTEX
  8
0
 10
246.927249
 20
156.816742
 42
0.020954
  0
VERTEX
  8
0
 10
247.620731
 20
155.543006
 42
0.020693
  0
VERTEX
  8
0
 10
248.447312
 20
154.286452
 42
0.029499
  0
VERTEX
  8
0
 10
249.289249
 20
153.250000
 42
0.068005
  0
VERTEX
  8
0
 10
250.729075
 20
152.052428
 42
0.083744
  0
VERTEX
  8
0
 10
252.342144
 20
151.387668
 42
0.047288
  0
VERTEX
  8
0
 10
254.728810
 20
151.077345
 42
0.008699
  0
VERTEX
  8
0
 10
259.174314
 20
151.000000
 42
0.000000
  0
VERTEX
  8
0
 10
267.000000
 20
151.000000
 42
0.000000
  0
VERTEX
  8
0
 10
267.000000
 20
148.222506
 42
-0.046039
  0
VERTEX
  8
0
 10
266.886908
 20
146.996900
 42
-0.029459
  0
VERTEX
  8
0
 10
266.542718
 20
145.608040
 42
-0.029522
  0
VERTEX
  8
0
 10
266.039831
 20
144.275463
 42
-0.047819
  0
VERTEX
  8
0
 10
265.443296
 20
143.222506
 42
-0.070038
  0
VERTEX
  8
0
 10
264.388154
 20
142.091840
 42
-0.092924
  0
VERTEX
  8
0
 10
263.152462
 20
141.425142
 42
-0.061527
  0
VERTEX
  8
0
 10
261.388693
 20
141.092226
 42
-0.015916
  0
VERTEX
  8
0
 10
258.492086
 20
141.000000
 42
-0.021569
  0
VERTEX
  8
0
 10
256.011478
 20
141.107056
 42
-0.011857
  0
VERTEX
  8
0
 10
252.990543
 20
141.440625
 42
-0.011801
  0
VERTEX
  8
0
 10
249.935896
 20
141.925083
 42
-0.018481
  0
VERTEX
  8
0
 10
247.338691
 20
142.500000
 42
0.036880
  0
VERTEX
  8
0
 10
241.464794
 20
143.575416
 42
0.026843
  0
VERTEX
  8
0
 10
234.830830
 20
143.931863
 42
0.025114
  0
VERTEX
  8
0
 10
227.702134
 20
143.573627
 42
0.022164
  0
VERTEX
  8
0
 10
220.337968
 20
142.500171
 42
-0.012590
  0
VERTEX
  8
0
 10
213.342998
 20
141.343392
 42
-0.042152
  0
VERTEX
  8
0
 10
208.705724
 20
141.090614
 42
-0.066090
  0
VERTEX
  8
0
 10
205.362647
 20
141.636247
 42
-0.093456
  0
VERTEX
  8
0
 10
202.693967
 20
143.026085
 42
-0.055704
  0
VERTEX
  8
0
 10
200.597435
 20
145.091038
 42
-0.106188
  0
VERTEX
  8
0
 10
199.530709
 20
147.190459
 42
-0.121975
  0
VERTEX
  8
0
 10
199.496802
 20
149.339432
 42
-0.088496
  0
VERTEX
  8
0
 10
200.440125
 20
151.548963
 42
-0.145792
  0
VERTEX
  8
0
 10
202.704535
 20
153.460950
 42
-0.115740
  0
VERTEX
  8
0
 10
205.867729
 20
154.040524
 42
-0.085129
  0
VERTEX
  8
0
 10
209.785592
 20
153.168158
 42
-0.045426
  0
VERTEX
  8
0
 10
214.201347
 20
150.870796
 42
0.047303
  0
VERTEX
  8
0
 10
218.911001
 20
148.442907
 42
0.086640
  0
VERTEX
  8
0
 10
223.124155
 20
147.551082
 42
0.109429
  0
VERTEX
  8
0
 10
226.709294
 20
148.211770
 42
0.115560
  0
VERTEX
  8
0
 10
229.598917
 20
150.320102
 42
0.102659
  0
VERTEX
  8
0
 10
231.518913
 20
153.786981
 42
0.100672
  0
VERTEX
  8
0
 10
231.919205
 20
157.756707
 42
0.132793
  0
VERTEX
  8
0
 10
230.754007
 20
160.813214
 42
0.240096
  0
VERTEX
  8
0
 10
228.425000
 20
162.000000
 42
0.203175
  0
VERTEX
  8
0
 10
227.931599
 20
161.790874
 42
0.058753
  0
VERTEX
  8
0
 10
227.418906
 20
161.118750
 42
0.048754
  0
VERTEX
  8
0
 10
226.965894
 20
160.148545
 42
0.035518
  0
VERTEX
  8
0
 10
226.650000
 20
159.000000
 42
-0.035157
  0
VERTEX
  8
0
 10
226.334991
 20
157.851432
 42
-0.048382
  0
VERTEX
  8
0
 10
225.884569
 20
156.881250
 42
-0.058246
  0
VERTEX
  8
0
 10
225.375663
 20
156.208617
 42
-0.204463
  0
VERTEX
  8
0
 10
224.886831
 20
156.000000
 42
-0.145193
  0
VERTEX
  8
0
 10
224.213325
 20
156.199788
 42
-0.013428
  0
VERTEX
  8
0
 10
222.766316
 20
157.197401
 42
-0.016416
  0
VERTEX
  8
0
 10
221.080051
 20
158.515006
 42
-0.012151
  0
VERTEX
  8
0
 10
219.301444
 20
160.076258
 42
0.018092
  0
VERTEX
  8
0
 10
217.358544
 20
161.741287
 42
0.014997
  0
VERTEX
  8
0
 10
215.177301
 20
163.373339
 42
0.015261
  0
VERTEX
  8
0
 10
213.086006
 20
164.749028
 42
0.038908
  0
VERTEX
  8
0
 10
211.471732
 20
165.576258
 42
0.145454
  0
VERTEX
  8
0
 10
201.288658
 20
166.668963
 42
0.134467
  0
VERTEX
  8
0
 10
191.801794
 20
162.094279
 42
0.129703
  0
VERTEX
  8
0
 10
185.738068
 20
153.157948
 42
0.131237
  0
VERTEX
  8
0
 10
184.908266
 20
142.435378
 42
0.067695
  0
VERTEX
  8
0
 10
187.056541
 20
135.929508
 42
0.082864
  0
VERTEX
  8
0
 10
190.770050
 20
130.721999
 42
0.072726
  0
VERTEX
  8
0
 10
196.391403
 20
126.529833
 42
0.039661
  0
VERTEX
  8
0
 10
204.278663
 20
123.042522
 42
-0.013437
  0
VERTEX
  8
0
 10
210.800830
 20
120.558527
 42
-0.014699
  0
VERTEX
  8
0
 10
216.984948
 20
117.795678
 42
-0.007469
  0
VERTEX
  8
0
 10
222.325895
 20
115.119558
 42
-0.279820
  0
VERTEX
  8
0
 10
223.000000
 20
114.009337
 42
-0.261985
  0
VERTEX
  8
0
 10
222.778955
 20
113.616426
 42
-0.056832
  0
VERTEX
  8
0
 10
222.045312
 20
113.277875
 42
-0.045473
  0
VERTEX
  8
0
 10
220.995116
 20
113.034276
 42
-0.029394
  0
VERTEX
  8
0
 10
219.750000
 20
112.936620
 42
0.053559
  0
VERTEX
  8
0
 10
218.128184
 20
112.730336
 42
0.018288
  0
VERTEX
  8
0
 10
215.839063
 20
112.096553
 42
0.017941
  0
VERTEX
  8
0
 10
213.344190
 20
111.206860
 42
0.019754
  0
VERTEX
  8
0
 10
211.000000
 20
110.165820
 42
0.000000
  0
VERTEX
  8
0
 10
205.500000
 20
107.458400
 42
0.000000
  0
VERTEX
  8
0
 10
204.829680
 20
101.479200
 42
-0.011071
  0
VERTEX
  8
0
 10
204.493797
 20
98.983560
 42
-0.010126
  0
VERTEX
  8
0
 10
204.039111
 20
96.429454
 42
-0.010186
  0
VERTEX
  8
0
 10
203.540482
 20
94.165629
 42
-0.032276
  0
VERTEX
  8
0
 10
203.079680
 20
92.684900
 42
0.043042
  0
VERTEX
  8
0
 10
202.231171
 20
89.736338
 42
0.069722
  0
VERTEX
  8
0
 10
202.088116
 20
87.135667
 42
0.082571
  0
VERTEX
  8
0
 10
202.651215
 20
84.921486
 42
0.093167
  0
VERTEX
  8
0
 10
203.888294
 20
83.111706
 42
0.081793
  0
VERTEX
  8
0
 10
205.225655
 20
82.152554
 42
0.073216
  0
VERTEX
  8
0
 10
206.851713
 20
81.626694
 42
0.041821
  0
VERTEX
  8
0
 10
209.259539
 20
81.426345
 42
0.009002
  0
VERTEX
  8
0
 10
213.447420
 20
81.504165
 42
0.007245
  0
VERTEX
  8
0
 10
216.431616
 20
81.656714
 42
0.010660
  0
VERTEX
  8
0
 10
219.047023
 20
81.884525
 42
0.006258
  0
VERTEX
  8
0
 10
221.218973
 20
82.148003
 42
0.164501
  0
VERTEX
  8
0
 10
221.738091
 20
82.404758
 42
0.267899
  0
VERTEX
  8
0
 10
221.849463
 20
82.820249
 42
0.037012
  0
VERTEX
  8
0
 10
221.543247
 20
83.698166
 42
0.034269
  0
VERTEX
  8
0
 10
220.984509
 20
84.776380
 42
0.022509
  0
VERTEX
  8
0
 10
220.204377
 20
85.937436
 42
-0.019634
  0
VERTEX
  8
0
 10
219.278706
 20
87.298134
 42
-0.071472
  0
VERTEX
  8
0
 10
218.858006
 20
88.251930
 42
-0.157830
  0
VERTEX
  8
0
 10
218.883331
 20
88.878993
 42
-0.227620
  0
VERTEX
  8
0
 10
219.275411
 20
89.258983
 42
0.152415
  0
VERTEX
  8
0
 10
219.783968
 20
89.625613
 42
0.146692
  0
VERTEX
  8
0
 10
220.003331
 20
90.222191
 42
0.078736
  0
VERTEX
  8
0
 10
219.913639
 20
91.152681
 42
0.020914
  0
VERTEX
  8
0
 10
219.478654
 20
92.583846
 42
0.048608
  0
VERTEX
  8
0
 10
218.812731
 20
94.020563
 42
0.091705
  0
VERTEX
  8
0
 10
217.978812
 20
94.982828
 42
0.088248
  0
VERTEX
  8
0
 10
216.832665
 20
95.605691
 42
0.042380
  0
VERTEX
  8
0
 10
215.200502
 20
96.000000
 42
-0.011026
  0
VERTEX
  8
0
 10
213.104074
 20
96.369341
 42
-0.218634
  0
VERTEX
  8
0
 10
212.588814
 20
96.742608
 42
-0.271642
  0
VERTEX
  8
0
 10
212.598799
 20
97.326153
 42
-0.016491
  0
VERTEX
  8
0
 10
213.595878
 20
98.846119
 42
-0.067845
  0
VERTEX
  8
0
 10
214.791184
 20
100.131682
 42
-0.116051
  0
VERTEX
  8
0
 10
216.100479
 20
100.772582
 42
-0.060092
  0
VERTEX
  8
0
 10
218.117155
 20
100.983289
 42
-0.008159
  0
VERTEX
  8
0
 10
222.368807
 20
100.846119
 42
-0.023973
  0
VERTEX
  8
0
 10
227.457994
 20
100.353455
 42
-0.150356
  0
VERTEX
  8
0
 10
229.790523
 20
99.247020
 42
-0.088133
  0
VERTEX
  8
0
 10
231.671203
 20
96.791463
 42
-0.005365
  0
VERTEX
  8
0
 10
235.852274
 20
88.500000
 42
0.000000
  0
VERTEX
  8
0
 10
238.797532
 20
82.500000
 42
0.000000
  0
VERTEX
  8
0
 10
245.898766
 20
82.500000
 42
0.007200
  0
VERTEX
  8
0
 10
249.864799
 20
82.557113
 42
0.053256
  0
VERTEX
  8
0
 10
251.735538
 20
82.811609
 42
0.146857
  0
VERTEX
  8
0
 10
252.647932
 20
83.350189
 42
0.188671
  0
VERTEX
  8
0
 10
253.000000
 20
84.250000
 42
0.083032
  0
VERTEX
  8
0
 10
252.865099
 20
85.056746
 42
0.037358
  0
VERTEX
  8
0
 10
252.439658
 20
86.046279
 42
0.035654
  0
VERTEX
  8
0
 10
251.822435
 20
87.048479
 42
0.040551
  0
VERTEX
  8
0
 10
251.092454
 20
87.907546
 42
-0.008076
  0
VERTEX
  8
0
 10
249.864810
 20
89.175499
 42
-0.190531
  0
VERTEX
  8
0
 10
249.684908
 20
89.630468
 42
-0.318693
  0
VERTEX
  8
0
 10
249.914755
 20
89.954451
 42
-0.020240
  0
VERTEX
  8
0
 10
251.092454
 20
90.313926
 42
0.100469
  0
VERTEX
  8
0
 10
252.513683
 20
91.011084
 42
0.277527
  0
VERTEX
  8
0
 10
252.904007
 20
92.008371
 42
0.190235
  0
VERTEX
  8
0
 10
252.215318
 20
93.146034
 42
0.055794
  0
VERTEX
  8
0
 10
250.429512
 20
94.214070
 42
0.042212
  0
VERTEX
  8
0
 10
249.063755
 20
94.702040
 42
0.060644
  0
VERTEX
  8
0
 10
247.792680
 20
94.878106
 42
0.058457
  0
VERTEX
  8
0
 10
246.482012
 20
94.746232
 42
0.035982
  0
VERTEX
  8
0
 10
244.993849
 20
94.303780
 42
-0.062377
  0
VERTEX
  8
0
 10
243.060084
 20
93.838069
 42
-0.212665
  0
VERTEX
  8
0
 10
241.854284
 20
94.220797
 42
-0.175277
  0
VERTEX
  8
0
 10
241.185719
 20
95.452392
 42
-0.041073
  0
VERTEX
  8
0
 10
241.023180
 20
97.831787
 42
-0.207098
  0
VERTEX
  8
0
 10
242.955536
 20
102.132090
 42
-0.035797
  0
VERTEX
  8
0
 10
250.120512
 20
107.791045
 42
-0.034553
  0
VERTEX
  8
0
 10
257.868115
 20
112.308197
 42
-0.296100
  0
VERTEX
  8
0
 10
261.666458
 20
111.861852
 42
-0.101956
  0
VERTEX
  8
0
 10
262.718338
 20
110.547329
 42
-0.175241
  0
VERTEX
  8
0
 10
262.890754
 20
109.171794
 42
-0.155256
  0
VERTEX
  8
0
 10
262.135395
 20
107.883541
 42
-0.076373
  0
VERTEX
  8
0
 10
260.529614
 20
106.831539
 42
-0.032452
  0
VERTEX
  8
0
 10
259.254123
 20
106.347585
 42
-0.081413
  0
VERTEX
  8
0
 10
258.271208
 20
106.213784
 42
-0.099716
  0
VERTEX
  8
0
 10
257.420897
 20
106.409248
 42
-0.067101
  0
VERTEX
  8
0
 10
256.573419
 20
106.939068
 42
0.105941
  0
VERTEX
  8
0
 10
255.432512
 20
107.535401
 42
0.129528
  0
VERTEX
  8
0
 10
254.232661
 20
107.550895
 42
0.158618
  0
VERTEX
  8
0
 10
253.344395
 20
106.994834
 42
0.175999
  0
VERTEX
  8
0
 10
253.000000
 20
106.046738
 42
0.186481
  0
VERTEX
  8
0
 10
253.646256
 20
104.374228
 42
0.028658
  0
VERTEX
  8
0
 10
256.236798
 20
101.831704
 42
0.029998
  0
VERTEX
  8
0
 10
259.125400
 20
99.595557
 42
0.150825
  0
VERTEX
  8
0
 10
261.054820
 20
99.000000
 42
0.111936
  0
VERTEX
  8
0
 10
262.226193
 20
99.265565
 42
0.038379
  0
VERTEX
  8
0
 10
263.743120
 20
100.139360
 42
0.033330
  0
VERTEX
  8
0
 10
265.429500
 20
101.464354
 42
0.023183
  0
VERTEX
  8
0
 10
267.153610
 20
103.166390
 42
-0.006948
  0
VERTEX
  8
0
 10
269.737927
 20
105.888811
 42
-0.120596
  0
VERTEX
  8
0
 10
270.768729
 20
106.531468
 42
-0.674214
  0
VERTEX
  8
0
 10
271.039638
 20
106.211025
 42
-0.018417
  0
VERTEX
  8
0
 10
269.787855
 20
104.031910
 42
0.032239
  0
VERTEX
  8
0
 10
269.365394
 20
103.247056
 42
0.044655
  0
VERTEX
  8
0
 10
269.098926
 20
102.493963
 42
0.052611
  0
VERTEX
  8
0
 10
269.007743
 20
101.872609
 42
0.209482
  0
VERTEX
  8
0
 10
269.144727
 20
101.521940
 42
0.281391
  0
VERTEX
  8
0
 10
270.349844
 20
101.231108
 42
0.125057
  0
VERTEX
  8
0
 10
271.789538
 20
102.134955
 42
0.065565
  0
VERTEX
  8
0
 10
273.378357
 20
104.312152
 42
0.026644
  0
VERTEX
  8
0
 10
274.965093
 20
107.629074
 42
0.007363
  0
VERTEX
  8
0
 10
276.410771
 20
111.267597
 42
0.080636
  0
VERTEX
  8
0
 10
276.726198
 20
112.803515
 42
0.137135
  0
VERTEX
  8
0
 10
276.435815
 20
114.038464
 42
0.034467
  0
VERTEX
  8
0
 10
275.305141
 20
115.793114
 42
0.000000
  0
VERTEX
  8
0
 10
273.347925
 20
118.414592
 42
0.000000
  0
VERTEX
  8
0
 10
276.674055
 20
121.740721
 42
0.091597
  0
VERTEX
  8
0
 10
282.362261
 20
130.006927
 42
0.061584
  0
VERTEX
  8
0
 10
285.725704
 20
140.996083
 42
0.060058
  0
VERTEX
  8
0
 10
286.364243
 20
152.802849
 42
0.075363
  0
VERTEX
  8
0
 10
284.013714
 20
163.495565
 42
0.061335
  0
VERTEX
  8
0
 10
281.484008
 20
168.245805
 42
0.057072
  0
VERTEX
  8
0
 10
277.823697
 20
172.369995
 42
0.062788
  0
VERTEX
  8
0
 10
273.818330
 20
175.142598
 42
0.150074
  0
VERTEX
  8
0
 10
270.299660
 20
175.790710
 42
-0.016004
  0
VERTEX
  8
0
 10
269.137504
 20
175.693129
 42
-0.001370
  0
VERTEX
  8
0
 10
266.153721
 20
175.546735
 42
-0.001810
  0
VERTEX
  8
0
 10
262.592611
 20
175.394712
 42
-0.001402
  0
SEQEND
  0
POLYLINE
  8
0
 66
1
 70
1
  0
VERTEX
  8
0
 10
251.345077
 20
170.456872
 42
-0.035865
  0
VERTEX
  8
0
 10
251.083816
 20
169.899181
 42
-0.069269
  0
VERTEX
  8
0
 10
250.786868
 20
169.507038
 42
-0.118528
  0
VERTEX
  8
0
 10
250.505460
 20
169.335123
 42
-0.281567
  0
VERTEX
  8
0
 10
250.276326
 20
169.390341
 42
-0.156651
  0
VERTEX
  8
0
 10
250.142323
 20
169.651151
 42
-0.070517
  0
VERTEX
  8
0
 10
250.133355
 20
170.040231
 42
-0.059701
  0
VERTEX
  8
0
 10
250.242038
 20
170.490157
 42
-0.049364
  0
VERTEX
  8
0
 10
250.458881
 20
170.933469
 42
-0.030391
  0
VERTEX
  8
0
 10
251.120758
 20
171.871774
 42
-0.361950
  0
VERTEX
  8
0
 10
251.525317
 20
171.954259
 42
-0.344086
  0
VERTEX
  8
0
 10
251.696703
 20
171.564815
 42
-0.029555
  0
SEQEND
  0
POLYLINE
  8
0
 66
1
 70
1
  0
VERTEX
  8
0
 10
276.676697
 20
168.828739
 42
-0.069524
  0
VERTEX
  8
0
 10
279.761777
 20
164.871602
 42
-0.063665
  0
VERTEX
  8
0
 10
281.756755
 20
160.102697
 42
-0.052148
  0
VERTEX
  8
0
 10
282.744335
 20
154.166207
 42
-0.027087
  0
VERTEX
  8
0
 10
282.793106
 20
146.646477
 42
-0.029819
  0
VERTEX
  8
0
 10
281.978266
 20
139.081325
 42
-0.049696
  0
VERTEX
  8
0
 10
280.294012
 20
132.905081
 42
-0.057291
  0
VERTEX
  8
0
 10
277.652493
 20
127.831085
 42
-0.060483
  0
VERTEX
  8
0
 10
273.968925
 20
123.590891
 42
-0.013470
  0
VERTEX
  8
0
 10
270.341925
 20
120.487387
 42
-0.062018
  0
VERTEX
  8
0
 10
267.998687
 20
119.028197
 42
-0.136691
  0
VERTEX
  8
0
 10
266.336445
 20
118.757581
 42
-0.194332
  0
VERTEX
  8
0
 10
265.033570
 20
119.459551
 42
-0.142606
  0
VERTEX
  8
0
 10
264.667951
 20
120.302098
 42
-0.184634
  0
VERTEX
  8
0
 10
264.865792
 20
121.113943
 42
-0.081410
  0
VERTEX
  8
0
 10
265.782831
 20
122.066025
 42
-0.014271
  0
VERTEX
  8
0
 10
267.824457
 20
123.502529
 42
0.030018
  0
VERTEX
  8
0
 10
269.531916
 20
124.786118
 42
0.041489
  0
VERTEX
  8
0
 10
270.883790
 20
126.143882
 42
0.047825
  0
VERTEX
  8
0
 10
271.827116
 20
127.508879
 42
0.080628
  0
VERTEX
  8
0
 10
272.300903
 20
128.813991
 42
-0.019585
  0
VERTEX
  8
0
 10
272.607518
 20
130.144549
 42
-0.007225
  0
VERTEX
  8
0
 10
273.139924
 20
131.995337
 42
-0.007148
  0
VERTEX
  8
0
 10
273.779974
 20
134.001413
 42
-0.008536
  0
VERTEX
  8
0
 10
274.442212
 20
135.872264
 42
0.059643
  0
VERTEX
  8
0
 10
275.276078
 20
139.307409
 42
0.067665
  0
VERTEX
  8
0
 10
275.221447
 20
142.694244
 42
0.064723
  0
VERTEX
  8
0
 10
274.250416
 20
146.064536
 42
0.048280
  0
VERTEX
  8
0
 10
272.372540
 20
149.451334
 42
-0.046156
  0
VERTEX
  8
0
 10
271.731247
 20
150.596451
 42
-0.150010
  0
VERTEX
  8
0
 10
271.627857
 20
151.450583
 42
-0.120013
  0
VERTEX
  8
0
 10
272.016488
 20
152.329742
 42
-0.024776
  0
VERTEX
  8
0
 10
273.121283
 20
153.629099
 42
-0.043777
  0
VERTEX
  8
0
 10
274.042103
 20
154.451684
 42
-0.052499
  0
VERTEX
  8
0
 10
275.040323
 20
155.045594
 42
-0.060615
  0
VERTEX
  8
0
 10
275.977555
 20
155.346570
 42
-0.139917
  0
VERTEX
  8
0
 10
276.707877
 20
155.281857
 42
0.068410
  0
VERTEX
  8
0
 10
277.374820
 20
155.125836
 42
0.243490
  0
VERTEX
  8
0
 10
277.768962
 20
155.285318
 42
0.185760
  0
VERTEX
  8
0
 10
277.933369
 20
155.748194
 42
0.040632
  0
VERTEX
  8
0
 10
277.841208
 20
156.604091
 42
0.174173
  0
VERTEX
  8
0
 10
276.900234
 20
158.197744
 42
0.176613
  0
VERTEX
  8
0
 10
275.166236
 20
158.816829
 42
0.140991
  0
VERTEX
  8
0
 10
273.122726
 20
158.214061
 42
0.106345
  0
VERTEX
  8
0
 10
271.448188
 20
156.561269
 42
-0.070234
  0
VERTEX
  8
0
 10
270.172721
 20
155.107843
 42
-0.118326
  0
VERTEX
  8
0
 10
268.737179
 20
154.370085
 42
-0.054076
  0
VERTEX
  8
0
 10
266.408924
 20
154.063045
 42
-0.005768
  0
VERTEX
  8
0
 10
260.944007
 20
154.000000
 42
-0.012634
  0
VERTEX
  8
0
 10
254.800516
 20
154.155254
 42
-0.091379
  0
VERTEX
  8
0
 10
251.935305
 20
154.834546
 42
-0.678838
  0
VERTEX
  8
0
 10
251.966273
 20
155.671045
 42
-0.045201
  0
VERTEX
  8
0
 10
255.245751
 20
156.510840
 42
0.021165
  0
VERTEX
  8
0
 10
257.190209
 20
156.910416
 42
0.011594
  0
VERTEX
  8
0
 10
259.536093
 20
157.555076
 42
0.011538
  0
VERTEX
  8
0
 10
261.891919
 20
158.321282
 42
0.018030
  0
VERTEX
  8
0
 10
263.877118
 20
159.099456
 42
-0.017077
  0
VERTEX
  8
0
 10
265.722692
 20
159.826961
 42
-0.016146
  0
VERTEX
  8
0
 10
267.648156
 20
160.441715
 42
-0.016344
  0
VERTEX
  8
0
 10
269.386658
 20
160.874663
 42
-0.052895
  0
VERTEX
  8
0
 10
270.568101
 20
161.000000
 42
0.067969
  0
VERTEX
  8
0
 10
272.390537
 20
161.248888
 42
0.179560
  0
VERTEX
  8
0
 10
273.440330
 20
162.009161
 42
0.336908
  0
VERTEX
  8
0
 10
273.385897
 20
162.896679
 42
0.135846
  0
VERTEX
  8
0
 10
272.313382
 20
163.614126
 42
-0.011347
  0
VERTEX
  8
0
 10
271.406580
 20
163.937170
 42
-0.004023
  0
VERTEX
  8
0
 10
270.123786
 20
164.439103
 42
-0.003990
  0
VERTEX
  8
0
 10
268.723439
 20
165.013074
 42
-0.004686
  0
VERTEX
  8
0
 10
267.405890
 20
165.580005
 42
0.033576
  0
VERTEX
  8
0
 10
265.837215
 20
166.150112
 42
0.012962
  0
VERTEX
  8
0
 10
263.596199
 20
166.735583
 42
0.012765
  0
VERTEX
  8
0
 10
261.125742
 20
167.246896
 42
0.015393
  0
VERTEX
  8
0
 10
258.781649
 20
167.595843
 42
-0.011277
  0
VERTEX
  8
0
 10
255.908605
 20
167.999392
 42
-0.064493
  0
VERTEX
  8
0
 10
254.436461
 20
168.440157
 42
-0.163354
  0
VERTEX
  8
0
 10
253.781745
 20
169.042265
 42
-0.192372
  0
VERTEX
  8
0
 10
253.678818
 20
169.872901
 42
-0.212770
  0
VERTEX
  8
0
 10
254.355782
 20
170.716746
 42
-0.072847
  0
VERTEX
  8
0
 10
255.873589
 20
171.236582
 42
-0.033688
  0
VERTEX
  8
0
 10
258.594456
 20
171.556889
 42
-0.005898
  0
VERTEX
  8
0
 10
263.752188
 20
171.753163
 42
-0.005308
  0
VERTEX
  8
0
 10
270.058442
 20
171.851695
 42
-0.056944
  0
VERTEX
  8
0
 10
272.596826
 20
171.574532
 42
-0.103478
  0
VERTEX
  8
0
 10
274.413688
 20
170.744040
 42
-0.033716
  0
SEQEND
  0
POLYLINE
  8
0
 66
1
 70
1
  0
VERTEX
  8
0
 10
210.282119
 20
162.630604
 42
-0.042987
  0
VERTEX
  8
0
 10
211.805565
 20
161.821409
 42
-0.016418
  0
VERTEX
  8
0
 10
213.780117
 20
160.450103
 42
-0.016117
  0
VERTEX
  8
0
 10
215.838388
 20
158.812439
 42
-0.019043
  0
VERTEX
  8
0
 10
217.671472
 20
157.130604
 42
0.039138
  0
VERTEX
  8
0
 10
220.737315
 20
154.536523
 42
0.087739
  0
VERTEX
  8
0
 10
223.475424
 20
153.217332
 42
0.124601
  0
VERTEX
  8
0
 10
225.867559
 20
153.155074
 42
0.134643
  0
VERTEX
  8
0
 10
227.922407
 20
154.250000
 42
-0.012063
  0
VERTEX
  8
0
 10
228.628215
 20
154.885633
 42
-0.584728
  0
VERTEX
  8
0
 10
228.772311
 20
154.833161
 42
-0.156638
  0
VERTEX
  8
0
 10
228.725311
 20
154.516618
 42
-0.004253
  0
VERTEX
  8
0
 10
228.087223
 20
153.250000
 42
-0.173303
  0
VERTEX
  8
0
 10
226.264165
 20
151.543351
 42
-0.128743
  0
VERTEX
  8
0
 10
223.516458
 20
151.119206
 42
-0.072107
  0
VERTEX
  8
0
 10
219.558678
 20
152.116685
 42
-0.022633
  0
VERTEX
  8
0
 10
214.006095
 20
154.704410
 42
0.007111
  0
VERTEX
  8
0
 10
209.422638
 20
157.016236
 42
0.064043
  0
VERTEX
  8
0
 10
207.296618
 20
157.732632
 42
0.102817
  0
VERTEX
  8
0
 10
205.457201
 20
157.718269
 42
0.030628
  0
VERTEX
  8
0
 10
202.739072
 20
156.954410
 42
0.064250
  0
VERTEX
  8
0
 10
199.283623
 20
155.227242
 42
0.112810
  0
VERTEX
  8
0
 10
197.106183
 20
152.909897
 42
0.118515
  0
VERTEX
  8
0
 10
196.214942
 20
149.962933
 42
0.075624
  0
VERTEX
  8
0
 10
196.549731
 20
146.381482
 42
0.043353
  0
VERTEX
  8
0
 10
197.188431
 20
144.521773
 42
0.051641
  0
VERTEX
  8
0
 10
198.110715
 20
142.913441
 42
0.050246
  0
VERTEX
  8
0
 10
199.366200
 20
141.494228
 42
0.037797
  0
VERTEX
  8
0
 10
201.000000
 20
140.198327
 42
0.037204
  0
VERTEX
  8
0
 10
203.202373
 20
138.935465
 42
0.067051
  0
VERTEX
  8
0
 10
205.179314
 20
138.297042
 42
0.046960
  0
VERTEX
  8
0
 10
207.693274
 20
138.083828
 42
0.010504
  0
VERTEX
  8
0
 10
212.000000
 20
138.214141
 42
-0.009113
  0
VERTEX
  8
0
 10
215.865544
 20
138.341868
 42
-0.036862
  0
VERTEX
  8
0
 10
218.217975
 20
138.203184
 42
-0.064553
  0
VERTEX
  8
0
 10
219.740437
 20
137.795726
 42
-0.127684
  0
VERTEX
  8
0
 10
220.733566
 20
137.049447
 42
0.027399
  0
VERTEX
  8
0
 10
221.455162
 20
136.238503
 42
0.295117
  0
VERTEX
  8
0
 10
221.864534
 20
136.149147
 42
0.221016
  0
VERTEX
  8
0
 10
222.199330
 20
136.489804
 42
0.016854
  0
VERTEX
  8
0
 10
222.600197
 20
137.750000
 42
-0.066241
  0
VERTEX
  8
0
 10
223.028518
 20
138.744830
 42
-0.098080
  0
VERTEX
  8
0
 10
223.662993
 20
139.447585
 42
-0.097013
  0
VERTEX
  8
0
 10
224.523029
 20
139.860339
 42
-0.063595
  0
VERTEX
  8
0
 10
225.616631
 20
140.000000
 42
-0.066389
  0
VERTEX
  8
0
 10
226.934315
 20
139.824266
 42
-0.207544
  0
VERTEX
  8
0
 10
227.617591
 20
139.277979
 42
-0.109288
  0
VERTEX
  8
0
 10
227.931812
 20
138.139792
 42
-0.012913
  0
VERTEX
  8
0
 10
228.000000
 20
135.500000
 42
0.017115
  0
VERTEX
  8
0
 10
228.072955
 20
133.369351
 42
0.060649
  0
VERTEX
  8
0
 10
228.330289
 20
132.028434
 42
0.116729
  0
VERTEX
  8
0
 10
228.783376
 20
131.277960
 42
0.201469
  0
VERTEX
  8
0
 10
229.445209
 20
131.000000
 42
0.210408
  0
VERTEX
  8
0
 10
230.115230
 20
131.295016
 42
0.097375
  0
VERTEX
  8
0
 10
230.620462
 20
132.124405
 42
0.054738
  0
VERTEX
  8
0
 10
230.977331
 20
133.560150
 42
0.017546
  0
VERTEX
  8
0
 10
231.195209
 20
135.750000
 42
-0.015171
  0
VERTEX
  8
0
 10
231.442993
 20
138.366521
 42
-0.085720
  0
VERTEX
  8
0
 10
231.850113
 20
139.702575
 42
-0.154754
  0
VERTEX
  8
0
 10
232.563106
 20
140.432193
 42
-0.087414
  0
VERTEX
  8
0
 10
233.750000
 20
140.819551
 42
-0.070544
  0
VERTEX
  8
0
 10
234.998703
 20
140.819832
 42
-0.240288
  0
VERTEX
  8
0
 10
235.644385
 20
140.366374
 42
-0.111095
  0
VERTEX
  8
0
 10
235.939907
 20
139.280075
 42
-0.011084
  0
VERTEX
  8
0
 10
236.000000
 20
136.569551
 42
0.016257
  0
VERTEX
  8
0
 10
236.071991
 20
134.355921
 42
0.063123
  0
VERTEX
  8
0
 10
236.332065
 20
133.011592
 42
0.126025
  0
VERTEX
  8
0
 10
236.801498
 20
132.275822
 42
0.190289
  0
VERTEX
  8
0
 10
237.500000
 20
132.000000
 42
0.176579
  0
VERTEX
  8
0
 10
238.184843
 20
132.249641
 42
0.128937
  0
VERTEX
  8
0
 10
238.656250
 20
132.916667
 42
0.069535
  0
VERTEX
  8
0
 10
238.923415
 20
134.111825
 42
0.020272
  0
VERTEX
  8
0
 10
239.000000
 20
136.000000
 42
-0.016149
  0
VERTEX
  8
0
 10
239.074999
 20
138.321544
 42
-0.124134
  0
VERTEX
  8
0
 10
239.406250
 20
139.350000
 42
-0.201266
  0
VERTEX
  8
0
 10
240.111634
 20
139.848244
 42
-0.054490
  0
VERTEX
  8
0
 10
241.500000
 20
140.000000
 42
-0.050766
  0
VERTEX
  8
0
 10
242.862220
 20
139.861332
 42
-0.189121
  0
VERTEX
  8
0
 10
243.571429
 20
139.400000
 42
-0.134430
  0
VERTEX
  8
0
 10
243.915691
 20
138.465575
 42
-0.021436
  0
VERTEX
  8
0
 10
244.000000
 20
136.500000
 42
0.025511
  0
VERTEX
  8
0
 10
244.081893
 20
134.895967
 42
0.075863
  0
VERTEX
  8
0
 10
244.357143
 20
133.833333
 42
0.129352
  0
VERTEX
  8
0
 10
244.830552
 20
133.226074
 42
0.164293
  0
VERTEX
  8
0
 10
245.500000
 20
133.000000
 42
0.139300
  0
VERTEX
  8
0
 10
246.115743
 20
133.174940
 42
0.117066
  0
VERTEX
  8
0
 10
246.596373
 20
133.656831
 42
0.088683
  0
VERTEX
  8
0
 10
246.900008
 20
134.430217
 42
0.049343
  0
VERTEX
  8
0
 10
247.000000
 20
135.440983
 42
-0.034335
  0
VERTEX
  8
0
 10
247.067074
 20
136.416590
 42
-0.039233
  0
VERTEX
  8
0
 10
247.267241
 20
137.330092
 42
-0.042953
  0
VERTEX
  8
0
 10
247.559486
 20
138.061795
 42
-0.138724
  0
VERTEX
  8
0
 10
247.909758
 20
138.444227
 42
-0.161212
  0
VERTEX
  8
0
 10
249.080821
 20
138.723248
 42
-0.095052
  0
VERTEX
  8
0
 10
250.478496
 20
138.328435
 42
-0.097630
  0
VERTEX
  8
0
 10
251.601123
 20
137.458091
 42
-0.181110
  0
VERTEX
  8
0
 10
252.000000
 20
136.393011
 42
0.106859
  0
VERTEX
  8
0
 10
252.114899
 20
135.861530
 42
0.099462
  0
VERTEX
  8
0
 10
252.440625
 20
135.409197
 42
0.095925
  0
VERTEX
  8
0
 10
252.927370
 20
135.105949
 42
0.091732
  0
VERTEX
  8
0
 10
253.500000
 20
135.000000
 42
0.064853
  0
VERTEX
  8
0
 10
254.073457
 20
135.074694
 42
0.082425
  0
VERTEX
  8
0
 10
254.559375
 20
135.293750
 42
0.098894
  0
VERTEX
  8
0
 10
254.884432
 20
135.618646
 42
0.148195
  0
VERTEX
  8
0
 10
255.000000
 20
136.000000
 42
-0.259862
  0
VERTEX
  8
0
 10
255.214328
 20
136.384540
 42
-0.060496
  0
VERTEX
  8
0
 10
255.910293
 20
136.706250
 42
-0.047487
  0
VERTEX
  8
0
 10
256.911678
 20
136.927286
 42
-0.030596
  0
VERTEX
  8
0
 10
258.098871
 20
137.000000
 42
0.067114
  0
VERTEX
  8
0
 10
261.477291
 20
137.455531
 42
0.057883
  0
VERTEX
  8
0
 10
264.800530
 20
138.797119
 42
0.061020
  0
VERTEX
  8
0
 10
267.540269
 20
140.758082
 42
0.103106
  0
VERTEX
  8
0
 10
269.179681
 20
143.043799
 42
-0.071525
  0
VERTEX
  8
0
 10
270.223607
 20
144.710638
 42
-0.433742
  0
VERTEX
  8
0
 10
271.131274
 20
144.756022
 42
-0.174047
  0
VERTEX
  8
0
 10
271.804389
 20
143.389230
 42
-0.027041
  0
VERTEX
  8
0
 10
271.984687
 20
140.331787
 42
-0.026832
  0
VERTEX
  8
0
 10
271.848102
 20
137.536208
 42
-0.076614
  0
VERTEX
  8
0
 10
271.357529
 20
135.657360
 42
-0.153132
  0
VERTEX
  8
0
 10
270.556216
 20
134.729291
 42
-0.234425
  0
VERTEX
  8
0
 10
269.518392
 20
134.631316
 42
0.173325
  0
VERTEX
  8
0
 10
268.372580
 20
134.657867
 42
0.187409
  0
VERTEX
  8
0
 10
267.514450
 20
133.948770
 42
0.173446
  0
VERTEX
  8
0
 10
267.321146
 20
132.796503
 42
0.153216
  0
VERTEX
  8
0
 10
267.887132
 20
131.712868
 42
-0.047532
  0
VERTEX
  8
0
 10
268.313066
 20
131.197221
 42
-0.037528
  0
VERTEX
  8
0
 10
268.673095
 20
130.568988
 42
-0.038710
  0
VERTEX
  8
0
 10
268.919919
 20
129.928803
 42
-0.072780
  0
VERTEX
  8
0
 10
269.000000
 20
129.381559
 42
-0.234618
  0
VERTEX
  8
0
 10
268.281927
 20
127.935491
 42
-0.027057
  0
VERTEX
  8
0
 10
265.188618
 20
125.842342
 42
-0.029936
  0
VERTEX
  8
0
 10
261.838450
 20
124.094208
 42
-0.148299
  0
VERTEX
  8
0
 10
259.753116
 20
123.828716
 42
0.216797
  0
VERTEX
  8
0
 10
258.513727
 20
123.500116
 42
0.348358
  0
VERTEX
  8
0
 10
258.293234
 20
122.486624
 42
0.077044
  0
VERTEX
  8
0
 10
259.766423
 20
120.378751
 42
0.016057
  0
VERTEX
  8
0
 10
263.000000
 20
117.212263
 42
-0.019374
  0
VERTEX
  8
0
 10
264.949233
 20
115.277981
 42
-0.025624
  0
VERTEX
  8
0
 10
266.558782
 20
113.364213
 42
-0.026143
  0
VERTEX
  8
0
 10
267.701886
 20
111.678032
 42
-0.136713
  0
VERTEX
  8
0
 10
268.000000
 20
110.608120
 42
-0.152385
  0
VERTEX
  8
0
 10
267.405448
 20
108.702599
 42
-0.024163
  0
VERTEX
  8
0
 10
264.996562
 20
105.554838
 42
-0.022396
  0
VERTEX
  8
0
 10
262.311251
 20
102.650901
 42
-0.197434
  0
VERTEX
  8
0
 10
260.727108
 20
102.000000
 42
-0.574661
  0
VERTEX
  8
0
 10
260.616072
 20
102.190539
 42
-0.047874
  0
VERTEX
  8
0
 10
261.024682
 20
102.773681
 42
-0.028086
  0
VERTEX
  8
0
 10
261.835835
 20
103.621961
 42
-0.013027
  0
VERTEX
  8
0
 10
262.976653
 20
104.633809
 42
0.028690
  0
VERTEX
  8
0
 10
264.533983
 20
106.104726
 42
0.075054
  0
VERTEX
  8
0
 10
265.409138
 20
107.365629
 42
0.087964
  0
VERTEX
  8
0
 10
265.795894
 20
108.703392
 42
0.050795
  0
VERTEX
  8
0
 10
265.803379
 20
110.383809
 42
0.062616
  0
VERTEX
  8
0
 10
265.408198
 20
112.133598
 42
0.108269
  0
VERTEX
  8
0
 10
264.615721
 20
113.389552
 42
0.071208
  0
VERTEX
  8
0
 10
263.127153
 20
114.521252
 42
0.015617
  0
VERTEX
  8
0
 10
260.263211
 20
116.000000
 42
-0.015500
  0
VERTEX
  8
0
 10
258.220614
 20
117.054058
 42
-0.019899
  0
VERTEX
  8
0
 10
256.415027
 20
118.154092
 42
-0.018122
  0
VERTEX
  8
0
 10
255.002726
 20
119.169223
 42
-0.136720
  0
VERTEX
  8
0
 10
254.516798
 20
119.822442
 42
-0.147797
  0
VERTEX
  8
0
 10
254.403133
 20
121.348217
 42
-0.080099
  0
VERTEX
  8
0
 10
255.105474
 20
123.111939
 42
-0.082435
  0
VERTEX
  8
0
 10
256.297817
 20
124.518030
 42
-0.177576
  0
VERTEX
  8
0
 10
257.612107
 20
125.000000
 42
0.120199
  0
VERTEX
  8
0
 10
258.401408
 20
125.192527
 42
0.027107
  0
VERTEX
  8
0
 10
259.600287
 20
125.899327
 42
0.026590
  0
VERTEX
  8
0
 10
260.930151
 20
126.889612
 42
0.023044
  0
VERTEX
  8
0
 10
262.215385
 20
128.061538
 42
0.017167
  0
VERTEX
  8
0
 10
263.699449
 20
129.651167
 42
0.075747
  0
VERTEX
  8
0
 10
264.384153
 20
130.729981
 42
0.151646
  0
VERTEX
  8
0
 10
264.479361
 20
131.566485
 42
0.150983
  0
VERTEX
  8
0
 10
264.084470
 20
132.311538
 42
0.091869
  0
VERTEX
  8
0
 10
263.415115
 20
132.769958
 42
0.185462
  0
VERTEX
  8
0
 10
262.786178
 20
132.801758
 42
0.118160
  0
VERTEX
  8
0
 10
262.097626
 20
132.378212
 42
0.028127
  0
VERTEX
  8
0
 10
261.196008
 20
131.366377
 42
-0.049441
  0
VERTEX
  8
0
 10
260.283292
 20
130.425907
 42
-0.021128
  0
VERTEX
  8
0
 10
258.896640
 20
129.351225
 42
-0.020659
  0
VERTEX
  8
0
 10
257.310076
 20
128.321342
 42
-0.025541
  0
VERTEX
  8
0
 10
255.750000
 20
127.502436
 42
0.018194
  0
VERTEX
  8
0
 10
254.313488
 20
126.775097
 42
0.026032
  0
VERTEX
  8
0
 10
253.101562
 20
126.020119
 42
0.024313
  0
VERTEX
  8
0
 10
252.202829
 20
125.325773
 42
0.219523
  0
VERTEX
  8
0
 10
252.000000
 20
124.886059
 42
-0.159716
  0
VERTEX
  8
0
 10
251.889219
 20
124.548097
 42
-0.096796
  0
VERTEX
  8
0
 10
251.576711
 20
124.260280
 42
-0.078467
  0
VERTEX
  8
0
 10
251.110091
 20
124.065910
 42
-0.059589
  0
VERTEX
  8
0
 10
250.559017
 20
124.000000
 42
0.144258
  0
VERTEX
  8
0
 10
249.082855
 20
123.565052
 42
0.297516
  0
VERTEX
  8
0
 10
248.613317
 20
122.511832
 42
0.124438
  0
VERTEX
  8
0
 10
249.366436
 20
120.762760
 42
0.029156
  0
VERTEX
  8
0
 10
251.468173
 20
118.329805
 42
-0.035196
  0
VERTEX
  8
0
 10
253.926320
 20
115.413867
 42
-0.314644
  0
VERTEX
  8
0
 10
253.958646
 20
113.827970
 42
-0.209459
  0
VERTEX
  8
0
 10
252.338183
 20
112.792604
 42
-0.018219
  0
VERTEX
  8
0
 10
247.368560
 20
112.197542
 42
0.000000
  0
VERTEX
  8
0
 10
241.666738
 20
111.724703
 42
0.000000
  0
VERTEX
  8
0
 10
243.833369
 20
115.230386
 42
0.019141
  0
VERTEX
  8
0
 10
245.358588
 20
117.923529
 42
0.086639
  0
VERTEX
  8
0
 10
245.897270
 20
119.639545
 42
0.232036
  0
VERTEX
  8
0
 10
245.577136
 20
120.590660
 42
0.200139
  0
VERTEX
  8
0
 10
244.595458
 20
121.000000
 42
0.198613
  0
VERTEX
  8
0
 10
243.880430
 20
120.704307
 42
0.024106
  0
VERTEX
  8
0
 10
242.712083
 20
119.420493
 42
0.025632
  0
VERTEX
  8
0
 10
241.421045
 20
117.682470
 42
0.018460
  0
VERTEX
  8
0
 10
240.156301
 20
115.622955
 42
-0.023588
  0
VERTEX
  8
0
 10
238.716409
 20
113.331245
 42
-0.016566
  0
VERTEX
  8
0
 10
236.893668
 20
110.889583
 42
-0.016760
  0
VERTEX
  8
0
 10
234.988615
 20
108.663811
 42
-0.033278
  0
VERTEX
  8
0
 10
233.310842
 20
107.060092
 42
-0.022212
  0
VERTEX
  8
0
 10
230.866554
 20
105.194650
 42
-0.089470
  0
VERTEX
  8
0
 10
229.165822
 20
104.416710
 42
-0.075363
  0
VERTEX
  8
0
 10
227.158154
 20
104.215079
 42
-0.013007
  0
VERTEX
  8
0
 10
223.336371
 20
104.507481
 42
0.015470
  0
VERTEX
  8
0
 10
220.242046
 20
104.728907
 42
0.034555
  0
VERTEX
  8
0
 10
217.885456
 20
104.661530
 42
0.044074
  0
VERTEX
  8
0
 10
215.958841
 20
104.299473
 42
0.050894
  0
VERTEX
  8
0
 10
214.221216
 20
103.614395
 42
0.089884
  0
VERTEX
  8
0
 10
212.095089
 20
101.976068
 42
0.044287
  0
VERTEX
  8
0
 10
210.032392
 20
99.242688
 42
0.044337
  0
VERTEX
  8
0
 10
208.493834
 20
96.208779
 42
0.095466
  0
VERTEX
  8
0
 10
208.000000
 20
93.645924
 42
0.078439
  0
VERTEX
  8
0
 10
208.322489
 20
91.602900
 42
0.047620
  0
VERTEX
  8
0
 10
209.295878
 20
89.352758
 42
0.047398
  0
VERTEX
  8
0
 10
210.541018
 20
87.525598
 42
0.223067
  0
VERTEX
  8
0
 10
211.660515
 20
87.000000
 42
-0.073022
  0
VERTEX
  8
0
 10
212.172358
 20
86.924847
 42
-0.087654
  0
VERTEX
  8
0
 10
212.606526
 20
86.706250
 42
-0.100532
  0
VERTEX
  8
0
 10
212.896771
 20
86.381345
 42
-0.132956
  0
VERTEX
  8
0
 10
213.000000
 20
86.000000
 42
-0.376597
  0
VERTEX
  8
0
 10
212.224550
 20
85.116467
 42
-0.045929
  0
VERTEX
  8
0
 10
209.430168
 20
85.009325
 42
-0.043631
  0
VERTEX
  8
0
 10
206.531627
 20
85.419793
 42
-0.249095
  0
VERTEX
  8
0
 10
205.397352
 20
86.406900
 42
-0.113552
  0
VERTEX
  8
0
 10
205.281261
 20
87.229076
 42
-0.020854
  0
VERTEX
  8
0
 10
205.477622
 20
88.760012
 42
-0.021449
  0
VERTEX
  8
0
 10
205.866808
 20
90.566823
 42
-0.018064
  0
VERTEX
  8
0
 10
206.428737
 20
92.441847
 42
0.023815
  0
VERTEX
  8
0
 10
207.030932
 20
94.538583
 42
0.015239
  0
VERTEX
  8
0
 10
207.538442
 20
97.022015
 42
0.015313
  0
VERTEX
  8
0
 10
207.887624
 20
99.491212
 42
0.027472
  0
VERTEX
  8
0
 10
208.000000
 20
101.534947
 42
-0.016854
  0
VERTEX
  8
0
 10
208.072713
 20
103.691496
 42
-0.064443
  0
VERTEX
  8
0
 10
208.334189
 20
105.007618
 42
-0.127323
  0
VERTEX
  8
0
 10
208.805059
 20
105.729292
 42
-0.186985
  0
VERTEX
  8
0
 10
209.503624
 20
106.000000
 42
0.075138
  0
VERTEX
  8
0
 10
210.315509
 20
106.122699
 42
0.016234
  0
VERTEX
  8
0
 10
211.661707
 20
106.587500
 42
0.016592
  0
VERTEX
  8
0
 10
213.199903
 20
107.234396
 42
0.015183
  0
VERTEX
  8
0
 10
214.738815
 20
108.000000
 42
-0.025993
  0
VERTEX
  8
0
 10
216.365046
 20
108.765662
 42
-0.021573
  0
VERTEX
  8
0
 10
218.165415
 20
109.412500
 42
-0.022110
  0
VERTEX
  8
0
 10
219.869625
 20
109.861419
 42
-0.053389
  0
VERTEX
  8
0
 10
221.163762
 20
110.000000
 42
0.130478
  0
VERTEX
  8
0
 10
224.449872
 20
110.872384
 42
0.172417
  0
VERTEX
  8
0
 10
226.454578
 20
113.203123
 42
0.129649
  0
VERTEX
  8
0
 10
226.862391
 20
116.862026
 42
0.062310
  0
VERTEX
  8
0
 10
225.587649
 20
121.444470
 42
0.062349
  0
VERTEX
  8
0
 10
223.356805
 20
125.337869
 42
0.078102
  0
VERTEX
  8
0
 10
220.372713
 20
128.231779
 42
0.189106
  0
VERTEX
  8
0
 10
218.122571
 20
128.783314
 42
0.375653
  0
VERTEX
  8
0
 10
217.000000
 20
127.500000
 42
0.060236
  0
VERTEX
  8
0
 10
217.069356
 20
126.926380
 42
0.078979
  0
VERTEX
  8
0
 10
217.273747
 20
126.440625
 42
0.097106
  0
VERTEX
  8
0
 10
217.576468
 20
126.115362
 42
0.158219
  0
VERTEX
  8
0
 10
217.931906
 20
126.000000
 42
-0.221771
  0
VERTEX
  8
0
 10
219.069261
 20
125.469440
 42
-0.020288
  0
VERTEX
  8
0
 10
221.026352
 20
122.933492
 42
-0.018425
  0
VERTEX
  8
0
 10
222.775506
 20
120.262869
 42
-0.344875
  0
VERTEX
  8
0
 10
222.661691
 20
119.328357
 42
-0.264118
  0
VERTEX
  8
0
 10
222.264999
 20
119.219016
 42
-0.026970
  0
VERTEX
  8
0
 10
221.298529
 20
119.519478
 42
-0.028089
  0
VERTEX
  8
0
 10
220.108425
 20
120.038863
 42
-0.018580
  0
VERTEX
  8
0
 10
218.802599
 20
120.760438
 42
0.029263
  0
VERTEX
  8
0
 10
217.063199
 20
121.673675
 42
0.009698
  0
VERTEX
  8
0
 10
214.413888
 20
122.811207
 42
0.009619
  0
VERTEX
  8
0
 10
211.422199
 20
123.961030
 42
0.010787
  0
VERTEX
  8
0
 10
208.500000
 20
124.949315
 42
-0.021446
  0
VERTEX
  8
0
 10
203.827028
 20
126.641519
 42
-0.013790
  0
VERTEX
  8
0
 10
198.558136
 20
128.981200
 42
-0.005831
  0
VERTEX
  8
0
 10
193.559405
 20
131.440028
 42
-0.282687
  0
VERTEX
  8
0
 10
193.000000
 20
132.350401
 42
-0.498929
  0
VERTEX
  8
0
 10
193.100172
 20
132.425799
 42
-0.001115
  0
VERTEX
  8
0
 10
195.182826
 20
131.821065
 42
-0.005134
  0
VERTEX
  8
0
 10
197.581241
 20
131.092027
 42
-0.003030
  0
VERTEX
  8
0
 10
200.430898
 20
130.174741
 42
0.017530
  0
VERTEX
  8
0
 10
205.115380
 20
128.815399
 42
0.055063
  0
VERTEX
  8
0
 10
208.355248
 20
128.367578
 42
0.113703
  0
VERTEX
  8
0
 10
210.270370
 20
128.753995
 42
0.294405
  0
VERTEX
  8
0
 10
211.000000
 20
129.885751
 42
0.283796
  0
VERTEX
  8
0
 10
210.735540
 20
130.314157
 42
0.022314
  0
VERTEX
  8
0
 10
209.457812
 20
130.884869
 42
0.025083
  0
VERTEX
  8
0
 10
207.761953
 20
131.456848
 42
0.016207
  0
VERTEX
  8
0
 10
205.750000
 20
131.955038
 42
-0.029357
  0
VERTEX
  8
0
 10
200.571670
 20
133.382723
 42
-0.037386
  0
VERTEX
  8
0
 10
196.014096
 20
135.322838
 42
-0.042165
  0
VERTEX
  8
0
 10
192.350094
 20
137.627502
 42
-0.076717
  0
VERTEX
  8
0
 10
189.888963
 20
140.155936
 42
-0.041686
  0
VERTEX
  8
0
 10
188.834370
 20
141.933551
 42
-0.064336
  0
VERTEX
  8
0
 10
188.266917
 20
143.625294
 42
-0.051618
  0
VERTEX
  8
0
 10
188.079090
 20
145.661330
 42
-0.017898
  0
VERTEX
  8
0
 10
188.217696
 20
148.611580
 42
-0.047036
  0
VERTEX
  8
0
 10
189.017390
 20
153.089055
 42
-0.080061
  0
VERTEX
  8
0
 10
190.600623
 20
156.536442
 42
-0.080102
  0
VERTEX
  8
0
 10
193.186049
 20
159.310762
 42
-0.047128
  0
VERTEX
  8
0
 10
197.020432
 20
161.750000
 42
-0.037862
  0
VERTEX
  8
0
 10
200.622786
 20
163.259063
 42
-0.063763
  0
VERTEX
  8
0
 10
203.833969
 20
163.888831
 42
-0.067875
  0
VERTEX
  8
0
 10
206.956683
 20
163.672275
 42
-0.049431
  0
SEQEND
  0
POLYLINE
  8
0
 66
1
 70
1
  0
VERTEX
  8
0
 10
272.984687
 20
112.127555
 42
-0.043523
  0
VERTEX
  8
0
 10
272.914553
 20
111.402275
 42
-0.026607
  0
VERTEX
  8
0
 10
272.712892
 20
110.565877
 42
-0.026562
  0
VERTEX
  8
0
 10
272.422486
 20
109.752431
 42
-0.042124
  0
VERTEX
  8
0
 10
272.080930
 20
109.096708
 42
-0.042482
  0
VERTEX
  8
0
 10
271.655804
 20
108.536698
 42
-0.458163
  0
VERTEX
  8
0
 10
271.405131
 20
108.542385
 42
-0.167492
  0
VERTEX
  8
0
 10
271.256349
 20
108.941327
 42
-0.013027
  0
VERTEX
  8
0
 10
271.257494
 20
110.096708
 42
0.030708
  0
VERTEX
  8
0
 10
271.220859
 20
111.162664
 42
0.020086
  0
VERTEX
  8
0
 10
271.054164
 20
112.381533
 42
0.020217
  0
VERTEX
  8
0
 10
270.794784
 20
113.560731
 42
0.036086
  0
VERTEX
  8
0
 10
270.474020
 20
114.500000
 42
-0.006699
  0
VERTEX
  8
0
 10
269.980225
 20
115.708739
 42
-0.337749
  0
VERTEX
  8
0
 10
270.046147
 20
115.940599
 42
-0.336537
  0
VERTEX
  8
0
 10
270.287634
 20
115.938930
 42
-0.006676
  0
VERTEX
  8
0
 10
271.312769
 20
115.127555
 42
-0.051686
  0
VERTEX
  8
0
 10
271.957209
 20
114.482138
 42
-0.043258
  0
VERTEX
  8
0
 10
272.499878
 20
113.680172
 42
-0.045153
  0
VERTEX
  8
0
 10
272.868547
 20
112.850589
 42
-0.084539
  0
SEQEND
  0
POLYLINE
  8
0
 66
1
 70
1
  0
VERTEX
  8
0
 10
241.326479
 20
104.401119
 42
0.019781
  0
VERTEX
  8
0
 10
239.249478
 20
102.280915
 42
0.092537
  0
VERTEX
  8
0
 10
238.358744
 20
100.831348
 42
0.097070
  0
VERTEX
  8
0
 10
238.072402
 20
99.191959
 42
0.022911
  0
VERTEX
  8
0
 10
238.257783
 20
96.405312
 42
0.039895
  0
VERTEX
  8
0
 10
238.984537
 20
92.666524
 42
0.108502
  0
VERTEX
  8
0
 10
240.242022
 20
90.296975
 42
0.206862
  0
VERTEX
  8
0
 10
241.851062
 20
89.502230
 42
0.186501
  0
VERTEX
  8
0
 10
243.624457
 20
90.085903
 42
-0.166829
  0
VERTEX
  8
0
 10
244.195875
 20
90.298453
 42
-0.553895
  0
VERTEX
  8
0
 10
244.371621
 20
90.032903
 42
-0.034790
  0
VERTEX
  8
0
 10
243.539385
 20
88.497011
 42
-0.003920
  0
VERTEX
  8
0
 10
241.386217
 20
85.166891
 42
-0.563011
  0
VERTEX
  8
0
 10
241.237087
 20
85.172346
 42
-0.005781
  0
VERTEX
  8
0
 10
240.630233
 20
86.290842
 42
-0.011051
  0
VERTEX
  8
0
 10
239.921150
 20
87.709704
 42
-0.006220
  0
VERTEX
  8
0
 10
239.120331
 20
89.460877
 42
0.011765
  0
VERTEX
  8
0
 10
238.187738
 20
91.441823
 42
0.008941
  0
VERTEX
  8
0
 10
237.076487
 20
93.569001
 42
0.009054
  0
VERTEX
  8
0
 10
235.961867
 20
95.527518
 42
0.020820
  0
VERTEX
  8
0
 10
235.036773
 20
96.948357
 42
-0.031111
  0
VERTEX
  8
0
 10
233.496134
 20
99.424526
 42
-0.152195
  0
VERTEX
  8
0
 10
233.184699
 20
101.024043
 42
-0.132174
  0
VERTEX
  8
0
 10
233.816331
 20
102.640080
 42
-0.021281
  0
VERTEX
  8
0
 10
235.957060
 20
105.298313
 42
-0.023461
  0
VERTEX
  8
0
 10
237.616544
 20
107.018473
 42
-0.075062
  0
VERTEX
  8
0
 10
238.922563
 20
107.924664
 42
-0.095966
  0
VERTEX
  8
0
 10
240.250154
 20
108.285523
 42
-0.055001
  0
VERTEX
  8
0
 10
241.914536
 20
108.225851
 42
0.000000
  0
VERTEX
  8
0
 10
244.914951
 20
107.785484
 42
0.000000
  0
SEQEND
  0
POLYLINE
  8
0
 66
1
 70
1
  0
VERTEX
  8
0
 10
213.361626
 20
91.500000
 42
-0.021360
  0
VERTEX
  8
0
 10
213.112506
 20
90.925442
 42
-0.030395
  0
VERTEX
  8
0
 10
212.839659
 20
90.440625
 42
-0.030693
  0
VERTEX
  8
0
 10
212.579329
 20
90.087111
 42
-0.222225
  0
VERTEX
  8
0
 10
212.393011
 20
90.000000
 42
-0.289661
  0
VERTEX
  8
0
 10
212.241071
 20
90.096084
 42
-0.046727
  0
VERTEX
  8
0
 10
212.115447
 20
90.440625
 42
-0.039339
  0
VERTEX
  8
0
 10
212.028469
 20
90.925176
 42
-0.024748
  0
VERTEX
  8
0
 10
212.000000
 20
91.500000
 42
-0.062722
  0
VERTEX
  8
0
 10
212.072230
 20
92.073532
 42
-0.080880
  0
VERTEX
  8
0
 10
212.284531
 20
92.559375
 42
-0.098158
  0
VERTEX
  8
0
 10
212.599211
 20
92.884506
 42
-0.152681
  0
VERTEX
  8
0
 10
212.968615
 20
93.000000
 42
-0.184534
  0
VERTEX
  8
0
 10
213.289193
 20
92.877514
 42
-0.147206
  0
VERTEX
  8
0
 10
213.483616
 20
92.559375
 42
-0.100118
  0
VERTEX
  8
0
 10
213.511135
 20
92.074366
 42
-0.055937
  0
SEQEND
  0
POLYLINE
  8
0
 66
1
 70
1
  0
VERTEX
  8
0
 10
152.000000
 20
168.563358
 42
-0.020651
  0
VERTEX
  8
0
 10
151.927729
 20
166.814297
 42
-0.033296
  0
VERTEX
  8
0
 10
151.706250
 20
165.340487
 42
-0.036202
  0
VERTEX
  8
0
 10
151.388682
 20
164.268867
 42
-0.312166
  0
VERTEX
  8
0
 10
151.000000
 20
164.000000
 42
0.277684
  0
VERTEX
  8
0
 10
150.614308
 20
163.767902
 42
0.052312
  0
VERTEX
  8
0
 10
150.293750
 20
162.971875
 42
0.042582
  0
VERTEX
  8
0
 10
150.072542
 20
161.841111
 42
0.027026
  0
VERTEX
  8
0
 10
150.000000
 20
160.500000
 42
0.027026
  0
VERTEX
  8
0
 10
150.072542
 20
159.158889
 42
0.042582
  0
VERTEX
  8
0
 10
150.293750
 20
158.028125
 42
0.052312
  0
VERTEX
  8
0
 10
150.614308
 20
157.232098
 42
0.277684
  0
VERTEX
  8
0
 10
151.000000
 20
157.000000
 42
-0.365646
  0
VERTEX
  8
0
 10
151.420765
 20
156.644810
 42
-0.014491
  0
VERTEX
  8
0
 10
151.722222
 20
154.500000
 42
-0.018502
  0
VERTEX
  8
0
 10
151.933283
 20
151.639727
 42
-0.009164
  0
VERTEX
  8
0
 10
152.000000
 20
148.000000
 42
0.000000
  0
VERTEX
  8
0
 10
152.000000
 20
139.000000
 42
0.000000
  0
VERTEX
  8
0
 10
155.500000
 20
139.000000
 42
0.000000
  0
VERTEX
  8
0
 10
159.000000
 20
139.000000
 42
0.000000
  0
VERTEX
  8
0
 10
159.000000
 20
148.000000
 42
-0.004487
  0
VERTEX
  8
0
 10
159.049067
 20
153.467166
 42
-0.050222
  0
VERTEX
  8
0
 10
159.305556
 20
155.625000
 42
-0.168559
  0
VERTEX
  8
0
 10
159.915397
 20
156.613791
 42
-0.172730
  0
VERTEX
  8
0
 10
161.000000
 20
157.000000
 42
0.087745
  0
VERTEX
  8
0
 10
162.002462
 20
157.177287
 42
0.177212
  0
VERTEX
  8
0
 10
162.607143
 20
157.687500
 42
0.107690
  0
VERTEX
  8
0
 10
162.917816
 20
158.675720
 42
0.022514
  0
VERTEX
  8
0
 10
163.000000
 20
160.500000
 42
0.022734
  0
VERTEX
  8
0
 10
162.917940
 20
162.303863
 42
0.104315
  0
VERTEX
  8
0
 10
162.611250
 20
163.299550
 42
0.174044
  0
VERTEX
  8
0
 10
162.020171
 20
163.817429
 42
0.093988
  0
VERTEX
  8
0
 10
161.057498
 20
164.000000
 42
-0.112123
  0
VERTEX
  8
0
 10
160.075601
 20
164.222991
 42
-0.160679
  0
VERTEX
  8
0
 10
159.436822
 20
164.836550
 42
-0.086187
  0
VERTEX
  8
0
 10
159.046989
 20
166.033113
 42
-0.017695
  0
VERTEX
  8
0
 10
158.807498
 20
168.250000
 42
0.017144
  0
VERTEX
  8
0
 10
158.533538
 20
170.812404
 42
0.131086
  0
VERTEX
  8
0
 10
158.064461
 20
171.917313
 42
0.170606
  0
VERTEX
  8
0
 10
157.163031
 20
172.495957
 42
0.034162
  0
VERTEX
  8
0
 10
155.250000
 20
172.813358
 42
0.026123
  0
VERTEX
  8
0
 10
153.198415
 20
172.903453
 42
0.231403
  0
VERTEX
  8
0
 10
152.410882
 20
172.510178
 42
0.154118
  0
VERTEX
  8
0
 10
152.061383
 20
171.543780
 42
0.010297
  0
SEQEND
  0
POLYLINE
  8
0
 66
1
 70
1
  0
VERTEX
  8
0
 10
36.332914
 20
163.828767
 42
0.088737
  0
VERTEX
  8
0
 10
32.932523
 20
162.239762
 42
0.087200
  0
VERTEX
  8
0
 10
30.269865
 20
159.562584
 42
0.082710
  0
VERTEX
  8
0
 10
28.579437
 20
156.005864
 42
0.069770
  0
VERTEX
  8
0
 10
28.000000
 20
151.873615
 42
0.075665
  0
VERTEX
  8
0
 10
28.924957
 20
145.796446
 42
0.116143
  0
VERTEX
  8
0
 10
31.619752
 20
141.232135
 42
0.132047
  0
VERTEX
  8
0
 10
35.775836
 20
138.720268
 42
0.113975
  0
VERTEX
  8
0
 10
40.882088
 20
138.443797
 42
-0.016809
  0
VERTEX
  8
0
 10
42.572430
 20
138.680737
 42
-0.008841
  0
VERTEX
  8
0
 10
44.685676
 20
138.867118
 42
-0.008785
  0
VERTEX
  8
0
 10
46.859315
 20
138.981812
 42
-0.013366
  0
VERTEX
  8
0
 10
48.750000
 20
138.997725
 42
0.000000
  0
VERTEX
  8
0
 10
53.000000
 20
138.919885
 42
0.000000
  0
VERTEX
  8
0
 10
53.000000
 20
151.591612
 42
0.000000
  0
VERTEX
  8
0
 10
53.000000
 20
164.263338
 42
0.000000
  0
VERTEX
  8
0
 10
48.939773
 20
163.718748
 42
-0.022905
  0
VERTEX
  8
0
 10
47.188181
 20
163.565036
 42
-0.017995
  0
VERTEX
  8
0
 10
45.282117
 20
163.554089
 42
-0.018338
  0
VERTEX
  8
0
 10
43.506371
 20
163.673090
 42
-0.042006
  0
VERTEX
  8
0
 10
42.189773
 20
163.922952
 42
0.046608
  0
VERTEX
  8
0
 10
40.931365
 20
164.149816
 42
0.025329
  0
VERTEX
  8
0
 10
39.359789
 20
164.204163
 42
0.025020
  0
VERTEX
  8
0
 10
37.742093
 20
164.097061
 42
0.036015
  0
SEQEND
  0
POLYLINE
  8
0
 66
1
 70
1
  0
VERTEX
  8
0
 10
43.600296
 20
157.234687
 42
-0.185585
  0
VERTEX
  8
0
 10
46.249936
 20
153.484279
 42
-0.156545
  0
VERTEX
  8
0
 10
45.944570
 20
148.604317
 42
-0.175763
  0
VERTEX
  8
0
 10
42.940130
 20
145.185911
 42
-0.219714
  0
VERTEX
  8
0
 10
38.771364
 20
144.896828
 42
-0.073679
  0
VERTEX
  8
0
 10
37.020087
 20
145.877369
 42
-0.102961
  0
VERTEX
  8
0
 10
35.856432
 20
147.236434
 42
-0.086575
  0
VERTEX
  8
0
 10
35.206770
 20
149.132051
 42
-0.039384
  0
VERTEX
  8
0
 10
35.000000
 20
151.753047
 42
-0.126822
  0
VERTEX
  8
0
 10
35.789512
 20
154.815666
 42
-0.125338
  0
VERTEX
  8
0
 10
37.963512
 20
157.130801
 42
-0.134757
  0
VERTEX
  8
0
 10
40.848184
 20
158.021717
 42
-0.156351
  0
SEQEND
  0
POLYLINE
  8
0
 66
1
 70
1
  0
VERTEX
  8
0
 10
70.609615
 20
164.276282
 42
-0.171941
  0
VERTEX
  8
0
 10
70.170994
 20
164.067185
 42
-0.009090
  0
VERTEX
  8
0
 10
68.601870
 20
163.931728
 42
-0.013440
  0
VERTEX
  8
0
 10
66.694009
 20
163.853357
 42
-0.009307
  0
VERTEX
  8
0
 10
64.534342
 20
163.862938
 42
0.000000
  0
VERTEX
  8
0
 10
59.000000
 20
163.990524
 42
0.000000
  0
VERTEX
  8
0
 10
59.000000
 20
151.495262
 42
0.000000
  0
VERTEX
  8
0
 10
59.000000
 20
139.000000
 42
0.000000
  0
VERTEX
  8
0
 10
62.461067
 20
139.000000
 42
0.000000
  0
VERTEX
  8
0
 10
65.922134
 20
139.000000
 42
0.000000
  0
VERTEX
  8
0
 10
66.211067
 20
147.644333
 42
-0.007845
  0
VERTEX
  8
0
 10
66.433371
 20
152.168014
 42
-0.035380
  0
VERTEX
  8
0
 10
66.790638
 20
154.788042
 42
-0.065288
  0
VERTEX
  8
0
 10
67.357769
 20
156.408565
 42
-0.136430
  0
VERTEX
  8
0
 10
68.250000
 20
157.389218
 42
-0.051784
  0
VERTEX
  8
0
 10
69.165136
 20
157.840247
 42
-0.088843
  0
VERTEX
  8
0
 10
70.000000
 20
157.989770
 42
-0.088843
  0
VERTEX
  8
0
 10
70.834864
 20
157.840247
 42
-0.051784
  0
VERTEX
  8
0
 10
71.750000
 20
157.389218
 42
-0.136430
  0
VERTEX
  8
0
 10
72.642231
 20
156.408565
 42
-0.065288
  0
VERTEX
  8
0
 10
73.209362
 20
154.788042
 42
-0.035380
  0
VERTEX
  8
0
 10
73.566629
 20
152.168014
 42
-0.007845
  0
VERTEX
  8
0
 10
73.788933
 20
147.644333
 42
0.000000
  0
VERTEX
  8
0
 10
74.077866
 20
139.000000
 42
0.000000
  0
VERTEX
  8
0
 10
77.538933
 20
139.000000
 42
0.000000
  0
VERTEX
  8
0
 10
81.000000
 20
139.000000
 42
0.000000
  0
VERTEX
  8
0
 10
80.994423
 20
146.750000
 42
0.019135
  0
VERTEX
  8
0
 10
80.775375
 20
152.365823
 42
0.028602
  0
VERTEX
  8
0
 10
80.117222
 20
157.231759
 42
0.029919
  0
VERTEX
  8
0
 10
79.154453
 20
160.979592
 42
0.178344
  0
VERTEX
  8
0
 10
77.930402
 20
162.543014
 42
0.057222
  0
VERTEX
  8
0
 10
76.247457
 20
163.333782
 42
0.023119
  0
VERTEX
  8
0
 10
73.804680
 20
164.032798
 42
0.015708
  0
VERTEX
  8
0
 10
71.391013
 20
164.524753
 42
0.243406
  0
SEQEND
  0
POLYLINE
  8
0
 66
1
 70
1
  0
VERTEX
  8
0
 10
109.332914
 20
163.828767
 42
0.088737
  0
VERTEX
  8
0
 10
105.932523
 20
162.239762
 42
0.087200
  0
VERTEX
  8
0
 10
103.269865
 20
159.562584
 42
0.082710
  0
VERTEX
  8
0
 10
101.579437
 20
156.005864
 42
0.069770
  0
VERTEX
  8
0
 10
101.000000
 20
151.873615
 42
0.075665
  0
VERTEX
  8
0
 10
101.924957
 20
145.796446
 42
0.116143
  0
VERTEX
  8
0
 10
104.619752
 20
141.232135
 42
0.132047
  0
VERTEX
  8
0
 10
108.775836
 20
138.720268
 42
0.113975
  0
VERTEX
  8
0
 10
113.882088
 20
138.443797
 42
-0.016809
  0
VERTEX
  8
0
 10
115.572430
 20
138.680737
 42
-0.008841
  0
VERTEX
  8
0
 10
117.685676
 20
138.867118
 42
-0.008785
  0
VERTEX
  8
0
 10
119.859315
 20
138.981812
 42
-0.013366
  0
VERTEX
  8
0
 10
121.750000
 20
138.997725
 42
0.000000
  0
VERTEX
  8
0
 10
126.000000
 20
138.919885
 42
0.000000
  0
VERTEX
  8
0
 10
126.000000
 20
151.591612
 42
0.000000
  0
VERTEX
  8
0
 10
126.000000
 20
164.263338
 42
0.000000
  0
VERTEX
  8
0
 10
121.939773
 20
163.718748
 42
-0.022905
  0
VERTEX
  8
0
 10
120.188181
 20
163.565036
 42
-0.017995
  0
VERTEX
  8
0
 10
118.282117
 20
163.554089
 42
-0.018338
  0
VERTEX
  8
0
 10
116.506371
 20
163.673090
 42
-0.042006
  0
VERTEX
  8
0
 10
115.189773
 20
163.922952
 42
0.046608
  0
VERTEX
  8
0
 10
113.931365
 20
164.149816
 42
0.025329
  0
VERTEX
  8
0
 10
112.359789
 20
164.204163
 42
0.025020
  0
VERTEX
  8
0
 10
110.742093
 20
164.097061
 42
0.036015
  0
SEQEND
  0
POLYLINE
  8
0
 66
1
 70
1
  0
VERTEX
  8
0
 10
116.600296
 20
157.234687
 42
-0.185585
  0
VERTEX
  8
0
 10
119.249936
 20
153.484279
 42
-0.156545
  0
VERTEX
  8
0
 10
118.944570
 20
148.604317
 42
-0.175763
  0
VERTEX
  8
0
 10
115.940130
 20
145.185911
 42
-0.219714
  0
VERTEX
  8
0
 10
111.771364
 20
144.896828
 42
-0.073679
  0
VERTEX
  8
0
 10
110.020087
 20
145.877369
 42
-0.102961
  0
VERTEX
  8
0
 10
108.856432
 20
147.236434
 42
-0.086575
  0
VERTEX
  8
0
 10
108.206770
 20
149.132051
 42
-0.039384
  0
VERTEX
  8
0
 10
108.000000
 20
151.753047
 42
-0.126822
  0
VERTEX
  8
0
 10
108.789512
 20
154.815666
 42
-0.125338
  0
VERTEX
  8
0
 10
110.963512
 20
157.130801
 42
-0.134757
  0
VERTEX
  8
0
 10
113.848184
 20
158.021717
 42
-0.156351
  0
SEQEND
  0
POLYLINE
  8
0
 66
1
 70
1
  0
VERTEX
  8
0
 10
142.531292
 20
164.197959
 42
-0.172759
  0
VERTEX
  8
0
 10
142.117288
 20
164.001404
 42
-0.009979
  0
VERTEX
  8
0
 10
140.696032
 20
163.885803
 42
-0.014232
  0
VERTEX
  8
0
 10
138.963841
 20
163.829071
 42
-0.009915
  0
VERTEX
  8
0
 10
137.007790
 20
163.859491
 42
0.000000
  0
VERTEX
  8
0
 10
132.000000
 20
164.036736
 42
0.000000
  0
VERTEX
  8
0
 10
132.000000
 20
151.518368
 42
0.000000
  0
VERTEX
  8
0
 10
132.000000
 20
139.000000
 42
0.000000
  0
VERTEX
  8
0
 10
135.500000
 20
139.000000
 42
0.000000
  0
VERTEX
  8
0
 10
139.000000
 20
139.000000
 42
0.000000
  0
VERTEX
  8
0
 10
139.000000
 20
147.377555
 42
-0.017192
  0
VERTEX
  8
0
 10
139.203846
 20
153.304428
 42
-0.102297
  0
VERTEX
  8
0
 10
140.033260
 20
156.270767
 42
-0.221752
  0
VERTEX
  8
0
 10
141.641709
 20
157.513493
 42
-0.117356
  0
VERTEX
  8
0
 10
144.215979
 20
157.481929
 42
0.053586
  0
VERTEX
  8
0
 10
145.487485
 20
157.304255
 42
0.137001
  0
VERTEX
  8
0
 10
146.382743
 20
157.523852
 42
0.120936
  0
VERTEX
  8
0
 10
147.102845
 20
158.199487
 42
0.037271
  0
VERTEX
  8
0
 10
147.824336
 20
159.513805
 42
0.025147
  0
VERTEX
  8
0
 10
148.247618
 20
160.582107
 42
0.031368
  0
VERTEX
  8
0
 10
148.526327
 20
161.612190
 42
0.032712
  0
VERTEX
  8
0
 10
148.644971
 20
162.478375
 42
0.157354
  0
VERTEX
  8
0
 10
148.527482
 20
162.955534
 42
0.175007
  0
VERTEX
  8
0
 10
147.651636
 20
163.650448
 42
0.029984
  0
VERTEX
  8
0
 10
145.567976
 20
164.214265
 42
0.028480
  0
VERTEX
  8
0
 10
143.446005
 20
164.529255
 42
0.222522
  0
SEQEND
  0
POLYLINE
  8
0
 66
1
 70
1
  0
VERTEX
  8
0
 10
173.514072
 20
125.604981
 42
0.048333
  0
VERTEX
  8
0
 10
172.179648
 20
123.984221
 42
0.080554
  0
VERTEX
  8
0
 10
171.442047
 20
122.382074
 42
0.055074
  0
VERTEX
  8
0
 10
171.093271
 20
120.229843
 42
0.012656
  0
VERTEX
  8
0
 10
171.000000
 20
116.545455
 42
-0.013740
  0
VERTEX
  8
0
 10
170.929729
 20
113.988850
 42
-0.024167
  0
VERTEX
  8
0
 10
170.711806
 20
111.886364
 42
-0.021841
  0
VERTEX
  8
0
 10
170.400996
 20
110.315036
 42
-0.345836
  0
VERTEX
  8
0
 10
170.000000
 20
110.000000
 42
0.277684
  0
VERTEX
  8
0
 10
169.614308
 20
109.767902
 42
0.052312
  0
VERTEX
  8
0
 10
169.293750
 20
108.971875
 42
0.042582
  0
VERTEX
  8
0
 10
169.072542
 20
107.841111
 42
0.027026
  0
VERTEX
  8
0
 10
169.000000
 20
106.500000
 42
0.027026
  0
VERTEX
  8
0
 10
169.072542
 20
105.158889
 42
0.042582
  0
VERTEX
  8
0
 10
169.293750
 20
104.028125
 42
0.052312
  0
VERTEX
  8
0
 10
169.614308
 20
103.232098
 42
0.277684
  0
VERTEX
  8
0
 10
170.000000
 20
103.000000
 42
-0.365646
  0
VERTEX
  8
0
 10
170.420765
 20
102.644810
 42
-0.014491
  0
VERTEX
  8
0
 10
170.722222
 20
100.500000
 42
-0.018502
  0
VERTEX
  8
0
 10
170.933283
 20
97.639727
 42
-0.009164
  0
VERTEX
  8
0
 10
171.000000
 20
94.000000
 42
0.000000
  0
VERTEX
  8
0
 10
171.000000
 20
85.000000
 42
0.000000
  0
VERTEX
  8
0
 10
174.500000
 20
85.000000
 42
0.000000
  0
VERTEX
  8
0
 10
178.000000
 20
85.000000
 42
0.000000
  0
VERTEX
  8
0
 10
178.000000
 20
93.933578
 42
0.000000
  0
VERTEX
  8
0
 10
178.000000
 20
102.867155
 42
0.000000
  0
VERTEX
  8
0
 10
180.750000
 20
103.183578
 42
0.047844
  0
VERTEX
  8
0
 10
182.198417
 20
103.492560
 42
0.139735
  0
VERTEX
  8
0
 10
183.043059
 20
104.050131
 42
0.121741
  0
VERTEX
  8
0
 10
183.533376
 20
105.021695
 42
0.032252
  0
VERTEX
  8
0
 10
183.813358
 20
106.750000
 42
0.021973
  0
VERTEX
  8
0
 10
183.914676
 20
108.689889
 42
0.179517
  0
VERTEX
  8
0
 10
183.617967
 20
109.510341
 42
0.193387
  0
VERTEX
  8
0
 10
182.870713
 20
109.905548
 42
0.026112
  0
VERTEX
  8
0
 10
181.063358
 20
110.000000
 42
-0.039482
  0
VERTEX
  8
0
 10
179.177295
 20
110.149163
 42
-0.231573
  0
VERTEX
  8
0
 10
178.387455
 20
110.704694
 42
-0.118481
  0
VERTEX
  8
0
 10
178.056644
 20
111.914856
 42
-0.007745
  0
VERTEX
  8
0
 10
178.000000
 20
115.571566
 42
-0.007100
  0
VERTEX
  8
0
 10
178.051475
 20
119.196487
 42
-0.114019
  0
VERTEX
  8
0
 10
178.358966
 20
120.373883
 42
-0.258448
  0
VERTEX
  8
0
 10
179.088792
 20
120.854608
 42
-0.048296
  0
VERTEX
  8
0
 10
180.750000
 20
120.821566
 42
0.034536
  0
VERTEX
  8
0
 10
182.348006
 20
120.745829
 42
0.212059
  0
VERTEX
  8
0
 10
183.076540
 20
121.088465
 42
0.161346
  0
VERTEX
  8
0
 10
183.423846
 20
121.925464
 42
0.018348
  0
VERTEX
  8
0
 10
183.500000
 20
124.000000
 42
0.024848
  0
VERTEX
  8
0
 10
183.394975
 20
126.112000
 42
0.170697
  0
VERTEX
  8
0
 10
182.961039
 20
127.039729
 42
0.158723
  0
VERTEX
  8
0
 10
182.024771
 20
127.527554
 42
0.020715
  0
VERTEX
  8
0
 10
179.764072
 20
127.809526
 42
0.034766
  0
VERTEX
  8
0
 10
177.795379
 20
127.835434
 42
0.070807
  0
VERTEX
  8
0
 10
176.282069
 20
127.532255
 42
0.072898
  0
VERTEX
  8
0
 10
174.941484
 20
126.826405
 42
0.038824
  0
SEQEND
  0
POLYLINE
  8
0
 66
1
 70
1
  0
VERTEX
  8
0
 10
159.000000
 20
106.000000
 42
0.000000
  0
VERTEX
  8
0
 10
159.000000
 20
85.000000
 42
0.000000
  0
VERTEX
  8
0
 10
162.500000
 20
85.000000
 42
0.000000
  0
VERTEX
  8
0
 10
166.000000
 20
85.000000
 42
0.000000
  0
VERTEX
  8
0
 10
166.000000
 20
106.000000
 42
0.000000
  0
VERTEX
  8
0
 10
166.000000
 20
127.000000
 42
0.000000
  0
VERTEX
  8
0
 10
162.500000
 20
127.000000
 42
0.000000
  0
VERTEX
  8
0
 10
159.000000
 20
127.000000
 42
0.000000
  0
SEQEND
  0
POLYLINE
  8
0
 66
1
 70
1
  0
VERTEX
  8
0
 10
29.242976
 20
121.842976
 42
0.156980
  0
VERTEX
  8
0
 10
28.084763
 20
119.585178
 42
0.176156
  0
VERTEX
  8
0
 10
28.535012
 20
117.194715
 42
0.162381
  0
VERTEX
  8
0
 10
30.471317
 20
115.517091
 42
0.133996
  0
VERTEX
  8
0
 10
33.194958
 20
115.173236
 42
0.066687
  0
VERTEX
  8
0
 10
34.378349
 20
115.505851
 42
0.156631
  0
VERTEX
  8
0
 10
35.062014
 20
116.102954
 42
0.110897
  0
VERTEX
  8
0
 10
35.406493
 20
117.138111
 42
0.025095
  0
VERTEX
  8
0
 10
35.500000
 20
119.000000
 42
0.024350
  0
VERTEX
  8
0
 10
35.406498
 20
120.918827
 42
0.122270
  0
VERTEX
  8
0
 10
35.050000
 20
121.924353
 42
0.164610
  0
VERTEX
  8
0
 10
34.324640
 20
122.487841
 42
0.054511
  0
VERTEX
  8
0
 10
32.992976
 20
122.792976
 42
0.048605
  0
VERTEX
  8
0
 10
31.941859
 20
122.813162
 42
0.042571
  0
VERTEX
  8
0
 10
30.857266
 20
122.634766
 42
0.044841
  0
VERTEX
  8
0
 10
29.899812
 20
122.298518
 42
0.089750
  0
SEQEND
  0
POLYLINE
  8
0
 66
1
 70
1
  0
VERTEX
  8
0
 10
84.242976
 20
121.842976
 42
0.156980
  0
VERTEX
  8
0
 10
83.084763
 20
119.585178
 42
0.176156
  0
VERTEX
  8
0
 10
83.535012
 20
117.194715
 42
0.162381
  0
VERTEX
  8
0
 10
85.471317
 20
115.517091
 42
0.133996
  0
VERTEX
  8
0
 10
88.194958
 20
115.173236
 42
0.066687
  0
VERTEX
  8
0
 10
89.378349
 20
115.505851
 42
0.156631
  0
VERTEX
  8
0
 10
90.062014
 20
116.102954
 42
0.110897
  0
VERTEX
  8
0
 10
90.406493
 20
117.138111
 42
0.025095
  0
VERTEX
  8
0
 10
90.500000
 20
119.000000
 42
0.024350
  0
VERTEX
  8
0
 10
90.406498
 20
120.918827
 42
0.122270
  0
VERTEX
  8
0
 10
90.050000
 20
121.924353
 42
0.164610
  0
VERTEX
  8
0
 10
89.324640
 20
122.487841
 42
0.054511
  0
VERTEX
  8
0
 10
87.992976
 20
122.792976
 42
0.048605
  0
VERTEX
  8
0
 10
86.941859
 20
122.813162
 42
0.042571
  0
VERTEX
  8
0
 10
85.857266
 20
122.634766
 42
0.044841
  0
VERTEX
  8
0
 10
84.899812
 20
122.298518
 42
0.089750
  0
SEQEND
  0
POLYLINE
  8
0
 66
1
 70
1
  0
VERTEX
  8
0
 10
97.000000
 20
114.563358
 42
-0.020651
  0
VERTEX
  8
0
 10
96.927729
 20
112.814297
 42
-0.033296
  0
VERTEX
  8
0
 10
96.706250
 20
111.340487
 42
-0.036202
  0
VERTEX
  8
0
 10
96.388682
 20
110.268867
 42
-0.312166
  0
VERTEX
  8
0
 10
96.000000
 20
110.000000
 42
0.277684
  0
VERTEX
  8
0
 10
95.614308
 20
109.767902
 42
0.052312
  0
VERTEX
  8
0
 10
95.293750
 20
108.971875
 42
0.042582
  0
VERTEX
  8
0
 10
95.072542
 20
107.841111
 42
0.027026
  0
VERTEX
  8
0
 10
95.000000
 20
106.500000
 42
0.027026
  0
VERTEX
  8
0
 10
95.072542
 20
105.158889
 42
0.042582
  0
VERTEX
  8
0
 10
95.293750
 20
104.028125
 42
0.052312
  0
VERTEX
  8
0
 10
95.614308
 20
103.232098
 42
0.277684
  0
VERTEX
  8
0
 10
96.000000
 20
103.000000
 42
-0.365646
  0
VERTEX
  8
0
 10
96.420765
 20
102.644810
 42
-0.014491
  0
VERTEX
  8
0
 10
96.722222
 20
100.500000
 42
-0.018502
  0
VERTEX
  8
0
 10
96.933283
 20
97.639727
 42
-0.009164
  0
VERTEX
  8
0
 10
97.000000
 20
94.000000
 42
0.000000
  0
VERTEX
  8
0
 10
97.000000
 20
85.000000
 42
0.000000
  0
VERTEX
  8
0
 10
100.500000
 20
85.000000
 42
0.000000
  0
VERTEX
  8
0
 10
104.000000
 20
85.000000
 42
0.000000
  0
VERTEX
  8
0
 10
104.000000
 20
94.000000
 42
-0.004487
  0
VERTEX
  8
0
 10
104.049067
 20
99.467166
 42
-0.050222
  0
VERTEX
  8
0
 10
104.305556
 20
101.625000
 42
-0.168559
  0
VERTEX
  8
0
 10
104.915397
 20
102.613791
 42
-0.172730
  0
VERTEX
  8
0
 10
106.000000
 20
103.000000
 42
0.087745
  0
VERTEX
  8
0
 10
107.002462
 20
103.177287
 42
0.177212
  0
VERTEX
  8
0
 10
107.607143
 20
103.687500
 42
0.107690
  0
VERTEX
  8
0
 10
107.917816
 20
104.675720
 42
0.022514
  0
VERTEX
  8
0
 10
108.000000
 20
106.500000
 42
0.022734
  0
VERTEX
  8
0
 10
107.917940
 20
108.303863
 42
0.104315
  0
VERTEX
  8
0
 10
107.611250
 20
109.299550
 42
0.174044
  0
VERTEX
  8
0
 10
107.020171
 20
109.817429
 42
0.093988
  0
VERTEX
  8
0
 10
106.057498
 20
110.000000
 42
-0.112123
  0
VERTEX
  8
0
 10
105.075601
 20
110.222991
 42
-0.160679
  0
VERTEX
  8
0
 10
104.436822
 20
110.836550
 42
-0.086187
  0
VERTEX
  8
0
 10
104.046989
 20
112.033113
 42
-0.017695
  0
VERTEX
  8
0
 10
103.807498
 20
114.250000
 42
0.017144
  0
VERTEX
  8
0
 10
103.533538
 20
116.812404
 42
0.131086
  0
VERTEX
  8
0
 10
103.064461
 20
117.917313
 42
0.170606
  0
VERTEX
  8
0
 10
102.163031
 20
118.495957
 42
0.034162
  0
VERTEX
  8
0
 10
100.250000
 20
118.813358
 42
0.026123
  0
VERTEX
  8
0
 10
98.198415
 20
118.903453
 42
0.231403
  0
VERTEX
  8
0
 10
97.410882
 20
118.510178
 42
0.154118
  0
VERTEX
  8
0
 10
97.061383
 20
117.543780
 42
0.010297
  0
SEQEND
  0
POLYLINE
  8
0
 66
1
 70
1
  0
VERTEX
  8
0
 10
52.609615
 20
110.276282
 42
-0.171941
  0
VERTEX
  8
0
 10
52.170994
 20
110.067185
 42
-0.009090
  0
VERTEX
  8
0
 10
50.601870
 20
109.931728
 42
-0.013440
  0
VERTEX
  8
0
 10
48.694009
 20
109.853357
 42
-0.009307
  0
VERTEX
  8
0
 10
46.534342
 20
109.862938
 42
0.000000
  0
VERTEX
  8
0
 10
41.000000
 20
109.990524
 42
0.000000
  0
VERTEX
  8
0
 10
41.000000
 20
97.495262
 42
0.000000
  0
VERTEX
  8
0
 10
41.000000
 20
85.000000
 42
0.000000
  0
VERTEX
  8
0
 10
44.461067
 20
85.000000
 42
0.000000
  0
VERTEX
  8
0
 10
47.922134
 20
85.000000
 42
0.000000
  0
VERTEX
  8
0
 10
48.211067
 20
93.644333
 42
-0.007845
  0
VERTEX
  8
0
 10
48.433371
 20
98.168014
 42
-0.035380
  0
VERTEX
  8
0
 10
48.790638
 20
100.788042
 42
-0.065288
  0
VERTEX
  8
0
 10
49.357769
 20
102.408565
 42
-0.136430
  0
VERTEX
  8
0
 10
50.250000
 20
103.389218
 42
-0.051784
  0
VERTEX
  8
0
 10
51.165136
 20
103.840247
 42
-0.088843
  0
VERTEX
  8
0
 10
52.000000
 20
103.989770
 42
-0.088843
  0
VERTEX
  8
0
 10
52.834864
 20
103.840247
 42
-0.051784
  0
VERTEX
  8
0
 10
53.750000
 20
103.389218
 42
-0.136430
  0
VERTEX
  8
0
 10
54.642231
 20
102.408565
 42
-0.065288
  0
VERTEX
  8
0
 10
55.209362
 20
100.788042
 42
-0.035380
  0
VERTEX
  8
0
 10
55.566629
 20
98.168014
 42
-0.007845
  0
VERTEX
  8
0
 10
55.788933
 20
93.644333
 42
0.000000
  0
VERTEX
  8
0
 10
56.077866
 20
85.000000
 42
0.000000
  0
VERTEX
  8
0
 10
59.538933
 20
85.000000
 42
0.000000
  0
VERTEX
  8
0
 10
63.000000
 20
85.000000
 42
0.000000
  0
VERTEX
  8
0
 10
62.994423
 20
92.750000
 42
0.019135
  0
VERTEX
  8
0
 10
62.775375
 20
98.365823
 42
0.028602
  0
VERTEX
  8
0
 10
62.117222
 20
103.231759
 42
0.029919
  0
VERTEX
  8
0
 10
61.154453
 20
106.979592
 42
0.178344
  0
VERTEX
  8
0
 10
59.930402
 20
108.543014
 42
0.057222
  0
VERTEX
  8
0
 10
58.247457
 20
109.333782
 42
0.023119
  0
VERTEX
  8
0
 10
55.804680
 20
110.032798
 42
0.015708
  0
VERTEX
  8
0
 10
53.391013
 20
110.524753
 42
0.243406
  0
SEQEND
  0
POLYLINE
  8
0
 66
1
 70
1
  0
VERTEX
  8
0
 10
115.354429
 20
110.213135
 42
0.102361
  0
VERTEX
  8
0
 10
113.231292
 20
109.427809
 42
0.087292
  0
VERTEX
  8
0
 10
111.453368
 20
107.828897
 42
0.082289
  0
VERTEX
  8
0
 10
110.249060
 20
105.624475
 42
0.076996
  0
VERTEX
  8
0
 10
109.783709
 20
103.097504
 42
0.084782
  0
VERTEX
  8
0
 10
110.140506
 20
100.579034
 42
0.087379
  0
VERTEX
  8
0
 10
111.312441
 20
98.350915
 42
0.078055
  0
VERTEX
  8
0
 10
113.306090
 20
96.469375
 42
0.052043
  0
VERTEX
  8
0
 10
116.072294
 20
94.970055
 42
-0.061123
  0
VERTEX
  8
0
 10
117.902541
 20
93.934742
 42
-0.141634
  0
VERTEX
  8
0
 10
118.851977
 20
92.692313
 42
-0.208894
  0
VERTEX
  8
0
 10
118.801782
 20
91.461200
 42
-0.142097
  0
VERTEX
  8
0
 10
117.848296
 20
90.406242
 42
-0.144083
  0
VERTEX
  8
0
 10
117.316572
 20
90.260582
 42
-0.090383
  0
VERTEX
  8
0
 10
116.679897
 20
90.389041
 42
-0.076762
  0
VERTEX
  8
0
 10
116.036096
 20
90.768501
 42
-0.063487
  0
VERTEX
  8
0
 10
115.488054
 20
91.347225
 42
0.092911
  0
VERTEX
  8
0
 10
114.279239
 20
92.482723
 42
0.131607
  0
VERTEX
  8
0
 10
112.879309
 20
92.926740
 42
0.112782
  0
VERTEX
  8
0
 10
111.282096
 20
92.637434
 42
0.056954
  0
VERTEX
  8
0
 10
109.494540
 20
91.619666
 42
0.050649
  0
VERTEX
  8
0
 10
108.481344
 20
90.708213
 42
0.256466
  0
VERTEX
  8
0
 10
108.310632
 20
89.994861
 42
0.121178
  0
VERTEX
  8
0
 10
108.800347
 20
89.116068
 42
0.008955
  0
VERTEX
  8
0
 10
110.726488
 20
87.119666
 42
0.131110
  0
VERTEX
  8
0
 10
115.531134
 20
84.338869
 42
0.149745
  0
VERTEX
  8
0
 10
120.822547
 20
84.515395
 42
0.160100
  0
VERTEX
  8
0
 10
124.862805
 20
87.574935
 42
0.152454
  0
VERTEX
  8
0
 10
126.400000
 20
92.499249
 42
0.065011
  0
VERTEX
  8
0
 10
126.056202
 20
95.132225
 42
0.111015
  0
VERTEX
  8
0
 10
125.035331
 20
97.089298
 42
0.074483
  0
VERTEX
  8
0
 10
122.962277
 20
98.908160
 42
0.017370
  0
VERTEX
  8
0
 10
118.974071
 20
101.281223
 42
-0.021212
  0
VERTEX
  8
0
 10
117.773426
 20
102.008177
 42
-0.037668
  0
VERTEX
  8
0
 10
116.861883
 20
102.718775
 42
-0.048402
  0
VERTEX
  8
0
 10
116.314761
 20
103.322058
 42
-0.372210
  0
VERTEX
  8
0
 10
116.340391
 20
103.673724
 42
-0.189595
  0
VERTEX
  8
0
 10
116.678643
 20
103.821003
 42
-0.076715
  0
VERTEX
  8
0
 10
117.186952
 20
103.761147
 42
-0.061025
  0
VERTEX
  8
0
 10
117.778387
 20
103.516481
 42
-0.044675
  0
VERTEX
  8
0
 10
118.363911
 20
103.112944
 42
0.073528
  0
VERTEX
  8
0
 10
119.186316
 20
102.613313
 42
0.101249
  0
VERTEX
  8
0
 10
120.031812
 20
102.444269
 42
0.077613
  0
VERTEX
  8
0
 10
121.038570
 20
102.606111
 42
0.028312
  0
VERTEX
  8
0
 10
122.388077
 20
103.130958
 42
0.024588
  0
VERTEX
  8
0
 10
124.267770
 20
104.101657
 42
0.202179
  0
VERTEX
  8
0
 10
124.835463
 20
104.854719
 42
0.194366
  0
VERTEX
  8
0
 10
124.704526
 20
105.804715
 42
0.022530
  0
VERTEX
  8
0
 10
123.528807
 20
107.655410
 42
0.089369
  0
VERTEX
  8
0
 10
122.127975
 20
109.045416
 42
0.075143
  0
VERTEX
  8
0
 10
120.245636
 20
109.962247
 42
0.066180
  0
VERTEX
  8
0
 10
117.954576
 20
110.358064
 42
0.047331
  0
SEQEND
  0
POLYLINE
  8
0
 66
1
 70
1
  0
VERTEX
  8
0
 10
138.286247
 20
109.865877
 42
0.177627
  0
VERTEX
  8
0
 10
132.643753
 20
105.787421
 42
0.127572
  0
VERTEX
  8
0
 10
130.029648
 20
98.387181
 42
0.125862
  0
VERTEX
  8
0
 10
131.327877
 20
90.572209
 42
0.171276
  0
VERTEX
  8
0
 10
136.182641
 20
85.405553
 42
0.085395
  0
VERTEX
  8
0
 10
139.975108
 20
84.203784
 42
0.075730
  0
VERTEX
  8
0
 10
144.119242
 20
84.264599
 42
0.075102
  0
VERTEX
  8
0
 10
148.088318
 20
85.561293
 42
0.081609
  0
VERTEX
  8
0
 10
151.371643
 20
87.947921
 42
0.000000
  0
VERTEX
  8
0
 10
154.500000
 20
91.114094
 42
0.000000
  0
VERTEX
  8
0
 10
152.139216
 20
93.057047
 42
-0.004432
  0
VERTEX
  8
0
 10
150.580153
 20
94.363524
 42
-0.186231
  0
VERTEX
  8
0
 10
150.376187
 20
94.740268
 42
-0.435929
  0
VERTEX
  8
0
 10
150.562349
 20
94.963901
 42
-0.013601
  0
VERTEX
  8
0
 10
151.889216
 20
95.000000
 42
0.219708
  0
VERTEX
  8
0
 10
153.315868
 20
95.658689
 42
0.157219
  0
VERTEX
  8
0
 10
154.000131
 20
97.305397
 42
0.085299
  0
VERTEX
  8
0
 10
153.763904
 20
99.975402
 42
0.034351
  0
VERTEX
  8
0
 10
152.583526
 20
103.454338
 42
0.092866
  0
VERTEX
  8
0
 10
150.272859
 20
106.973632
 42
0.096057
  0
VERTEX
  8
0
 10
146.869281
 20
109.368129
 42
0.093076
  0
VERTEX
  8
0
 10
142.723548
 20
110.364850
 42
0.081331
  0
SEQEND
  0
POLYLINE
  8
0
 66
1
 70
1
  0
VERTEX
  8
0
 10
144.418213
 20
103.393011
 42
-0.088049
  0
VERTEX
  8
0
 10
145.791236
 20
102.566146
 42
-0.443103
  0
VERTEX
  8
0
 10
145.806227
 20
101.772772
 42
-0.159435
  0
VERTEX
  8
0
 10
144.506314
 20
101.161955
 42
-0.030775
  0
VERTEX
  8
0
 10
141.877555
 20
101.000000
 42
-0.008962
  0
VERTEX
  8
0
 10
139.552468
 20
101.041678
 42
-0.111629
  0
VERTEX
  8
0
 10
138.705024
 20
101.265471
 42
-0.382757
  0
VERTEX
  8
0
 10
138.536771
 20
101.713608
 42
-0.080368
  0
VERTEX
  8
0
 10
139.000000
 20
102.500000
 42
-0.075455
  0
VERTEX
  8
0
 10
140.066988
 20
103.449972
 42
-0.103738
  0
VERTEX
  8
0
 10
141.260878
 20
103.913155
 42
-0.089157
  0
VERTEX
  8
0
 10
142.676616
 20
103.892632
 42
-0.043545
  0
SEQEND
  0
POLYLINE
  8
0
 66
1
 70
1
  0
VERTEX
  8
0
 10
147.062964
 20
93.117649
 42
-0.130622
  0
VERTEX
  8
0
 10
145.145229
 20
91.063925
 42
-0.139486
  0
VERTEX
  8
0
 10
142.508968
 20
90.298230
 42
-0.140279
  0
VERTEX
  8
0
 10
139.875744
 20
91.036223
 42
-0.132622
  0
VERTEX
  8
0
 10
137.963755
 20
93.067725
 42
-0.085341
  0
VERTEX
  8
0
 10
137.606026
 20
94.143147
 42
-0.342236
  0
VERTEX
  8
0
 10
137.921906
 20
94.709691
 42
-0.094852
  0
VERTEX
  8
0
 10
139.067429
 20
94.958103
 42
-0.006103
  0
VERTEX
  8
0
 10
142.500000
 20
95.000000
 42
-0.006291
  0
VERTEX
  8
0
 10
145.892428
 20
94.957312
 42
-0.091780
  0
VERTEX
  8
0
 10
147.059537
 20
94.710732
 42
-0.336262
  0
VERTEX
  8
0
 10
147.387988
 20
94.151141
 42
-0.093621
  0
SEQEND
  0
POLYLINE
  8
0
 66
1
 70
1
  0
VERTEX
  8
0
 10
29.000000
 20
97.563358
 42
0.000000
  0
VERTEX
  8
0
 10
29.000000
 20
85.000000
 42
0.000000
  0
VERTEX
  8
0
 10
32.530779
 20
85.000000
 42
0.000000
  0
VERTEX
  8
0
 10
36.061558
 20
85.000000
 42
0.000000
  0
VERTEX
  8
0
 10
35.780779
 20
97.250000
 42
0.000000
  0
VERTEX
  8
0
 10
35.500000
 20
109.500000
 42
0.000000
  0
VERTEX
  8
0
 10
32.250000
 20
109.813358
 42
0.000000
  0
VERTEX
  8
0
 10
29.000000
 20
110.126717
 42
0.000000
  0
SEQEND
  0
POLYLINE
  8
0
 66
1
 70
1
  0
VERTEX
  8
0
 10
84.000000
 20
97.563358
 42
0.000000
  0
VERTEX
  8
0
 10
84.000000
 20
85.000000
 42
0.000000
  0
VERTEX
  8
0
 10
87.530779
 20
85.000000
 42
0.000000
  0
VERTEX
  8
0
 10
91.061558
 20
85.000000
 42
0.000000
  0
VERTEX
  8
0
 10
90.780779
 20
97.250000
 42
0.000000
  0
VERTEX
  8
0
 10
90.500000
 20
109.500000
 42
0.000000
  0
VERTEX
  8
0
 10
87.250000
 20
109.813358
 42
0.000000
  0
VERTEX
  8
0
 10
84.000000
 20
110.126717
 42
0.000000
  0
SEQEND
  0
POLYLINE
  8
0
 66
1
 70
1
  0
VERTEX
  8
0
 10
267.458881
 20
169.933469
 42
0.113371
  0
VERTEX
  8
0
 10
267.136385
 20
168.985128
 42
0.261672
  0
VERTEX
  8
0
 10
267.426445
 20
168.317483
 42
0.188422
  0
VERTEX
  8
0
 10
268.275512
 20
168.076451
 42
0.067736
  0
VERTEX
  8
0
 10
269.520254
 20
168.369399
 42
0.067341
  0
VERTEX
  8
0
 10
270.088046
 20
168.680239
 42
0.097937
  0
VERTEX
  8
0
 10
270.472022
 20
169.100609
 42
0.123144
  0
VERTEX
  8
0
 10
270.614372
 20
169.560991
 42
0.153283
  0
VERTEX
  8
0
 10
270.504365
 20
169.992937
 42
0.104938
  0
VERTEX
  8
0
 10
269.817295
 20
170.711950
 42
0.155876
  0
VERTEX
  8
0
 10
268.989050
 20
170.958873
 42
0.152164
  0
VERTEX
  8
0
 10
268.156314
 20
170.681493
 42
0.098738
  0
SEQEND
  0
POLYLINE
  8
0
 66
1
 70
1
  0
VERTEX
  8
0
 10
278.476160
 20
154.961426
 42
0.188412
  0
VERTEX
  8
0
 10
278.261190
 20
153.787515
 42
0.162562
  0
VERTEX
  8
0
 10
278.880583
 20
152.689607
 42
0.175071
  0
VERTEX
  8
0
 10
279.994999
 20
152.233843
 42
0.209743
  0
VERTEX
  8
0
 10
281.042382
 20
152.642382
 42
0.089272
  0
VERTEX
  8
0
 10
281.418750
 20
153.183961
 42
0.153701
  0
VERTEX
  8
0
 10
281.486198
 20
153.724047
 42
0.125124
  0
VERTEX
  8
0
 10
281.229301
 20
154.284595
 42
0.049888
  0
VERTEX
  8
0
 10
280.631409
 20
154.890940
 42
0.037369
  0
VERTEX
  8
0
 10
279.899749
 20
155.411096
 42
0.128354
  0
VERTEX
  8
0
 10
279.345500
 20
155.575288
 42
0.177337
  0
VERTEX
  8
0
 10
278.888736
 20
155.424766
 42
0.087186
  0
SEQEND
  0
POLYLINE
  8
0
 66
1
 70
1
  0
VERTEX
  8
0
 10
212.000000
 20
128.500000
 42
0.090288
  0
VERTEX
  8
0
 10
212.120561
 20
127.837793
 42
0.143006
  0
VERTEX
  8
0
 10
212.464524
 20
127.379901
 42
0.134068
  0
VERTEX
  8
0
 10
213.019642
 20
127.160813
 42
0.075042
  0
VERTEX
  8
0
 10
213.750000
 20
127.190371
 42
0.110048
  0
VERTEX
  8
0
 10
214.882382
 20
127.681821
 42
0.259838
  0
VERTEX
  8
0
 10
215.256394
 20
128.489471
 42
0.231347
  0
VERTEX
  8
0
 10
214.774796
 20
129.312476
 42
0.095633
  0
VERTEX
  8
0
 10
213.552821
 20
129.823324
 42
0.097115
  0
VERTEX
  8
0
 10
212.936825
 20
129.830508
 42
0.131707
  0
VERTEX
  8
0
 10
212.436667
 20
129.592675
 42
0.128059
  0
VERTEX
  8
0
 10
212.113232
 20
129.130198
 42
0.089125
  0
SEQEND
  0
POLYLINE
  8
0
 66
1
 70
1
  0
VERTEX
  8
0
 10
236.176676
 20
127.447179
 42
0.095633
  0
VERTEX
  8
0
 10
236.687524
 20
126.225204
 42
0.231347
  0
VERTEX
  8
0
 10
237.510529
 20
125.743606
 42
0.259838
  0
VERTEX
  8
0
 10
238.318179
 20
126.117618
 42
0.110048
  0
VERTEX
  8
0
 10
238.809629
 20
127.250000
 42
0.075042
  0
VERTEX
  8
0
 10
238.839187
 20
127.980358
 42
0.134068
  0
VERTEX
  8
0
 10
238.620099
 20
128.535476
 42
0.143006
  0
VERTEX
  8
0
 10
238.162207
 20
128.879439
 42
0.090288
  0
VERTEX
  8
0
 10
237.500000
 20
129.000000
 42
0.089125
  0
VERTEX
  8
0
 10
236.869802
 20
128.886768
 42
0.128059
  0
VERTEX
  8
0
 10
236.407325
 20
128.563333
 42
0.131707
  0
VERTEX
  8
0
 10
236.169492
 20
128.063175
 42
0.097115
  0
SEQEND
  0
ENDSEC
  0
EOF
