  0
SECTION
  2
HEADER
  9
$ACADVER
  1
AC1006
  9
$EXTMIN
 10
0.000000
 20
0.000000
 30
0.000000
  9
$EXTMAX
 10
319.000000
 20
318.000000
 30
0.000000
  0
ENDSEC
  0
SECTION
  2
ENTITIES
  0
POLYLINE
  8
0
 66
1
 70
1
  0
VERTEX
  8
0
 10
175.050191
 20
250.560476
 42
0.191962
  0
VERTEX
  8
0
 10
174.305326
 20
248.262195
 42
0.036510
  0
VERTEX
  8
0
 10
174.926149
 20
243.820846
 42
0.037247
  0
VERTEX
  8
0
 10
176.393735
 20
238.836167
 42
0.042351
  0
VERTEX
  8
0
 10
178.538195
 20
234.344613
 42
-0.020315
  0
VERTEX
  8
0
 10
179.480484
 20
232.575731
 42
-0.020271
  0
VERTEX
  8
0
 10
180.276845
 20
230.734941
 42
-0.020599
  0
VERTEX
  8
0
 10
180.839175
 20
229.074709
 42
-0.071468
  0
VERTEX
  8
0
 10
181.000000
 20
227.955299
 42
0.044366
  0
VERTEX
  8
0
 10
181.094548
 20
226.891866
 42
0.176478
  0
VERTEX
  8
0
 10
181.418633
 20
226.334542
 42
0.188335
  0
VERTEX
  8
0
 10
182.009656
 20
226.137094
 42
0.051518
  0
VERTEX
  8
0
 10
182.999004
 20
226.289489
 42
-0.050632
  0
VERTEX
  8
0
 10
183.809180
 20
226.415749
 42
-0.057959
  0
VERTEX
  8
0
 10
184.591121
 20
226.366918
 42
-0.066781
  0
VERTEX
  8
0
 10
185.230466
 20
226.161045
 42
-0.144069
  0
VERTEX
  8
0
 10
185.611863
 20
225.819002
 42
0.135585
  0
VERTEX
  8
0
 10
185.983263
 20
225.474602
 42
0.068693
  0
VERTEX
  8
0
 10
186.588945
 20
225.259668
 42
0.060368
  0
VERTEX
  8
0
 10
187.322788
 20
225.198442
 42
0.054661
  0
VERTEX
  8
0
 10
188.076091
 20
225.309647
 42
-0.077826
  0
VERTEX
  8
0
 10
188.870758
 20
225.389732
 42
-0.060674
  0
VERTEX
  8
0
 10
189.726442
 20
225.237468
 42
-0.061310
  0
VERTEX
  8
0
 10
190.511029
 20
224.887312
 42
-0.084157
  0
VERTEX
  8
0
 10
191.095911
 20
224.384434
 42
0.050303
  0
VERTEX
  8
0
 10
191.743497
 20
223.746933
 42
0.147936
  0
VERTEX
  8
0
 10
192.317271
 20
223.515570
 42
0.147108
  0
VERTEX
  8
0
 10
192.925160
 20
223.640425
 42
0.049548
  0
VERTEX
  8
0
 10
193.683293
 20
224.152120
 42
-0.050322
  0
VERTEX
  8
0
 10
194.433748
 20
224.656947
 42
-0.242999
  0
VERTEX
  8
0
 10
194.931785
 20
224.664342
 42
-0.185946
  0
VERTEX
  8
0
 10
195.315568
 20
224.245037
 42
-0.029440
  0
VERTEX
  8
0
 10
195.667246
 20
223.164451
 42
0.071760
  0
VERTEX
  8
0
 10
196.016881
 20
222.335296
 42
0.070751
  0
VERTEX
  8
0
 10
196.587949
 20
221.634274
 42
0.076160
  0
VERTEX
  8
0
 10
197.286873
 20
221.162339
 42
0.110922
  0
VERTEX
  8
0
 10
198.009643
 20
221.000000
 42
-0.077181
  0
VERTEX
  8
0
 10
198.731746
 20
220.887867
 42
-0.064994
  0
VERTEX
  8
0
 10
199.433294
 20
220.559375
 42
-0.066773
  0
VERTEX
  8
0
 10
200.008927
 20
220.073473
 42
-0.092758
  0
VERTEX
  8
0
 10
200.361626
 20
219.500000
 42
0.102799
  0
VERTEX
  8
0
 10
200.730336
 20
218.926388
 42
0.066754
  0
VERTEX
  8
0
 10
201.354531
 20
218.440625
 42
0.063050
  0
VERTEX
  8
0
 10
202.127277
 20
218.112020
 42
0.069146
  0
VERTEX
  8
0
 10
202.933431
 20
218.000000
 42
-0.083951
  0
VERTEX
  8
0
 10
203.773086
 20
217.858019
 42
-0.057632
  0
VERTEX
  8
0
 10
204.644640
 20
217.436844
 42
-0.056570
  0
VERTEX
  8
0
 10
205.414914
 20
216.816103
 42
-0.072142
  0
VERTEX
  8
0
 10
205.955648
 20
216.082872
 42
-0.045674
  0
VERTEX
  8
0
 10
206.414016
 20
214.999071
 42
-0.349815
  0
VERTEX
  8
0
 10
206.230364
 20
214.517292
 42
-0.145953
  0
VERTEX
  8
0
 10
205.489532
 20
214.333070
 42
-0.009360
  0
VERTEX
  8
0
 10
203.240832
 20
214.479114
 42
-0.013783
  0
VERTEX
  8
0
 10
201.672878
 20
214.654095
 42
-0.012283
  0
VERTEX
  8
0
 10
200.055160
 20
214.920589
 42
-0.012425
  0
VERTEX
  8
0
 10
198.612608
 20
215.232105
 42
-0.036819
  0
VERTEX
  8
0
 10
197.649075
 20
215.541959
 42
0.059912
  0
VERTEX
  8
0
 10
196.818110
 20
215.767522
 42
0.090164
  0
VERTEX
  8
0
 10
196.069737
 20
215.741721
 42
0.102369
  0
VERTEX
  8
0
 10
195.446242
 20
215.464532
 42
0.099038
  0
VERTEX
  8
0
 10
194.975291
 20
214.960019
 42
-0.061774
  0
VERTEX
  8
0
 10
194.472997
 20
214.335007
 42
-0.201922
  0
VERTEX
  8
0
 10
193.989041
 20
214.146209
 42
-0.141415
  0
VERTEX
  8
0
 10
193.396523
 20
214.334374
 42
-0.026071
  0
VERTEX
  8
0
 10
192.468003
 20
215.026555
 42
0.032604
  0
VERTEX
  8
0
 10
191.496232
 20
215.731430
 42
0.168822
  0
VERTEX
  8
0
 10
190.859400
 20
215.879105
 42
0.174579
  0
VERTEX
  8
0
 10
190.280710
 20
215.597921
 42
0.035377
  0
VERTEX
  8
0
 10
189.531545
 20
214.712253
 42
-0.073014
  0
VERTEX
  8
0
 10
188.886846
 20
214.056819
 42
-0.048350
  0
VERTEX
  8
0
 10
187.986053
 20
213.502974
 42
-0.047864
  0
VERTEX
  8
0
 10
186.982255
 20
213.126309
 42
-0.065927
  0
VERTEX
  8
0
 10
186.028467
 20
213.000000
 42
0.053875
  0
VERTEX
  8
0
 10
184.782439
 20
212.865350
 42
0.245531
  0
VERTEX
  8
0
 10
184.241138
 20
212.412345
 42
0.132195
  0
VERTEX
  8
0
 10
184.120830
 20
211.488999
 42
0.013037
  0
VERTEX
  8
0
 10
184.479494
 20
209.257616
 42
0.007421
  0
VERTEX
  8
0
 10
184.781219
 20
207.771359
 42
0.009256
  0
VERTEX
  8
0
 10
185.107367
 20
206.400925
 42
0.007769
  0
VERTEX
  8
0
 10
185.418914
 20
205.265027
 42
0.067689
  0
VERTEX
  8
0
 10
185.631040
 20
204.787972
 42
0.160769
  0
VERTEX
  8
0
 10
186.065048
 20
204.423590
 42
0.006087
  0
VERTEX
  8
0
 10
188.066342
 20
203.653279
 42
0.010414
  0
VERTEX
  8
0
 10
190.495106
 20
202.809333
 42
0.007087
  0
VERTEX
  8
0
 10
193.290256
 20
201.946445
 42
-0.040500
  0
VERTEX
  8
0
 10
202.866522
 20
198.273853
 42
-0.012616
  0
VERTEX
  8
0
 10
216.589396
 20
191.261656
 42
-0.005328
  0
VERTEX
  8
0
 10
230.491825
 20
183.516487
 42
-0.269198
  0
VERTEX
  8
0
 10
232.000000
 20
180.918245
 42
-0.288691
  0
VERTEX
  8
0
 10
231.205058
 20
179.656188
 42
-0.024078
  0
VERTEX
  8
0
 10
227.477764
 20
178.087118
 42
-0.024476
  0
VERTEX
  8
0
 10
222.268492
 20
176.467933
 42
-0.012440
  0
VERTEX
  8
0
 10
215.582918
 20
174.919902
 42
-0.009800
  0
VERTEX
  8
0
 10
206.929521
 20
173.317878
 42
-0.273767
  0
VERTEX
  8
0
 10
204.874031
 20
174.117442
 42
-0.372790
  0
VERTEX
  8
0
 10
204.965223
 20
176.004554
 42
-0.013664
  0
VERTEX
  8
0
 10
210.456047
 20
181.452958
 42
0.007787
  0
VERTEX
  8
0
 10
213.855270
 20
184.747555
 42
0.035121
  0
VERTEX
  8
0
 10
215.667713
 20
186.833989
 42
0.071178
  0
VERTEX
  8
0
 10
216.443836
 20
188.244898
 42
0.294657
  0
VERTEX
  8
0
 10
216.248395
 20
189.151605
 42
0.361827
  0
VERTEX
  8
0
 10
214.433217
 20
189.317342
 42
0.021144
  0
VERTEX
  8
0
 10
209.662061
 20
185.723504
 42
0.028687
  0
VERTEX
  8
0
 10
204.811302
 20
181.247717
 42
0.045937
  0
VERTEX
  8
0
 10
201.286659
 20
176.856985
 42
0.124261
  0
VERTEX
  8
0
 10
199.886476
 20
172.865096
 42
0.340015
  0
VERTEX
  8
0
 10
201.389603
 20
170.496141
 42
0.117137
  0
VERTEX
  8
0
 10
206.398551
 20
169.909067
 42
0.018951
  0
VERTEX
  8
0
 10
216.162032
 20
171.429009
 42
0.013785
  0
VERTEX
  8
0
 10
222.359601
 20
172.814267
 42
0.021467
  0
VERTEX
  8
0
 10
227.602615
 20
174.381119
 42
0.024546
  0
VERTEX
  8
0
 10
231.705759
 20
176.031429
 42
0.076166
  0
VERTEX
  8
0
 10
234.188472
 20
177.670565
 42
-0.063603
  0
VERTEX
  8
0
 10
235.346645
 20
178.477501
 42
-0.172716
  0
VERTEX
  8
0
 10
236.322944
 20
178.614522
 42
-0.090579
  0
VERTEX
  8
0
 10
237.555623
 20
178.117471
 42
-0.010516
  0
VERTEX
  8
0
 10
240.047903
 20
176.466803
 42
-0.015440
  0
VERTEX
  8
0
 10
241.890759
 20
175.103606
 42
-0.008306
  0
VERTEX
  8
0
 10
244.080956
 20
173.316563
 42
-0.008264
  0
VERTEX
  8
0
 10
246.255240
 20
171.419097
 42
-0.012839
  0
VERTEX
  8
0
 10
248.059785
 20
169.704921
 42
-0.063030
  0
VERTEX
  8
0
 10
250.977119
 20
165.942128
 42
-0.119561
  0
VERTEX
  8
0
 10
252.087676
 20
162.295472
 42
-0.115402
  0
VERTEX
  8
0
 10
251.420098
 20
158.456240
 42
-0.056300
  0
VERTEX
  8
0
 10
248.959825
 20
154.103237
 42
-0.028870
  0
VERTEX
  8
0
 10
245.916623
 20
150.375458
 42
-0.217380
  0
VERTEX
  8
0
 10
243.872314
 20
149.510327
 42
-0.185456
  0
VERTEX
  8
0
 10
241.678231
 20
150.423801
 42
-0.020394
  0
VERTEX
  8
0
 10
237.819996
 20
154.412600
 42
0.036966
  0
VERTEX
  8
0
 10
233.377370
 20
158.711166
 42
0.042579
  0
VERTEX
  8
0
 10
228.544778
 20
162.088146
 42
0.047117
  0
VERTEX
  8
0
 10
223.774454
 20
164.279646
 42
0.084319
  0
VERTEX
  8
0
 10
219.533244
 20
165.000000
 42
0.016787
  0
VERTEX
  8
0
 10
218.178815
 20
164.954513
 42
0.027373
  0
VERTEX
  8
0
 10
217.037890
 20
164.814770
 42
0.026169
  0
VERTEX
  8
0
 10
216.185533
 20
164.616155
 42
0.334038
  0
VERTEX
  8
0
 10
216.000000
 20
164.369430
 42
0.138678
  0
VERTEX
  8
0
 10
216.117464
 20
163.954061
 42
0.004310
  0
VERTEX
  8
0
 10
217.067047
 20
162.438838
 42
0.008131
  0
VERTEX
  8
0
 10
218.240601
 20
160.665842
 42
0.005507
  0
VERTEX
  8
0
 10
219.632501
 20
158.682684
 42
-0.019922
  0
VERTEX
  8
0
 10
222.634911
 20
154.131355
 42
-0.026655
  0
VERTEX
  8
0
 10
224.962564
 20
149.767574
 42
-0.029953
  0
VERTEX
  8
0
 10
226.492749
 20
145.900893
 42
-0.077238
  0
VERTEX
  8
0
 10
226.978038
 20
142.945781
 42
-0.076700
  0
VERTEX
  8
0
 10
226.789354
 20
141.649135
 42
-0.022621
  0
VERTEX
  8
0
 10
226.112299
 20
139.752276
 42
-0.022133
  0
VERTEX
  8
0
 10
225.146647
 20
137.659618
 42
-0.022149
  0
VERTEX
  8
0
 10
224.000000
 20
135.661052
 42
0.008547
  0
VERTEX
  8
0
 10
222.850928
 20
133.778772
 42
0.011552
  0
VERTEX
  8
0
 10
221.881250
 20
132.036582
 42
0.008679
  0
VERTEX
  8
0
 10
221.136280
 20
130.560612
 42
0.112995
  0
VERTEX
  8
0
 10
221.000000
 20
129.965272
 42
0.383001
  0
VERTEX
  8
0
 10
221.708964
 20
129.175500
 42
0.038197
  0
VERTEX
  8
0
 10
224.470342
 20
129.088838
 42
0.037580
  0
VERTEX
  8
0
 10
227.900715
 20
129.502842
 42
0.036903
  0
VERTEX
  8
0
 10
231.252031
 20
130.426753
 42
0.028747
  0
VERTEX
  8
0
 10
232.948891
 20
131.144686
 42
0.015313
  0
VERTEX
  8
0
 10
234.962763
 20
132.214621
 42
0.015196
  0
VERTEX
  8
0
 10
236.959512
 20
133.437114
 42
0.022817
  0
VERTEX
  8
0
 10
238.615501
 20
134.632860
 42
-0.009139
  0
VERTEX
  8
0
 10
241.990996
 20
137.213533
 42
-0.037784
  0
VERTEX
  8
0
 10
244.167149
 20
138.574620
 42
-0.027798
  0
VERTEX
  8
0
 10
246.804501
 20
139.777186
 42
-0.003382
  0
VERTEX
  8
0
 10
252.748171
 20
142.051559
 42
0.056624
  0
VERTEX
  8
0
 10
261.834794
 20
146.688172
 42
0.057810
  0
VERTEX
  8
0
 10
269.579909
 20
153.217718
 42
0.063058
  0
VERTEX
  8
0
 10
275.011981
 20
160.685060
 42
0.105738
  0
VERTEX
  8
0
 10
277.238647
 20
168.085541
 42
0.053764
  0
VERTEX
  8
0
 10
277.163814
 20
170.979459
 42
0.471868
  0
VERTEX
  8
0
 10
276.214055
 20
171.569286
 42
0.204606
  0
VERTEX
  8
0
 10
274.851274
 20
170.350492
 42
0.029432
  0
VERTEX
  8
0
 10
273.439166
 20
166.800908
 42
-0.032747
  0
VERTEX
  8
0
 10
271.275730
 20
161.465897
 42
-0.048474
  0
VERTEX
  8
0
 10
268.649570
 20
157.159328
 42
-0.049237
  0
VERTEX
  8
0
 10
265.277037
 20
153.486974
 42
-0.035206
  0
VERTEX
  8
0
 10
260.864317
 20
150.068230
 42
-0.020828
  0
VERTEX
  8
0
 10
256.444849
 20
147.376121
 42
-0.027683
  0
VERTEX
  8
0
 10
252.209004
 20
145.329371
 42
-0.024754
  0
VERTEX
  8
0
 10
248.660991
 20
144.053248
 42
-0.277072
  0
VERTEX
  8
0
 10
247.264552
 20
144.402115
 42
-0.386830
  0
VERTEX
  8
0
 10
247.243900
 20
144.839380
 42
-0.010128
  0
VERTEX
  8
0
 10
248.626276
 20
146.443570
 42
-0.016215
  0
VERTEX
  8
0
 10
250.456131
 20
148.353664
 42
-0.009720
  0
VERTEX
  8
0
 10
252.744791
 20
150.507167
 42
0.035850
  0
VERTEX
  8
0
 10
257.339460
 20
155.306792
 42
0.042367
  0
VERTEX
  8
0
 10
260.924155
 20
160.466072
 42
0.047134
  0
VERTEX
  8
0
 10
263.238663
 20
165.534819
 42
0.083732
  0
VERTEX
  8
0
 10
264.000000
 20
170.049204
 42
0.000000
  0
VERTEX
  8
0
 10
264.000000
 20
173.705720
 42
0.000000
  0
VERTEX
  8
0
 10
276.034061
 20
174.260168
 42
0.013754
  0
VERTEX
  8
0
 10
284.089669
 20
174.853702
 42
0.049451
  0
VERTEX
  8
0
 10
289.134948
 20
175.875768
 42
0.094174
  0
VERTEX
  8
0
 10
291.991205
 20
177.386404
 42
0.227958
  0
VERTEX
  8
0
 10
293.000000
 20
179.484098
 42
0.175868
  0
VERTEX
  8
0
 10
292.322379
 20
181.351018
 42
0.058324
  0
VERTEX
  8
0
 10
290.173873
 20
183.384618
 42
0.045858
  0
VERTEX
  8
0
 10
286.891157
 20
185.396183
 42
0.027124
  0
VERTEX
  8
0
 10
282.663045
 20
187.203132
 42
-0.018285
  0
VERTEX
  8
0
 10
279.067150
 20
188.665313
 42
-0.083082
  0
VERTEX
  8
0
 10
277.193170
 20
189.916130
 42
-0.079048
  0
VERTEX
  8
0
 10
275.783306
 20
191.737644
 42
-0.015650
  0
VERTEX
  8
0
 10
273.910254
 20
195.428430
 42
0.006070
  0
VERTEX
  8
0
 10
272.661818
 20
198.009801
 42
0.004934
  0
VERTEX
  8
0
 10
271.263421
 20
200.745933
 42
0.004988
  0
VERTEX
  8
0
 10
269.924841
 20
203.241549
 42
0.012928
  0
VERTEX
  8
0
 10
268.896251
 20
205.004534
 42
0.000000
  0
VERTEX
  8
0
 10
266.728235
 20
208.509068
 42
0.000000
  0
VERTEX
  8
0
 10
272.244678
 20
217.060250
 42
0.009584
  0
VERTEX
  8
0
 10
279.247359
 20
228.386063
 42
0.072357
  0
VERTEX
  8
0
 10
281.633883
 20
234.189722
 42
0.250932
  0
VERTEX
  8
0
 10
280.864251
 20
237.254398
 42
0.189929
  0
VERTEX
  8
0
 10
277.698945
 20
238.813409
 42
0.083553
  0
VERTEX
  8
0
 10
272.226528
 20
238.350156
 42
0.028228
  0
VERTEX
  8
0
 10
264.576753
 20
235.919862
 42
0.028376
  0
VERTEX
  8
0
 10
256.712456
 20
232.400433
 42
0.041565
  0
VERTEX
  8
0
 10
250.294859
 20
228.371466
 42
0.000000
  0
VERTEX
  8
0
 10
247.089717
 20
225.966648
 42
0.000000
  0
VERTEX
  8
0
 10
240.794859
 20
229.816791
 42
0.025414
  0
VERTEX
  8
0
 10
230.063597
 20
235.653042
 42
0.020782
  0
VERTEX
  8
0
 10
218.058631
 20
240.810059
 42
0.020050
  0
VERTEX
  8
0
 10
205.186941
 20
245.134019
 42
0.019333
  0
VERTEX
  8
0
 10
191.853705
 20
248.472275
 42
-0.001107
  0
VERTEX
  8
0
 10
187.004260
 20
249.500232
 42
-0.001529
  0
VERTEX
  8
0
 10
182.656311
 20
250.445873
 42
-0.000957
  0
VERTEX
  8
0
 10
179.003203
 20
251.259437
 42
-0.018852
  0
VERTEX
  8
0
 10
177.891183
 20
251.553760
 42
0.093980
  0
VERTEX
  8
0
 10
177.184234
 20
251.631146
 42
0.064580
  0
VERTEX
  8
0
 10
176.393004
 20
251.464684
 42
0.062368
  0
VERTEX
  8
0
 10
175.641367
 20
251.091429
 42
0.073277
  0
SEQEND
  0
POLYLINE
  8
0
 66
1
 70
1
  0
VERTEX
  8
0
 10
190.192550
 20
245.380998
 42
-0.176034
  0
VERTEX
  8
0
 10
190.506182
 20
244.984086
 42
-0.029136
  0
VERTEX
  8
0
 10
190.762812
 20
244.026987
 42
-0.028941
  0
VERTEX
  8
0
 10
190.940919
 20
242.814488
 42
-0.022000
  0
VERTEX
  8
0
 10
191.000000
 20
241.472368
 42
-0.017021
  0
VERTEX
  8
0
 10
190.938000
 20
239.651657
 42
-0.124732
  0
VERTEX
  8
0
 10
190.669028
 20
238.829730
 42
-0.259751
  0
VERTEX
  8
0
 10
190.143814
 20
238.544111
 42
-0.086030
  0
VERTEX
  8
0
 10
189.250000
 20
238.708443
 42
-0.035064
  0
VERTEX
  8
0
 10
188.526952
 20
239.034430
 42
-0.028405
  0
VERTEX
  8
0
 10
187.801558
 20
239.479627
 42
-0.029260
  0
VERTEX
  8
0
 10
187.177774
 20
239.969525
 42
-0.063413
  0
VERTEX
  8
0
 10
186.776581
 20
240.427058
 42
0.141786
  0
VERTEX
  8
0
 10
186.281010
 20
240.840990
 42
0.038047
  0
VERTEX
  8
0
 10
185.303171
 20
241.184823
 42
0.035366
  0
VERTEX
  8
0
 10
184.083926
 20
241.421032
 42
0.030174
  0
VERTEX
  8
0
 10
182.776581
 20
241.500000
 42
-0.028394
  0
VERTEX
  8
0
 10
180.946047
 20
241.604035
 42
-0.141411
  0
VERTEX
  8
0
 10
180.005455
 20
241.995630
 42
-0.158420
  0
VERTEX
  8
0
 10
179.475875
 20
242.801990
 42
-0.038320
  0
VERTEX
  8
0
 10
179.170124
 20
244.389427
 42
0.000000
  0
VERTEX
  8
0
 10
178.840247
 20
247.278853
 42
0.000000
  0
VERTEX
  8
0
 10
184.112674
 20
246.579441
 42
-0.006750
  0
VERTEX
  8
0
 10
186.190932
 20
246.275150
 42
-0.008935
  0
VERTEX
  8
0
 10
188.073513
 20
245.938891
 42
-0.006749
  0
VERTEX
  8
0
 10
189.632336
 20
245.609703
 42
-0.083180
  0
SEQEND
  0
POLYLINE
  8
0
 66
1
 70
1
  0
VERTEX
  8
0
 10
211.457029
 20
239.546227
 42
-0.028892
  0
VERTEX
  8
0
 10
225.227205
 20
234.020083
 42
-0.025716
  0
VERTEX
  8
0
 10
238.832706
 20
226.748618
 42
-0.026717
  0
VERTEX
  8
0
 10
250.890702
 20
218.575746
 42
-0.045018
  0
VERTEX
  8
0
 10
259.916258
 20
210.350084
 42
-0.027571
  0
VERTEX
  8
0
 10
264.044527
 20
205.313688
 42
-0.022426
  0
VERTEX
  8
0
 10
267.907422
 20
199.502439
 42
-0.014255
  0
VERTEX
  8
0
 10
270.977339
 20
194.056488
 42
-0.328671
  0
VERTEX
  8
0
 10
270.725251
 20
192.391918
 42
-0.244640
  0
VERTEX
  8
0
 10
269.190678
 20
191.907883
 42
-0.002485
  0
VERTEX
  8
0
 10
257.644955
 20
194.000283
 42
-0.003505
  0
VERTEX
  8
0
 10
246.384090
 20
196.180690
 42
-0.147846
  0
VERTEX
  8
0
 10
244.244418
 20
197.327011
 42
-0.101426
  0
VERTEX
  8
0
 10
243.671870
 20
198.194761
 42
-0.106023
  0
VERTEX
  8
0
 10
243.498841
 20
199.203837
 42
-0.060697
  0
VERTEX
  8
0
 10
243.731028
 20
200.618472
 42
-0.013815
  0
VERTEX
  8
0
 10
244.476903
 20
202.934537
 42
0.019297
  0
VERTEX
  8
0
 10
245.595044
 20
206.541575
 42
0.063677
  0
VERTEX
  8
0
 10
245.928993
 20
209.003475
 42
0.137569
  0
VERTEX
  8
0
 10
245.540087
 20
210.432129
 42
0.263773
  0
VERTEX
  8
0
 10
244.538544
 20
211.000000
 42
0.189511
  0
VERTEX
  8
0
 10
243.890242
 20
210.745126
 42
0.058487
  0
VERTEX
  8
0
 10
243.197732
 20
209.930906
 42
0.047592
  0
VERTEX
  8
0
 10
242.551216
 20
208.727065
 42
0.031916
  0
VERTEX
  8
0
 10
242.038807
 20
207.250000
 42
-0.011832
  0
VERTEX
  8
0
 10
241.571816
 20
205.706356
 42
-0.011445
  0
VERTEX
  8
0
 10
241.027496
 20
204.169170
 42
-0.011430
  0
VERTEX
  8
0
 10
240.486836
 20
202.839042
 42
-0.040647
  0
VERTEX
  8
0
 10
240.054058
 20
202.028025
 42
-0.292952
  0
VERTEX
  8
0
 10
239.128452
 20
201.604188
 42
-0.311437
  0
VERTEX
  8
0
 10
238.400893
 20
202.274387
 42
-0.086777
  0
VERTEX
  8
0
 10
238.289151
 20
204.531843
 42
-0.052991
  0
VERTEX
  8
0
 10
238.897813
 20
207.136710
 42
0.019568
  0
VERTEX
  8
0
 10
239.319901
 20
208.519319
 42
0.014957
  0
VERTEX
  8
0
 10
239.676233
 20
210.060227
 42
0.015194
  0
VERTEX
  8
0
 10
239.923133
 20
211.525303
 42
0.034156
  0
VERTEX
  8
0
 10
240.000000
 20
212.649223
 42
0.119937
  0
VERTEX
  8
0
 10
239.577220
 20
214.386375
 42
0.310792
  0
VERTEX
  8
0
 10
238.497066
 20
214.963451
 42
0.226528
  0
VERTEX
  8
0
 10
237.241785
 20
214.180785
 42
0.089489
  0
VERTEX
  8
0
 10
236.449844
 20
212.250000
 42
-0.020468
  0
VERTEX
  8
0
 10
235.695685
 20
209.316876
 42
-0.037298
  0
VERTEX
  8
0
 10
234.808417
 20
207.009873
 42
-0.045667
  0
VERTEX
  8
0
 10
233.882981
 20
205.441182
 42
-0.241152
  0
VERTEX
  8
0
 10
233.021439
 20
205.000000
 42
-0.279700
  0
VERTEX
  8
0
 10
232.309069
 20
205.432321
 42
-0.140000
  0
VERTEX
  8
0
 10
232.090144
 20
206.503059
 42
-0.053450
  0
VERTEX
  8
0
 10
232.458814
 20
208.491670
 42
-0.011255
  0
VERTEX
  8
0
 10
233.547269
 20
211.859243
 42
0.040869
  0
VERTEX
  8
0
 10
234.358497
 20
214.991352
 42
0.067795
  0
VERTEX
  8
0
 10
234.457537
 20
217.713999
 42
0.122420
  0
VERTEX
  8
0
 10
233.864983
 20
219.375116
 42
0.338694
  0
VERTEX
  8
0
 10
232.762919
 20
219.754306
 42
0.186894
  0
VERTEX
  8
0
 10
232.280076
 20
219.354762
 42
0.022854
  0
VERTEX
  8
0
 10
231.654055
 20
218.104745
 42
0.024552
  0
VERTEX
  8
0
 10
231.027710
 20
216.487489
 42
0.017940
  0
VERTEX
  8
0
 10
230.486912
 20
214.638394
 42
-0.014997
  0
VERTEX
  8
0
 10
229.942075
 20
212.733964
 42
-0.017086
  0
VERTEX
  8
0
 10
229.304622
 20
210.947870
 42
-0.016444
  0
VERTEX
  8
0
 10
228.666052
 20
209.478083
 42
-0.085873
  0
VERTEX
  8
0
 10
228.159340
 20
208.759340
 42
-0.254862
  0
VERTEX
  8
0
 10
226.476507
 20
208.263935
 42
-0.093031
  0
VERTEX
  8
0
 10
224.110121
 20
209.259763
 42
-0.062801
  0
VERTEX
  8
0
 10
221.399569
 20
211.586226
 42
-0.036281
  0
VERTEX
  8
0
 10
218.748881
 20
214.976769
 42
0.029421
  0
VERTEX
  8
0
 10
214.670724
 20
220.343200
 42
0.025135
  0
VERTEX
  8
0
 10
209.781825
 20
225.498151
 42
0.024412
  0
VERTEX
  8
0
 10
204.240648
 20
230.288051
 42
0.023750
  0
VERTEX
  8
0
 10
198.209365
 20
234.562054
 42
-0.409975
  0
VERTEX
  8
0
 10
198.055650
 20
235.237904
 42
-0.008476
  0
VERTEX
  8
0
 10
200.110813
 20
238.433912
 42
-0.009667
  0
VERTEX
  8
0
 10
202.271505
 20
241.540241
 42
-0.240405
  0
VERTEX
  8
0
 10
203.172459
 20
242.000000
 42
-0.068904
  0
VERTEX
  8
0
 10
203.831979
 20
241.908680
 42
-0.003194
  0
VERTEX
  8
0
 10
206.008201
 20
241.279204
 42
-0.005244
  0
VERTEX
  8
0
 10
208.585830
 20
240.486250
 42
-0.003735
  0
SEQEND
  0
POLYLINE
  8
0
 66
1
 70
1
  0
VERTEX
  8
0
 10
191.721447
 20
233.451519
 42
-0.006304
  0
VERTEX
  8
0
 10
197.268937
 20
230.599225
 42
-0.320971
  0
VERTEX
  8
0
 10
197.783141
 20
229.566855
 42
-0.455391
  0
VERTEX
  8
0
 10
196.998108
 20
229.077861
 42
-0.007071
  0
VERTEX
  8
0
 10
191.313678
 20
230.909487
 42
-0.012134
  0
VERTEX
  8
0
 10
188.347008
 20
231.992817
 42
-0.017409
  0
VERTEX
  8
0
 10
185.779687
 20
233.106224
 42
-0.013317
  0
VERTEX
  8
0
 10
183.748045
 20
234.139892
 42
-0.192006
  0
VERTEX
  8
0
 10
183.240262
 20
234.750000
 42
-0.381555
  0
VERTEX
  8
0
 10
183.647546
 20
235.676198
 42
-0.145877
  0
VERTEX
  8
0
 10
185.163390
 20
235.886397
 42
-0.056510
  0
VERTEX
  8
0
 10
187.979085
 20
235.122808
 42
-0.021149
  0
SEQEND
  0
POLYLINE
  8
0
 66
1
 70
1
  0
VERTEX
  8
0
 10
277.351162
 20
233.582678
 42
-0.105454
  0
VERTEX
  8
0
 10
276.736847
 20
231.577997
 42
-0.004275
  0
VERTEX
  8
0
 10
272.975324
 20
224.947549
 42
-0.008176
  0
VERTEX
  8
0
 10
269.082939
 20
218.467844
 42
-0.022571
  0
VERTEX
  8
0
 10
266.066557
 20
214.081648
 42
0.000000
  0
VERTEX
  8
0
 10
264.237422
 20
211.663297
 42
0.000000
  0
VERTEX
  8
0
 10
257.713958
 20
217.498072
 42
-0.013166
  0
VERTEX
  8
0
 10
255.248292
 20
219.823148
 42
-0.020033
  0
VERTEX
  8
0
 10
253.245424
 20
221.980228
 42
-0.015418
  0
VERTEX
  8
0
 10
251.767717
 20
223.817136
 42
-0.258813
  0
VERTEX
  8
0
 10
251.662534
 20
224.562962
 42
-0.188394
  0
VERTEX
  8
0
 10
253.877271
 20
226.994206
 42
-0.010466
  0
VERTEX
  8
0
 10
263.338388
 20
231.432270
 42
-0.011099
  0
VERTEX
  8
0
 10
272.941627
 20
235.441405
 42
-0.167941
  0
VERTEX
  8
0
 10
276.500000
 20
235.585627
 42
-0.143810
  0
VERTEX
  8
0
 10
276.871207
 20
235.343521
 42
-0.076492
  0
VERTEX
  8
0
 10
277.162529
 20
234.873146
 42
-0.065760
  0
VERTEX
  8
0
 10
277.333671
 20
234.255969
 42
-0.056659
  0
SEQEND
  0
POLYLINE
  8
0
 66
1
 70
1
  0
VERTEX
  8
0
 10
221.588365
 20
206.750000
 42
0.013656
  0
VERTEX
  8
0
 10
223.456777
 20
204.930754
 42
0.018378
  0
VERTEX
  8
0
 10
225.250382
 20
203.395312
 42
0.015630
  0
VERTEX
  8
0
 10
226.800354
 20
202.241301
 42
0.153370
  0
VERTEX
  8
0
 10
227.568512
 20
202.000000
 42
-0.118516
  0
VERTEX
  8
0
 10
228.167419
 20
201.856017
 42
-0.054171
  0
VERTEX
  8
0
 10
228.844224
 20
201.412500
 42
-0.049356
  0
VERTEX
  8
0
 10
229.489639
 20
200.765055
 42
-0.048488
  0
VERTEX
  8
0
 10
230.000000
 20
200.000000
 42
0.078068
  0
VERTEX
  8
0
 10
230.602331
 20
199.203078
 42
0.063312
  0
VERTEX
  8
0
 10
231.461803
 20
198.561420
 42
0.061821
  0
VERTEX
  8
0
 10
232.476687
 20
198.142628
 42
0.067070
  0
VERTEX
  8
0
 10
233.535184
 20
198.000000
 42
-0.046578
  0
VERTEX
  8
0
 10
234.657916
 20
197.895183
 42
-0.113824
  0
VERTEX
  8
0
 10
235.413889
 20
197.564050
 42
-0.142433
  0
VERTEX
  8
0
 10
235.847628
 20
196.991489
 42
-0.091592
  0
VERTEX
  8
0
 10
236.000000
 20
196.166667
 42
0.053916
  0
VERTEX
  8
0
 10
236.170338
 20
194.591594
 42
0.176996
  0
VERTEX
  8
0
 10
236.722454
 20
193.722233
 42
0.211467
  0
VERTEX
  8
0
 10
237.628195
 20
193.502673
 42
0.078266
  0
VERTEX
  8
0
 10
238.895697
 20
193.944179
 42
-0.166289
  0
VERTEX
  8
0
 10
240.483558
 20
194.203417
 42
-0.126543
  0
VERTEX
  8
0
 10
242.104502
 20
193.480570
 42
-0.053743
  0
VERTEX
  8
0
 10
244.200408
 20
191.412952
 42
-0.008744
  0
VERTEX
  8
0
 10
247.741901
 20
186.918127
 42
0.011457
  0
VERTEX
  8
0
 10
249.666498
 20
184.502522
 42
0.007925
  0
VERTEX
  8
0
 10
251.948400
 20
181.855787
 42
0.007996
  0
VERTEX
  8
0
 10
254.223516
 20
179.380822
 42
0.016219
  0
VERTEX
  8
0
 10
256.105186
 20
177.523006
 42
-0.015625
  0
VERTEX
  8
0
 10
258.585816
 20
175.079635
 42
-0.091670
  0
VERTEX
  8
0
 10
259.582059
 20
173.555349
 42
-0.101852
  0
VERTEX
  8
0
 10
259.915913
 20
171.847561
 42
-0.021464
  0
VERTEX
  8
0
 10
259.754422
 20
168.796016
 42
-0.022117
  0
VERTEX
  8
0
 10
259.160062
 20
164.578978
 42
-0.163538
  0
VERTEX
  8
0
 10
258.185433
 20
162.830230
 42
-0.432602
  0
VERTEX
  8
0
 10
257.020350
 20
162.921814
 42
-0.069340
  0
VERTEX
  8
0
 10
255.711670
 20
165.118404
 42
0.097215
  0
VERTEX
  8
0
 10
252.206224
 20
170.323737
 42
0.025815
  0
VERTEX
  8
0
 10
244.728152
 20
177.052227
 42
0.023289
  0
VERTEX
  8
0
 10
234.662421
 20
184.460854
 42
0.015505
  0
VERTEX
  8
0
 10
222.500000
 20
192.033999
 42
0.008401
  0
VERTEX
  8
0
 10
214.484078
 20
196.508433
 42
0.007933
  0
VERTEX
  8
0
 10
206.168840
 20
200.799946
 42
0.004075
  0
VERTEX
  8
0
 10
198.534550
 20
204.510645
 42
0.111529
  0
VERTEX
  8
0
 10
196.367997
 20
205.000000
 42
-0.050063
  0
VERTEX
  8
0
 10
195.717891
 20
205.065256
 42
-0.013546
  0
VERTEX
  8
0
 10
194.708377
 20
205.298618
 42
-0.013571
  0
VERTEX
  8
0
 10
193.570879
 20
205.627438
 42
-0.013696
  0
VERTEX
  8
0
 10
192.456409
 20
206.016573
 42
-0.019993
  0
VERTEX
  8
0
 10
190.992956
 20
206.641015
 42
-0.166012
  0
VERTEX
  8
0
 10
190.483361
 20
207.137438
 42
-0.248643
  0
VERTEX
  8
0
 10
190.493936
 20
207.727047
 42
-0.046882
  0
VERTEX
  8
0
 10
191.122000
 20
208.647001
 42
-0.185288
  0
VERTEX
  8
0
 10
192.752399
 20
209.562518
 42
-0.035041
  0
VERTEX
  8
0
 10
196.216686
 20
209.823450
 42
-0.024240
  0
VERTEX
  8
0
 10
201.460375
 20
209.596030
 42
-0.007061
  0
VERTEX
  8
0
 10
209.499516
 20
208.741212
 42
0.225547
  0
VERTEX
  8
0
 10
211.053192
 20
209.262325
 42
0.188309
  0
VERTEX
  8
0
 10
211.787810
 20
210.858842
 42
0.092968
  0
VERTEX
  8
0
 10
211.438890
 20
213.604360
 42
0.036028
  0
VERTEX
  8
0
 10
209.997530
 20
217.173227
 42
0.000000
  0
VERTEX
  8
0
 10
207.876079
 20
221.500000
 42
0.000000
  0
VERTEX
  8
0
 10
212.422709
 20
216.500000
 42
0.002596
  0
VERTEX
  8
0
 10
214.497929
 20
214.241521
 42
0.001547
  0
VERTEX
  8
0
 10
216.990605
 20
211.573438
 42
0.001548
  0
VERTEX
  8
0
 10
219.491093
 20
208.929981
 42
0.002678
  0
SEQEND
  0
POLYLINE
  8
0
 66
1
 70
1
  0
VERTEX
  8
0
 10
269.955573
 20
187.511262
 42
-0.012936
  0
VERTEX
  8
0
 10
277.180471
 20
185.479562
 42
-0.023632
  0
VERTEX
  8
0
 10
282.937082
 20
183.396130
 42
-0.021948
  0
VERTEX
  8
0
 10
287.134911
 20
181.428086
 42
-0.279050
  0
VERTEX
  8
0
 10
288.000000
 20
179.998728
 42
-0.331265
  0
VERTEX
  8
0
 10
287.197500
 20
178.920381
 42
-0.044901
  0
VERTEX
  8
0
 10
284.262152
 20
178.320758
 42
-0.027902
  0
VERTEX
  8
0
 10
279.407218
 20
178.048725
 42
-0.007375
  0
VERTEX
  8
0
 10
271.633895
 20
178.161952
 42
0.000000
  0
VERTEX
  8
0
 10
260.105545
 20
178.500000
 42
0.000000
  0
VERTEX
  8
0
 10
256.467453
 20
182.000000
 42
-0.027275
  0
VERTEX
  8
0
 10
253.901667
 20
184.753052
 42
-0.031917
  0
VERTEX
  8
0
 10
251.792764
 20
187.634221
 42
-0.029518
  0
VERTEX
  8
0
 10
250.387651
 20
190.151984
 42
-0.319061
  0
VERTEX
  8
0
 10
250.571531
 20
191.238198
 42
-0.240360
  0
VERTEX
  8
0
 10
251.561224
 20
191.559187
 42
-0.007952
  0
VERTEX
  8
0
 10
255.766413
 20
190.819807
 42
-0.010914
  0
VERTEX
  8
0
 10
261.556979
 20
189.574828
 42
-0.003663
  0
SEQEND
  0
POLYLINE
  8
0
 66
1
 70
1
  0
VERTEX
  8
0
 10
231.998117
 20
155.311784
 42
-0.015311
  0
VERTEX
  8
0
 10
234.175958
 20
153.229678
 42
-0.012056
  0
VERTEX
  8
0
 10
236.408013
 20
150.848759
 42
-0.012234
  0
VERTEX
  8
0
 10
238.375795
 20
148.534033
 42
-0.029257
  0
VERTEX
  8
0
 10
239.688144
 20
146.701960
 42
0.000000
  0
VERTEX
  8
0
 10
242.163747
 20
142.780352
 42
0.000000
  0
VERTEX
  8
0
 10
239.438983
 20
139.936312
 42
-0.046410
  0
VERTEX
  8
0
 10
236.932095
 20
137.763807
 42
-0.029192
  0
VERTEX
  8
0
 10
233.651544
 20
135.693600
 42
-0.021957
  0
VERTEX
  8
0
 10
230.496836
 20
134.127977
 42
-0.309928
  0
VERTEX
  8
0
 10
229.319123
 20
134.347543
 42
-0.221392
  0
VERTEX
  8
0
 10
229.177183
 20
134.736822
 42
-0.019692
  0
VERTEX
  8
0
 10
229.311205
 20
135.799174
 42
-0.022769
  0
VERTEX
  8
0
 10
229.590691
 20
137.107861
 42
-0.015712
  0
VERTEX
  8
0
 10
230.020206
 20
138.561224
 42
0.075491
  0
VERTEX
  8
0
 10
230.598835
 20
141.971360
 42
0.059456
  0
VERTEX
  8
0
 10
230.219213
 20
145.702708
 42
0.048770
  0
VERTEX
  8
0
 10
228.843217
 20
149.888182
 42
0.027189
  0
VERTEX
  8
0
 10
226.413421
 20
154.678070
 42
-0.005514
  0
VERTEX
  8
0
 10
225.488772
 20
156.320360
 42
-0.007916
  0
VERTEX
  8
0
 10
224.708943
 20
157.796836
 42
-0.004672
  0
VERTEX
  8
0
 10
224.086745
 20
159.050287
 42
-0.113334
  0
VERTEX
  8
0
 10
224.000000
 20
159.428070
 42
-0.436633
  0
VERTEX
  8
0
 10
224.653421
 20
160.033667
 42
-0.100176
  0
VERTEX
  8
0
 10
226.282721
 20
159.572873
 42
-0.045658
  0
VERTEX
  8
0
 10
228.835667
 20
157.948886
 42
-0.018627
  0
SEQEND
  0
POLYLINE
  8
0
 66
1
 70
1
  0
VERTEX
  8
0
 10
159.000000
 20
182.000000
 42
0.002431
  0
VERTEX
  8
0
 10
159.042793
 20
173.198195
 42
0.033055
  0
VERTEX
  8
0
 10
159.285714
 20
170.000000
 42
0.126958
  0
VERTEX
  8
0
 10
159.887801
 20
168.553651
 42
0.235138
  0
VERTEX
  8
0
 10
161.000000
 20
168.000000
 42
0.235138
  0
VERTEX
  8
0
 10
162.112199
 20
168.553651
 42
0.126958
  0
VERTEX
  8
0
 10
162.714286
 20
170.000000
 42
0.033055
  0
VERTEX
  8
0
 10
162.957207
 20
173.198195
 42
0.002431
  0
VERTEX
  8
0
 10
163.000000
 20
182.000000
 42
0.002431
  0
VERTEX
  8
0
 10
162.957207
 20
190.801805
 42
0.033055
  0
VERTEX
  8
0
 10
162.714286
 20
194.000000
 42
0.126958
  0
VERTEX
  8
0
 10
162.112199
 20
195.446349
 42
0.235138
  0
VERTEX
  8
0
 10
161.000000
 20
196.000000
 42
0.235138
  0
VERTEX
  8
0
 10
159.887801
 20
195.446349
 42
0.126958
  0
VERTEX
  8
0
 10
159.285714
 20
194.000000
 42
0.033055
  0
VERTEX
  8
0
 10
159.042793
 20
190.801805
 42
0.002431
  0
SEQEND
  0
POLYLINE
  8
0
 66
1
 70
1
  0
VERTEX
  8
0
 10
179.000000
 20
189.586864
 42
0.000000
  0
VERTEX
  8
0
 10
179.000000
 20
183.173728
 42
0.000000
  0
VERTEX
  8
0
 10
176.100929
 20
184.268005
 42
0.212651
  0
VERTEX
  8
0
 10
171.178196
 20
183.981491
 42
0.162731
  0
VERTEX
  8
0
 10
167.377199
 20
180.069155
 42
0.146602
  0
VERTEX
  8
0
 10
166.464922
 20
174.313743
 42
0.177144
  0
VERTEX
  8
0
 10
168.998298
 20
169.501540
 42
0.053272
  0
VERTEX
  8
0
 10
169.889165
 20
168.853196
 42
0.037450
  0
VERTEX
  8
0
 10
171.007622
 20
168.315937
 42
0.037893
  0
VERTEX
  8
0
 10
172.170250
 20
167.959864
 42
0.062501
  0
VERTEX
  8
0
 10
173.191617
 20
167.860885
 42
-0.001145
  0
VERTEX
  8
0
 10
174.335802
 20
167.890574
 42
-0.000442
  0
VERTEX
  8
0
 10
175.923475
 20
167.926728
 42
-0.000437
  0
VERTEX
  8
0
 10
177.645146
 20
167.962904
 42
-0.000540
  0
VERTEX
  8
0
 10
179.250000
 20
167.993488
 42
0.000000
  0
VERTEX
  8
0
 10
183.000000
 20
168.060903
 42
0.000000
  0
VERTEX
  8
0
 10
183.000000
 20
182.030451
 42
0.002438
  0
VERTEX
  8
0
 10
182.957184
 20
190.811936
 42
0.033125
  0
VERTEX
  8
0
 10
182.714208
 20
194.003806
 42
0.127189
  0
VERTEX
  8
0
 10
182.112034
 20
195.447273
 42
0.234817
  0
VERTEX
  8
0
 10
181.000000
 20
196.000000
 42
0.133095
  0
VERTEX
  8
0
 10
179.934828
 20
195.711348
 42
0.186939
  0
VERTEX
  8
0
 10
179.327965
 20
194.948358
 42
0.068103
  0
VERTEX
  8
0
 10
179.056771
 20
193.332719
 42
0.007577
  0
SEQEND
  0
POLYLINE
  8
0
 66
1
 70
1
  0
VERTEX
  8
0
 10
177.428571
 20
179.428571
 42
-0.092810
  0
VERTEX
  8
0
 10
178.606136
 20
177.708468
 42
-0.125774
  0
VERTEX
  8
0
 10
178.914133
 20
175.858617
 42
-0.126068
  0
VERTEX
  8
0
 10
178.296687
 20
174.091015
 42
-0.093498
  0
VERTEX
  8
0
 10
176.845394
 20
172.604263
 42
-0.111035
  0
VERTEX
  8
0
 10
174.743771
 20
171.740750
 42
-0.170016
  0
VERTEX
  8
0
 10
172.820826
 20
172.067126
 42
-0.164806
  0
VERTEX
  8
0
 10
171.480838
 20
173.537061
 42
-0.103495
  0
VERTEX
  8
0
 10
171.000000
 20
175.835184
 42
-0.091254
  0
VERTEX
  8
0
 10
171.538844
 20
178.763022
 42
-0.176056
  0
VERTEX
  8
0
 10
173.076680
 20
180.542979
 42
-0.205145
  0
VERTEX
  8
0
 10
175.207452
 20
180.767601
 42
-0.122039
  0
SEQEND
  0
POLYLINE
  8
0
 66
1
 70
1
  0
VERTEX
  8
0
 10
33.000000
 20
181.000000
 42
0.002682
  0
VERTEX
  8
0
 10
33.043630
 20
172.865477
 42
0.035495
  0
VERTEX
  8
0
 10
33.288462
 20
169.875000
 42
0.134742
  0
VERTEX
  8
0
 10
33.893213
 20
168.522682
 42
0.224251
  0
VERTEX
  8
0
 10
35.000000
 20
168.000000
 42
0.224251
  0
VERTEX
  8
0
 10
36.106787
 20
168.522682
 42
0.134742
  0
VERTEX
  8
0
 10
36.711538
 20
169.875000
 42
0.035495
  0
VERTEX
  8
0
 10
36.956370
 20
172.865477
 42
0.002682
  0
VERTEX
  8
0
 10
37.000000
 20
181.000000
 42
0.002682
  0
VERTEX
  8
0
 10
36.956370
 20
189.134523
 42
0.035495
  0
VERTEX
  8
0
 10
36.711538
 20
192.125000
 42
0.134742
  0
VERTEX
  8
0
 10
36.106787
 20
193.477318
 42
0.224251
  0
VERTEX
  8
0
 10
35.000000
 20
194.000000
 42
0.224251
  0
VERTEX
  8
0
 10
33.893213
 20
193.477318
 42
0.134742
  0
VERTEX
  8
0
 10
33.288462
 20
192.125000
 42
0.035495
  0
VERTEX
  8
0
 10
33.043630
 20
189.134523
 42
0.002682
  0
SEQEND
  0
POLYLINE
  8
0
 66
1
 70
1
  0
VERTEX
  8
0
 10
44.250000
 20
184.276604
 42
0.000000
  0
VERTEX
  8
0
 10
41.000000
 20
183.873283
 42
0.000000
  0
VERTEX
  8
0
 10
41.000000
 20
175.936642
 42
0.005728
  0
VERTEX
  8
0
 10
41.053074
 20
171.304339
 42
0.052352
  0
VERTEX
  8
0
 10
41.309098
 20
169.307559
 42
0.159294
  0
VERTEX
  8
0
 10
41.883837
 20
168.366055
 42
0.178561
  0
VERTEX
  8
0
 10
42.876170
 20
168.000000
 42
0.144615
  0
VERTEX
  8
0
 10
43.844292
 20
168.285992
 42
0.150392
  0
VERTEX
  8
0
 10
44.483838
 20
169.048730
 42
0.067520
  0
VERTEX
  8
0
 10
44.895258
 20
170.568406
 42
0.011705
  0
VERTEX
  8
0
 10
45.211361
 20
173.535191
 42
-0.024231
  0
VERTEX
  8
0
 10
45.720690
 20
177.395233
 42
-0.088980
  0
VERTEX
  8
0
 10
46.578783
 20
179.694912
 42
-0.179909
  0
VERTEX
  8
0
 10
47.819142
 20
180.698268
 42
-0.174375
  0
VERTEX
  8
0
 10
49.432783
 20
180.664167
 42
-0.164429
  0
VERTEX
  8
0
 10
50.180724
 20
180.043905
 42
-0.080291
  0
VERTEX
  8
0
 10
50.660111
 20
178.885146
 42
-0.045570
  0
VERTEX
  8
0
 10
50.925609
 20
177.014008
 42
-0.012469
  0
VERTEX
  8
0
 10
51.000000
 20
174.031385
 42
0.008382
  0
VERTEX
  8
0
 10
51.058552
 20
170.538948
 42
0.071788
  0
VERTEX
  8
0
 10
51.332900
 20
169.003923
 42
0.188532
  0
VERTEX
  8
0
 10
51.938968
 20
168.273884
 42
0.126984
  0
VERTEX
  8
0
 10
53.000000
 20
168.000000
 42
0.139960
  0
VERTEX
  8
0
 10
54.069264
 20
168.305288
 42
0.184631
  0
VERTEX
  8
0
 10
54.676954
 20
169.105627
 42
0.064334
  0
VERTEX
  8
0
 10
54.944975
 20
170.812208
 42
0.006822
  0
VERTEX
  8
0
 10
55.000000
 20
174.845012
 42
0.011837
  0
VERTEX
  8
0
 10
54.916653
 20
178.365014
 42
0.041165
  0
VERTEX
  8
0
 10
54.622764
 20
180.619417
 42
0.065314
  0
VERTEX
  8
0
 10
54.068554
 20
182.174470
 42
0.090856
  0
VERTEX
  8
0
 10
53.171259
 20
183.345012
 42
0.063495
  0
VERTEX
  8
0
 10
51.802098
 20
184.299386
 42
0.094751
  0
VERTEX
  8
0
 10
50.408823
 20
184.719690
 42
0.049760
  0
VERTEX
  8
0
 10
48.378690
 20
184.729045
 42
0.007159
  0
SEQEND
  0
POLYLINE
  8
0
 66
1
 70
1
  0
VERTEX
  8
0
 10
72.429237
 20
182.692791
 42
0.149662
  0
VERTEX
  8
0
 10
69.837637
 20
178.589396
 42
0.128327
  0
VERTEX
  8
0
 10
69.781569
 20
173.463109
 42
0.143960
  0
VERTEX
  8
0
 10
72.181591
 20
169.369532
 42
0.197585
  0
VERTEX
  8
0
 10
76.125834
 20
167.864981
 42
-0.000850
  0
VERTEX
  8
0
 10
77.296129
 20
167.893105
 42
-0.000337
  0
VERTEX
  8
0
 10
78.904151
 20
167.927931
 42
-0.000333
  0
VERTEX
  8
0
 10
80.640370
 20
167.963205
 42
-0.000418
  0
VERTEX
  8
0
 10
82.250000
 20
167.993488
 42
0.000000
  0
VERTEX
  8
0
 10
86.000000
 20
168.060903
 42
0.000000
  0
VERTEX
  8
0
 10
86.000000
 20
176.046336
 42
0.000000
  0
VERTEX
  8
0
 10
86.000000
 20
184.031769
 42
0.000000
  0
VERTEX
  8
0
 10
83.250000
 20
183.962355
 42
-0.020474
  0
VERTEX
  8
0
 10
82.008908
 20
183.981848
 42
-0.012442
  0
VERTEX
  8
0
 10
80.545975
 20
184.101386
 42
-0.012460
  0
VERTEX
  8
0
 10
79.098408
 20
184.292600
 42
-0.021442
  0
VERTEX
  8
0
 10
77.906510
 20
184.533129
 42
0.062483
  0
VERTEX
  8
0
 10
76.519334
 20
184.696457
 42
0.079301
  0
VERTEX
  8
0
 10
75.248877
 20
184.483767
 42
0.066259
  0
VERTEX
  8
0
 10
73.942803
 20
183.842407
 42
0.030402
  0
SEQEND
  0
POLYLINE
  8
0
 66
1
 70
1
  0
VERTEX
  8
0
 10
80.428571
 20
179.428571
 42
-0.092810
  0
VERTEX
  8
0
 10
81.606136
 20
177.708468
 42
-0.125774
  0
VERTEX
  8
0
 10
81.914133
 20
175.858617
 42
-0.126068
  0
VERTEX
  8
0
 10
81.296687
 20
174.091015
 42
-0.093498
  0
VERTEX
  8
0
 10
79.845394
 20
172.604263
 42
-0.111035
  0
VERTEX
  8
0
 10
77.743771
 20
171.740750
 42
-0.170016
  0
VERTEX
  8
0
 10
75.820826
 20
172.067126
 42
-0.164806
  0
VERTEX
  8
0
 10
74.480838
 20
173.537061
 42
-0.103495
  0
VERTEX
  8
0
 10
74.000000
 20
175.835184
 42
-0.091254
  0
VERTEX
  8
0
 10
74.538844
 20
178.763022
 42
-0.176056
  0
VERTEX
  8
0
 10
76.076680
 20
180.542979
 42
-0.205145
  0
VERTEX
  8
0
 10
78.207452
 20
180.767601
 42
-0.122039
  0
SEQEND
  0
POLYLINE
  8
0
 66
1
 70
1
  0
VERTEX
  8
0
 10
109.373220
 20
180.307202
 42
0.000000
  0
VERTEX
  8
0
 10
107.581024
 20
175.614404
 42
0.000000
  0
VERTEX
  8
0
 10
105.752673
 20
179.807202
 42
0.022194
  0
VERTEX
  8
0
 10
104.723405
 20
181.907886
 42
0.073646
  0
VERTEX
  8
0
 10
103.798294
 20
183.132423
 42
0.108352
  0
VERTEX
  8
0
 10
102.774415
 20
183.775644
 42
0.086477
  0
VERTEX
  8
0
 10
101.486911
 20
184.000000
 42
0.028575
  0
VERTEX
  8
0
 10
100.127484
 20
183.922246
 42
0.227709
  0
VERTEX
  8
0
 10
99.610040
 20
183.596354
 42
0.209853
  0
VERTEX
  8
0
 10
99.516985
 20
182.969022
 42
0.024225
  0
VERTEX
  8
0
 10
99.968401
 20
181.583112
 42
0.021692
  0
VERTEX
  8
0
 10
101.510338
 20
178.003145
 42
0.006967
  0
VERTEX
  8
0
 10
104.100151
 20
172.828230
 42
0.001655
  0
VERTEX
  8
0
 10
106.969318
 20
167.333936
 42
0.278436
  0
VERTEX
  8
0
 10
107.522492
 20
167.000000
 42
0.268623
  0
VERTEX
  8
0
 10
107.777948
 20
167.147916
 42
0.009695
  0
VERTEX
  8
0
 10
108.341311
 20
168.175000
 42
0.015470
  0
VERTEX
  8
0
 10
108.967563
 20
169.466924
 42
0.009955
  0
VERTEX
  8
0
 10
109.616677
 20
171.000000
 42
-0.014910
  0
VERTEX
  8
0
 10
110.283604
 20
172.532669
 42
-0.022281
  0
VERTEX
  8
0
 10
110.964313
 20
173.825000
 42
-0.018617
  0
VERTEX
  8
0
 10
111.588884
 20
174.806777
 42
-0.246567
  0
VERTEX
  8
0
 10
111.956890
 20
175.000000
 42
-0.251037
  0
VERTEX
  8
0
 10
112.325568
 20
174.802447
 42
-0.017441
  0
VERTEX
  8
0
 10
112.964111
 20
173.765853
 42
-0.021468
  0
VERTEX
  8
0
 10
113.660931
 20
172.408537
 42
-0.014269
  0
VERTEX
  8
0
 10
114.346958
 20
170.798648
 42
0.019818
  0
VERTEX
  8
0
 10
115.105448
 20
169.072077
 42
0.055226
  0
VERTEX
  8
0
 10
115.811986
 20
167.954823
 42
0.112023
  0
VERTEX
  8
0
 10
116.430681
 20
167.461181
 42
0.319787
  0
VERTEX
  8
0
 10
116.944261
 20
167.548648
 42
0.072303
  0
VERTEX
  8
0
 10
117.469256
 20
168.255640
 42
0.004816
  0
VERTEX
  8
0
 10
118.649740
 20
170.497103
 42
0.006869
  0
VERTEX
  8
0
 10
119.999564
 20
173.212154
 42
0.005081
  0
VERTEX
  8
0
 10
121.420366
 20
176.250000
 42
0.000000
  0
VERTEX
  8
0
 10
124.949506
 20
184.000000
 42
0.000000
  0
VERTEX
  8
0
 10
122.512592
 20
184.000000
 42
0.086513
  0
VERTEX
  8
0
 10
121.225410
 20
183.775605
 42
0.108330
  0
VERTEX
  8
0
 10
120.201621
 20
183.132298
 42
0.073630
  0
VERTEX
  8
0
 10
119.276513
 20
181.907699
 42
0.022196
  0
VERTEX
  8
0
 10
118.247327
 20
179.807202
 42
0.000000
  0
VERTEX
  8
0
 10
116.418976
 20
175.614404
 42
0.000000
  0
VERTEX
  8
0
 10
114.626780
 20
180.307202
 42
0.014521
  0
VERTEX
  8
0
 10
113.879516
 20
182.105403
 42
0.021855
  0
VERTEX
  8
0
 10
113.115883
 20
183.621491
 42
0.017953
  0
VERTEX
  8
0
 10
112.413330
 20
184.777221
 42
0.252334
  0
VERTEX
  8
0
 10
112.000000
 20
185.000000
 42
0.252334
  0
VERTEX
  8
0
 10
111.586670
 20
184.777221
 42
0.017953
  0
VERTEX
  8
0
 10
110.884117
 20
183.621491
 42
0.021855
  0
VERTEX
  8
0
 10
110.120484
 20
182.105403
 42
0.014521
  0
SEQEND
  0
POLYLINE
  8
0
 66
1
 70
1
  0
VERTEX
  8
0
 10
128.711637
 20
182.987814
 42
0.179526
  0
VERTEX
  8
0
 10
125.527228
 20
177.782375
 42
0.187869
  0
VERTEX
  8
0
 10
126.587486
 20
171.877578
 42
0.183870
  0
VERTEX
  8
0
 10
131.397543
 20
168.159528
 42
0.174269
  0
VERTEX
  8
0
 10
137.591743
 20
168.473886
 42
0.111963
  0
VERTEX
  8
0
 10
141.045169
 20
170.932947
 42
0.137946
  0
VERTEX
  8
0
 10
142.775846
 20
174.471695
 42
0.135772
  0
VERTEX
  8
0
 10
142.421177
 20
178.437549
 42
0.106983
  0
VERTEX
  8
0
 10
140.076923
 20
182.076923
 42
0.073825
  0
VERTEX
  8
0
 10
137.364377
 20
184.088181
 42
0.103027
  0
VERTEX
  8
0
 10
134.474540
 20
184.935791
 42
0.105795
  0
VERTEX
  8
0
 10
131.544046
 20
184.550192
 42
0.081399
  0
SEQEND
  0
POLYLINE
  8
0
 66
1
 70
1
  0
VERTEX
  8
0
 10
136.949813
 20
179.560472
 42
-0.084021
  0
VERTEX
  8
0
 10
137.385466
 20
178.808467
 42
-0.038760
  0
VERTEX
  8
0
 10
137.698908
 20
177.718229
 42
-0.036965
  0
VERTEX
  8
0
 10
137.857418
 20
176.492178
 42
-0.042235
  0
VERTEX
  8
0
 10
137.822258
 20
175.310472
 42
-0.041666
  0
VERTEX
  8
0
 10
137.511955
 20
173.759391
 42
-0.165497
  0
VERTEX
  8
0
 10
136.964322
 20
172.973766
 42
-0.134970
  0
VERTEX
  8
0
 10
135.978925
 20
172.596432
 42
-0.024350
  0
VERTEX
  8
0
 10
134.000000
 20
172.500000
 42
-0.024350
  0
VERTEX
  8
0
 10
132.021075
 20
172.596432
 42
-0.134970
  0
VERTEX
  8
0
 10
131.035678
 20
172.973766
 42
-0.165497
  0
VERTEX
  8
0
 10
130.488045
 20
173.759391
 42
-0.041666
  0
VERTEX
  8
0
 10
130.177742
 20
175.310472
 42
-0.073695
  0
VERTEX
  8
0
 10
130.251015
 20
177.532811
 42
-0.103232
  0
VERTEX
  8
0
 10
130.996293
 20
179.367686
 42
-0.119978
  0
VERTEX
  8
0
 10
132.308123
 20
180.566538
 42
-0.126065
  0
VERTEX
  8
0
 10
134.000000
 20
181.000000
 42
-0.069063
  0
VERTEX
  8
0
 10
134.759512
 20
180.894589
 42
-0.044578
  0
VERTEX
  8
0
 10
135.590491
 20
180.577139
 42
-0.044148
  0
VERTEX
  8
0
 10
136.363411
 20
180.111466
 42
-0.061977
  0
SEQEND
  0
POLYLINE
  8
0
 66
1
 70
1
  0
VERTEX
  8
0
 10
149.250000
 20
184.276604
 42
0.000000
  0
VERTEX
  8
0
 10
146.000000
 20
183.873283
 42
0.000000
  0
VERTEX
  8
0
 10
146.000000
 20
175.936642
 42
0.005416
  0
VERTEX
  8
0
 10
146.051554
 20
171.177658
 42
0.056357
  0
VERTEX
  8
0
 10
146.312999
 20
169.242080
 42
0.177149
  0
VERTEX
  8
0
 10
146.922236
 20
168.346796
 42
0.156925
  0
VERTEX
  8
0
 10
148.000000
 20
168.000000
 42
0.101320
  0
VERTEX
  8
0
 10
149.033518
 20
168.211603
 42
0.187612
  0
VERTEX
  8
0
 10
149.636832
 20
168.802277
 42
0.092087
  0
VERTEX
  8
0
 10
149.929927
 20
169.992651
 42
0.014442
  0
VERTEX
  8
0
 10
150.000000
 20
172.418213
 42
-0.020187
  0
VERTEX
  8
0
 10
150.154485
 20
176.243085
 42
-0.088165
  0
VERTEX
  8
0
 10
150.727032
 20
178.425086
 42
-0.162843
  0
VERTEX
  8
0
 10
151.809898
 20
179.575095
 42
-0.123778
  0
VERTEX
  8
0
 10
153.500000
 20
180.000000
 42
0.119636
  0
VERTEX
  8
0
 10
155.029675
 20
180.371322
 42
0.118200
  0
VERTEX
  8
0
 10
156.226827
 20
181.403614
 42
0.131387
  0
VERTEX
  8
0
 10
156.746923
 20
182.774442
 42
0.165210
  0
VERTEX
  8
0
 10
156.444227
 20
184.090242
 42
0.158800
  0
VERTEX
  8
0
 10
155.835419
 20
184.605383
 42
0.090593
  0
VERTEX
  8
0
 10
154.882996
 20
184.804993
 42
0.033685
  0
VERTEX
  8
0
 10
153.170941
 20
184.733996
 42
0.003670
  0
SEQEND
  0
POLYLINE
  8
0
 66
1
 70
1
  0
VERTEX
  8
0
 10
32.000000
 20
134.500000
 42
0.003595
  0
VERTEX
  8
0
 10
32.046494
 20
128.033032
 42
0.043488
  0
VERTEX
  8
0
 10
32.297619
 20
125.562500
 42
0.155680
  0
VERTEX
  8
0
 10
32.906793
 20
124.439694
 42
0.193568
  0
VERTEX
  8
0
 10
34.000000
 20
124.000000
 42
0.101605
  0
VERTEX
  8
0
 10
35.033978
 20
124.212306
 42
0.187724
  0
VERTEX
  8
0
 10
35.637302
 20
124.804580
 42
0.091804
  0
VERTEX
  8
0
 10
35.930113
 20
125.998948
 42
0.014332
  0
VERTEX
  8
0
 10
36.000000
 20
128.436642
 42
-0.014004
  0
VERTEX
  8
0
 10
36.077493
 20
131.202864
 42
-0.136555
  0
VERTEX
  8
0
 10
36.450330
 20
132.300505
 42
-0.189265
  0
VERTEX
  8
0
 10
37.288687
 20
132.871373
 42
-0.031848
  0
VERTEX
  8
0
 10
39.241811
 20
133.186642
 42
0.036391
  0
VERTEX
  8
0
 10
40.673051
 20
133.431017
 42
0.070566
  0
VERTEX
  8
0
 10
41.747242
 20
133.863507
 42
0.093346
  0
VERTEX
  8
0
 10
42.458613
 20
134.474719
 42
0.122511
  0
VERTEX
  8
0
 10
42.815135
 20
135.250000
 42
0.110036
  0
VERTEX
  8
0
 10
42.787524
 20
136.113276
 42
0.209131
  0
VERTEX
  8
0
 10
42.367374
 20
136.650759
 42
0.105056
  0
VERTEX
  8
0
 10
41.417959
 20
136.929586
 42
0.019079
  0
VERTEX
  8
0
 10
39.573324
 20
137.000000
 42
-0.021614
  0
VERTEX
  8
0
 10
37.701320
 20
137.080962
 42
-0.106353
  0
VERTEX
  8
0
 10
36.696666
 20
137.389926
 42
-0.178456
  0
VERTEX
  8
0
 10
36.179964
 20
137.994316
 42
-0.088768
  0
VERTEX
  8
0
 10
36.000000
 20
139.000000
 42
-0.087745
  0
VERTEX
  8
0
 10
36.177287
 20
140.002462
 42
-0.177212
  0
VERTEX
  8
0
 10
36.687500
 20
140.607143
 42
-0.107690
  0
VERTEX
  8
0
 10
37.675720
 20
140.917816
 42
-0.022514
  0
VERTEX
  8
0
 10
39.500000
 20
141.000000
 42
0.022514
  0
VERTEX
  8
0
 10
41.324280
 20
141.082184
 42
0.107690
  0
VERTEX
  8
0
 10
42.312500
 20
141.392857
 42
0.177212
  0
VERTEX
  8
0
 10
42.822713
 20
141.997538
 42
0.087745
  0
VERTEX
  8
0
 10
43.000000
 20
143.000000
 42
0.118451
  0
VERTEX
  8
0
 10
42.746716
 20
144.054152
 42
0.189837
  0
VERTEX
  8
0
 10
42.062500
 20
144.659091
 42
0.077556
  0
VERTEX
  8
0
 10
40.640147
 20
144.938496
 42
0.009792
  0
VERTEX
  8
0
 10
37.500000
 20
145.000000
 42
0.000000
  0
VERTEX
  8
0
 10
32.000000
 20
145.000000
 42
0.000000
  0
SEQEND
  0
POLYLINE
  8
0
 66
1
 70
1
  0
VERTEX
  8
0
 10
46.000000
 20
136.934259
 42
0.011125
  0
VERTEX
  8
0
 10
46.071702
 20
133.711998
 42
0.013529
  0
VERTEX
  8
0
 10
46.287549
 20
130.700538
 42
0.012109
  0
VERTEX
  8
0
 10
46.596788
 20
128.195497
 42
0.086302
  0
VERTEX
  8
0
 10
46.978891
 20
127.039442
 42
0.121473
  0
VERTEX
  8
0
 10
48.582578
 20
125.258797
 42
0.085193
  0
VERTEX
  8
0
 10
51.050680
 20
124.139095
 42
0.079571
  0
VERTEX
  8
0
 10
53.918952
 20
123.859658
 42
0.084282
  0
VERTEX
  8
0
 10
56.670510
 20
124.503507
 42
0.075854
  0
VERTEX
  8
0
 10
59.017517
 20
125.940676
 42
0.135427
  0
VERTEX
  8
0
 10
60.287670
 20
127.794397
 42
0.072190
  0
VERTEX
  8
0
 10
60.865013
 20
130.839518
 42
0.010811
  0
VERTEX
  8
0
 10
61.000000
 20
137.081787
 42
0.007095
  0
VERTEX
  8
0
 10
60.941192
 20
141.225942
 42
0.039731
  0
VERTEX
  8
0
 10
60.702641
 20
143.430298
 42
0.094361
  0
VERTEX
  8
0
 10
60.246070
 20
144.588903
 42
0.257273
  0
VERTEX
  8
0
 10
59.500000
 20
145.000000
 42
0.208707
  0
VERTEX
  8
0
 10
58.786478
 20
144.688602
 42
0.119473
  0
VERTEX
  8
0
 10
58.319767
 20
143.854167
 42
0.055535
  0
VERTEX
  8
0
 10
58.067225
 20
142.301011
 42
0.012559
  0
VERTEX
  8
0
 10
58.000000
 20
139.625000
 42
-0.015632
  0
VERTEX
  8
0
 10
57.823542
 20
133.982334
 42
-0.059119
  0
VERTEX
  8
0
 10
57.189977
 20
130.512933
 42
-0.107138
  0
VERTEX
  8
0
 10
56.021751
 20
128.435104
 42
-0.150942
  0
VERTEX
  8
0
 10
54.216814
 20
127.339569
 42
-0.150252
  0
VERTEX
  8
0
 10
51.813487
 20
127.465540
 42
-0.190595
  0
VERTEX
  8
0
 10
50.166818
 20
128.931218
 42
-0.094425
  0
VERTEX
  8
0
 10
49.250871
 20
132.134327
 42
-0.022562
  0
VERTEX
  8
0
 10
49.000000
 20
137.691130
 42
0.007946
  0
VERTEX
  8
0
 10
48.939739
 20
141.482827
 42
0.042685
  0
VERTEX
  8
0
 10
48.698692
 20
143.531855
 42
0.100294
  0
VERTEX
  8
0
 10
48.239453
 20
144.611012
 42
0.246980
  0
VERTEX
  8
0
 10
47.500000
 20
145.000000
 42
0.259645
  0
VERTEX
  8
0
 10
46.752399
 20
144.583715
 42
0.092962
  0
VERTEX
  8
0
 10
46.296493
 20
143.405710
 42
0.039074
  0
VERTEX
  8
0
 10
46.058491
 20
141.163790
 42
0.006914
  0
SEQEND
  0
POLYLINE
  8
0
 66
1
 70
1
  0
VERTEX
  8
0
 10
65.000000
 20
134.573324
 42
0.000000
  0
VERTEX
  8
0
 10
65.000000
 20
124.000000
 42
0.000000
  0
VERTEX
  8
0
 10
70.000000
 20
124.000000
 42
0.014068
  0
VERTEX
  8
0
 10
72.460489
 20
124.069243
 42
0.058865
  0
VERTEX
  8
0
 10
73.916667
 20
124.325000
 42
0.122766
  0
VERTEX
  8
0
 10
74.704941
 20
124.792990
 42
0.200296
  0
VERTEX
  8
0
 10
75.000000
 20
125.500000
 42
0.151172
  0
VERTEX
  8
0
 10
74.799790
 20
126.147062
 42
0.126102
  0
VERTEX
  8
0
 10
74.256489
 20
126.623356
 42
0.083009
  0
VERTEX
  8
0
 10
73.339173
 20
126.910391
 42
0.034418
  0
VERTEX
  8
0
 10
72.038933
 20
127.000000
 42
0.000000
  0
VERTEX
  8
0
 10
69.077866
 20
127.000000
 42
0.000000
  0
VERTEX
  8
0
 10
68.788933
 20
135.738747
 42
0.006273
  0
VERTEX
  8
0
 10
68.569653
 20
140.544399
 42
0.040748
  0
VERTEX
  8
0
 10
68.232897
 20
142.941095
 42
0.098226
  0
VERTEX
  8
0
 10
67.666546
 20
144.220051
 42
0.194705
  0
VERTEX
  8
0
 10
66.750000
 20
144.812071
 42
0.263135
  0
VERTEX
  8
0
 10
65.824149
 20
144.499389
 42
0.141231
  0
VERTEX
  8
0
 10
65.283467
 20
143.379775
 42
0.038600
  0
VERTEX
  8
0
 10
65.046701
 20
140.816902
 42
0.003740
  0
SEQEND
  0
POLYLINE
  8
0
 66
1
 70
1
  0
VERTEX
  8
0
 10
77.000000
 20
134.573324
 42
0.000000
  0
VERTEX
  8
0
 10
77.000000
 20
124.000000
 42
0.000000
  0
VERTEX
  8
0
 10
82.000000
 20
124.000000
 42
0.014068
  0
VERTEX
  8
0
 10
84.460489
 20
124.069243
 42
0.058865
  0
VERTEX
  8
0
 10
85.916667
 20
124.325000
 42
0.122766
  0
VERTEX
  8
0
 10
86.704941
 20
124.792990
 42
0.200296
  0
VERTEX
  8
0
 10
87.000000
 20
125.500000
 42
0.151172
  0
VERTEX
  8
0
 10
86.799790
 20
126.147062
 42
0.126102
  0
VERTEX
  8
0
 10
86.256489
 20
126.623356
 42
0.083009
  0
VERTEX
  8
0
 10
85.339173
 20
126.910391
 42
0.034418
  0
VERTEX
  8
0
 10
84.038933
 20
127.000000
 42
0.000000
  0
VERTEX
  8
0
 10
81.077866
 20
127.000000
 42
0.000000
  0
VERTEX
  8
0
 10
80.788933
 20
135.738747
 42
0.006273
  0
VERTEX
  8
0
 10
80.569653
 20
140.544399
 42
0.040748
  0
VERTEX
  8
0
 10
80.232897
 20
142.941095
 42
0.098226
  0
VERTEX
  8
0
 10
79.666546
 20
144.220051
 42
0.194705
  0
VERTEX
  8
0
 10
78.750000
 20
144.812071
 42
0.263135
  0
VERTEX
  8
0
 10
77.824149
 20
144.499389
 42
0.141231
  0
VERTEX
  8
0
 10
77.283467
 20
143.379775
 42
0.038600
  0
VERTEX
  8
0
 10
77.046701
 20
140.816902
 42
0.003740
  0
SEQEND
  0
POLYLINE
  8
0
 66
1
 70
1
  0
VERTEX
  8
0
 10
103.972506
 20
143.295891
 42
0.034826
  0
VERTEX
  8
0
 10
101.500932
 20
141.325357
 42
0.081575
  0
VERTEX
  8
0
 10
100.046576
 20
139.471820
 42
0.084504
  0
VERTEX
  8
0
 10
99.290638
 20
137.292665
 42
0.039450
  0
VERTEX
  8
0
 10
99.031803
 20
134.305764
 42
0.158636
  0
VERTEX
  8
0
 10
100.968243
 20
128.199009
 42
0.153805
  0
VERTEX
  8
0
 10
106.149763
 20
124.309968
 42
0.154060
  0
VERTEX
  8
0
 10
112.617900
 20
124.096927
 42
0.159197
  0
VERTEX
  8
0
 10
117.937087
 20
127.647148
 42
0.092149
  0
VERTEX
  8
0
 10
119.691021
 20
130.993741
 42
0.098945
  0
VERTEX
  8
0
 10
120.065387
 20
134.661731
 42
0.094952
  0
VERTEX
  8
0
 10
118.996527
 20
138.311742
 42
0.077955
  0
VERTEX
  8
0
 10
116.600000
 20
141.600000
 42
0.068352
  0
VERTEX
  8
0
 10
113.576400
 20
143.893340
 42
0.095012
  0
VERTEX
  8
0
 10
110.361131
 20
144.969413
 42
0.100313
  0
VERTEX
  8
0
 10
107.108607
 20
144.752947
 42
0.084461
  0
SEQEND
  0
POLYLINE
  8
0
 66
1
 70
1
  0
VERTEX
  8
0
 10
114.193013
 20
139.250000
 42
-0.044995
  0
VERTEX
  8
0
 10
115.615606
 20
137.255970
 42
-0.093658
  0
VERTEX
  8
0
 10
116.255362
 20
135.464402
 42
-0.093736
  0
VERTEX
  8
0
 10
116.196964
 20
133.563911
 42
-0.045126
  0
VERTEX
  8
0
 10
115.455702
 20
131.232477
 42
-0.135386
  0
VERTEX
  8
0
 10
113.095462
 20
128.235898
 42
-0.155150
  0
VERTEX
  8
0
 10
109.654887
 20
127.070268
 42
-0.151653
  0
VERTEX
  8
0
 10
106.113383
 20
128.097101
 42
-0.128279
  0
VERTEX
  8
0
 10
103.496110
 20
131.007523
 42
-0.120861
  0
VERTEX
  8
0
 10
102.658618
 20
134.479481
 42
-0.135107
  0
VERTEX
  8
0
 10
103.582669
 20
137.786784
 42
-0.135925
  0
VERTEX
  8
0
 10
106.062509
 20
140.141698
 42
-0.122957
  0
VERTEX
  8
0
 10
109.500000
 20
141.000000
 42
-0.046967
  0
VERTEX
  8
0
 10
110.850405
 20
140.872870
 42
-0.042324
  0
VERTEX
  8
0
 10
112.203257
 20
140.495066
 42
-0.044624
  0
VERTEX
  8
0
 10
113.380242
 20
139.932150
 42
-0.081652
  0
SEQEND
  0
POLYLINE
  8
0
 66
1
 70
1
  0
VERTEX
  8
0
 10
124.000000
 20
134.500000
 42
0.004841
  0
VERTEX
  8
0
 10
124.054606
 20
128.860051
 42
0.030643
  0
VERTEX
  8
0
 10
124.285714
 20
126.000000
 42
0.072528
  0
VERTEX
  8
0
 10
124.729954
 20
124.493192
 42
0.292784
  0
VERTEX
  8
0
 10
125.500000
 20
124.000000
 42
0.187132
  0
VERTEX
  8
0
 10
126.195595
 20
124.269783
 42
0.126874
  0
VERTEX
  8
0
 10
126.665477
 20
124.989440
 42
0.064538
  0
VERTEX
  8
0
 10
126.927047
 20
126.299094
 42
0.017060
  0
VERTEX
  8
0
 10
127.000000
 20
128.436642
 42
-0.014004
  0
VERTEX
  8
0
 10
127.077493
 20
131.202864
 42
-0.136555
  0
VERTEX
  8
0
 10
127.450330
 20
132.300505
 42
-0.189265
  0
VERTEX
  8
0
 10
128.288687
 20
132.871373
 42
-0.031848
  0
VERTEX
  8
0
 10
130.241811
 20
133.186642
 42
0.036391
  0
VERTEX
  8
0
 10
131.673051
 20
133.431017
 42
0.070566
  0
VERTEX
  8
0
 10
132.747242
 20
133.863507
 42
0.093346
  0
VERTEX
  8
0
 10
133.458613
 20
134.474719
 42
0.122511
  0
VERTEX
  8
0
 10
133.815135
 20
135.250000
 42
0.110036
  0
VERTEX
  8
0
 10
133.787524
 20
136.113276
 42
0.209131
  0
VERTEX
  8
0
 10
133.367374
 20
136.650759
 42
0.105056
  0
VERTEX
  8
0
 10
132.417959
 20
136.929586
 42
0.019079
  0
VERTEX
  8
0
 10
130.573324
 20
137.000000
 42
-0.021614
  0
VERTEX
  8
0
 10
128.701320
 20
137.080962
 42
-0.106353
  0
VERTEX
  8
0
 10
127.696666
 20
137.389926
 42
-0.178456
  0
VERTEX
  8
0
 10
127.179964
 20
137.994316
 42
-0.088768
  0
VERTEX
  8
0
 10
127.000000
 20
139.000000
 42
-0.087745
  0
VERTEX
  8
0
 10
127.177287
 20
140.002462
 42
-0.177212
  0
VERTEX
  8
0
 10
127.687500
 20
140.607143
 42
-0.107690
  0
VERTEX
  8
0
 10
128.675720
 20
140.917816
 42
-0.022514
  0
VERTEX
  8
0
 10
130.500000
 20
141.000000
 42
0.022514
  0
VERTEX
  8
0
 10
132.324280
 20
141.082184
 42
0.107690
  0
VERTEX
  8
0
 10
133.312500
 20
141.392857
 42
0.177212
  0
VERTEX
  8
0
 10
133.822713
 20
141.997538
 42
0.087745
  0
VERTEX
  8
0
 10
134.000000
 20
143.000000
 42
0.110458
  0
VERTEX
  8
0
 10
133.766065
 20
144.046013
 42
0.189791
  0
VERTEX
  8
0
 10
133.125000
 20
144.650000
 42
0.083766
  0
VERTEX
  8
0
 10
131.809325
 20
144.935058
 42
0.011557
  0
VERTEX
  8
0
 10
129.000000
 20
145.000000
 42
0.000000
  0
VERTEX
  8
0
 10
124.000000
 20
145.000000
 42
0.000000
  0
SEQEND
  0
POLYLINE
  8
0
 66
1
 70
1
  0
VERTEX
  8
0
 10
147.000000
 20
134.500000
 42
0.003595
  0
VERTEX
  8
0
 10
147.046494
 20
128.033032
 42
0.043488
  0
VERTEX
  8
0
 10
147.297619
 20
125.562500
 42
0.155680
  0
VERTEX
  8
0
 10
147.906793
 20
124.439694
 42
0.193568
  0
VERTEX
  8
0
 10
149.000000
 20
124.000000
 42
0.101605
  0
VERTEX
  8
0
 10
150.033978
 20
124.212306
 42
0.187724
  0
VERTEX
  8
0
 10
150.637302
 20
124.804580
 42
0.091804
  0
VERTEX
  8
0
 10
150.930113
 20
125.998948
 42
0.014332
  0
VERTEX
  8
0
 10
151.000000
 20
128.436642
 42
-0.014004
  0
VERTEX
  8
0
 10
151.077493
 20
131.202864
 42
-0.136555
  0
VERTEX
  8
0
 10
151.450330
 20
132.300505
 42
-0.189265
  0
VERTEX
  8
0
 10
152.288687
 20
132.871373
 42
-0.031848
  0
VERTEX
  8
0
 10
154.241811
 20
133.186642
 42
0.036391
  0
VERTEX
  8
0
 10
155.673051
 20
133.431017
 42
0.070566
  0
VERTEX
  8
0
 10
156.747242
 20
133.863507
 42
0.093346
  0
VERTEX
  8
0
 10
157.458613
 20
134.474719
 42
0.122511
  0
VERTEX
  8
0
 10
157.815135
 20
135.250000
 42
0.110036
  0
VERTEX
  8
0
 10
157.787524
 20
136.113276
 42
0.209131
  0
VERTEX
  8
0
 10
157.367374
 20
136.650759
 42
0.105056
  0
VERTEX
  8
0
 10
156.417959
 20
136.929586
 42
0.019079
  0
VERTEX
  8
0
 10
154.573324
 20
137.000000
 42
-0.021614
  0
VERTEX
  8
0
 10
152.701320
 20
137.080962
 42
-0.106353
  0
VERTEX
  8
0
 10
151.696666
 20
137.389926
 42
-0.178456
  0
VERTEX
  8
0
 10
151.179964
 20
137.994316
 42
-0.088768
  0
VERTEX
  8
0
 10
151.000000
 20
139.000000
 42
-0.087745
  0
VERTEX
  8
0
 10
151.177287
 20
140.002462
 42
-0.177212
  0
VERTEX
  8
0
 10
151.687500
 20
140.607143
 42
-0.107690
  0
VERTEX
  8
0
 10
152.675720
 20
140.917816
 42
-0.022514
  0
VERTEX
  8
0
 10
154.500000
 20
141.000000
 42
0.022514
  0
VERTEX
  8
0
 10
156.324280
 20
141.082184
 42
0.107690
  0
VERTEX
  8
0
 10
157.312500
 20
141.392857
 42
0.177212
  0
VERTEX
  8
0
 10
157.822713
 20
141.997538
 42
0.087745
  0
VERTEX
  8
0
 10
158.000000
 20
143.000000
 42
0.118451
  0
VERTEX
  8
0
 10
157.746716
 20
144.054152
 42
0.189837
  0
VERTEX
  8
0
 10
157.062500
 20
144.659091
 42
0.077556
  0
VERTEX
  8
0
 10
155.640147
 20
144.938496
 42
0.009792
  0
VERTEX
  8
0
 10
152.500000
 20
145.000000
 42
0.000000
  0
VERTEX
  8
0
 10
147.000000
 20
145.000000
 42
0.000000
  0
SEQEND
  0
POLYLINE
  8
0
 66
1
 70
1
  0
VERTEX
  8
0
 10
161.000000
 20
134.573324
 42
0.003500
  0
VERTEX
  8
0
 10
161.045934
 20
128.011055
 42
0.044063
  0
VERTEX
  8
0
 10
161.298116
 20
125.548945
 42
0.160330
  0
VERTEX
  8
0
 10
161.917623
 20
124.436439
 42
0.188369
  0
VERTEX
  8
0
 10
163.034983
 20
124.000000
 42
0.181730
  0
VERTEX
  8
0
 10
164.145137
 20
124.417278
 42
0.172283
  0
VERTEX
  8
0
 10
164.736240
 20
125.472773
 42
0.045864
  0
VERTEX
  8
0
 10
164.919234
 20
127.825359
 42
0.003448
  0
VERTEX
  8
0
 10
164.784983
 20
134.238273
 42
0.004927
  0
VERTEX
  8
0
 10
164.568467
 20
139.981399
 42
0.035666
  0
VERTEX
  8
0
 10
164.240883
 20
142.724970
 42
0.090154
  0
VERTEX
  8
0
 10
163.681510
 20
144.167330
 42
0.211012
  0
VERTEX
  8
0
 10
162.750000
 20
144.811598
 42
0.263156
  0
VERTEX
  8
0
 10
161.824156
 20
144.499147
 42
0.141275
  0
VERTEX
  8
0
 10
161.283456
 20
143.379768
 42
0.038603
  0
VERTEX
  8
0
 10
161.046696
 20
140.817047
 42
0.003739
  0
SEQEND
  0
POLYLINE
  8
0
 66
1
 70
1
  0
VERTEX
  8
0
 10
171.165414
 20
143.403307
 42
0.130570
  0
VERTEX
  8
0
 10
169.448323
 20
141.365167
 42
0.171826
  0
VERTEX
  8
0
 10
169.207114
 20
138.963796
 42
0.126376
  0
VERTEX
  8
0
 10
170.590126
 20
136.381115
 42
0.058183
  0
VERTEX
  8
0
 10
173.500000
 20
133.872381
 42
-0.046671
  0
VERTEX
  8
0
 10
176.204317
 20
131.647028
 42
-0.136784
  0
VERTEX
  8
0
 10
177.386432
 20
129.568454
 42
-0.268532
  0
VERTEX
  8
0
 10
176.945906
 20
128.033406
 42
-0.157765
  0
VERTEX
  8
0
 10
175.177068
 20
127.170892
 42
-0.054674
  0
VERTEX
  8
0
 10
174.069977
 20
127.136004
 42
-0.118132
  0
VERTEX
  8
0
 10
173.264136
 20
127.396725
 42
-0.125878
  0
VERTEX
  8
0
 10
172.695815
 20
127.980165
 42
-0.066612
  0
VERTEX
  8
0
 10
172.310436
 20
128.920892
 42
0.037727
  0
VERTEX
  8
0
 10
171.828335
 20
130.322912
 42
0.208575
  0
VERTEX
  8
0
 10
171.259403
 20
130.856046
 42
0.195943
  0
VERTEX
  8
0
 10
170.456862
 20
130.819658
 42
0.033008
  0
VERTEX
  8
0
 10
169.079071
 20
130.070030
 42
0.080284
  0
VERTEX
  8
0
 10
168.414345
 20
129.481703
 42
0.193427
  0
VERTEX
  8
0
 10
168.221202
 20
128.865920
 42
0.108362
  0
VERTEX
  8
0
 10
168.472439
 20
128.036375
 42
0.017521
  0
VERTEX
  8
0
 10
169.352124
 20
126.585343
 42
0.160127
  0
VERTEX
  8
0
 10
172.157982
 20
124.347746
 42
0.130550
  0
VERTEX
  8
0
 10
176.001733
 20
123.977578
 42
0.130958
  0
VERTEX
  8
0
 10
179.513670
 20
125.563038
 42
0.161482
  0
VERTEX
  8
0
 10
181.430600
 20
128.579512
 42
0.106150
  0
VERTEX
  8
0
 10
181.515374
 20
131.043081
 42
0.098036
  0
VERTEX
  8
0
 10
180.593129
 20
133.402918
 42
0.087417
  0
VERTEX
  8
0
 10
178.722696
 20
135.441550
 42
0.065421
  0
VERTEX
  8
0
 10
176.077463
 20
136.967914
 42
-0.056456
  0
VERTEX
  8
0
 10
173.560312
 20
138.361038
 42
-0.271516
  0
VERTEX
  8
0
 10
172.915418
 20
139.796391
 42
-0.350522
  0
VERTEX
  8
0
 10
173.870579
 20
140.757562
 42
-0.068891
  0
VERTEX
  8
0
 10
176.481677
 20
140.696686
 42
0.036413
  0
VERTEX
  8
0
 10
179.032483
 20
140.471422
 42
0.192219
  0
VERTEX
  8
0
 10
180.319231
 20
140.962404
 42
0.336087
  0
VERTEX
  8
0
 10
180.498414
 20
141.958283
 42
0.078904
  0
VERTEX
  8
0
 10
179.437763
 20
143.419380
 42
0.103762
  0
VERTEX
  8
0
 10
177.719977
 20
144.541420
 42
0.093716
  0
VERTEX
  8
0
 10
175.631179
 20
144.932197
 42
0.085021
  0
VERTEX
  8
0
 10
173.370617
 20
144.540484
 42
0.067553
  0
SEQEND
  0
POLYLINE
  8
0
 66
1
 70
1
  0
VERTEX
  8
0
 10
185.000000
 20
134.500000
 42
0.004841
  0
VERTEX
  8
0
 10
185.054606
 20
128.860051
 42
0.030643
  0
VERTEX
  8
0
 10
185.285714
 20
126.000000
 42
0.072528
  0
VERTEX
  8
0
 10
185.729954
 20
124.493192
 42
0.292784
  0
VERTEX
  8
0
 10
186.500000
 20
124.000000
 42
0.188641
  0
VERTEX
  8
0
 10
187.196999
 20
124.272668
 42
0.126480
  0
VERTEX
  8
0
 10
187.666667
 20
125.000000
 42
0.063857
  0
VERTEX
  8
0
 10
187.927513
 20
126.326193
 42
0.016668
  0
VERTEX
  8
0
 10
188.000000
 20
128.500000
 42
0.000000
  0
VERTEX
  8
0
 10
188.000000
 20
133.000000
 42
0.000000
  0
VERTEX
  8
0
 10
192.000000
 20
133.000000
 42
0.000000
  0
VERTEX
  8
0
 10
196.000000
 20
133.000000
 42
0.000000
  0
VERTEX
  8
0
 10
196.000000
 20
128.500000
 42
0.013964
  0
VERTEX
  8
0
 10
196.069261
 20
126.020585
 42
0.090841
  0
VERTEX
  8
0
 10
196.361111
 20
124.812500
 42
0.188085
  0
VERTEX
  8
0
 10
196.964475
 20
124.214724
 42
0.102588
  0
VERTEX
  8
0
 10
198.000000
 20
124.000000
 42
0.194540
  0
VERTEX
  8
0
 10
199.093612
 20
124.442240
 42
0.155047
  0
VERTEX
  8
0
 10
199.702711
 20
125.571666
 42
0.043204
  0
VERTEX
  8
0
 10
199.953611
 20
128.057466
 42
0.003560
  0
VERTEX
  8
0
 10
200.000000
 20
134.573324
 42
0.003743
  0
VERTEX
  8
0
 10
199.953270
 20
140.816004
 42
0.038585
  0
VERTEX
  8
0
 10
199.716464
 20
143.379818
 42
0.140954
  0
VERTEX
  8
0
 10
199.175893
 20
144.500891
 42
0.263005
  0
VERTEX
  8
0
 10
198.250000
 20
144.815008
 42
0.128769
  0
VERTEX
  8
0
 10
197.444760
 20
144.432549
 42
0.101082
  0
VERTEX
  8
0
 10
196.842523
 20
143.672037
 42
0.068885
  0
VERTEX
  8
0
 10
196.429497
 20
142.469112
 42
0.027614
  0
VERTEX
  8
0
 10
196.189635
 20
140.741683
 42
-0.021111
  0
VERTEX
  8
0
 10
195.898638
 20
138.425345
 42
-0.172102
  0
VERTEX
  8
0
 10
195.387372
 20
137.507134
 42
-0.163352
  0
VERTEX
  8
0
 10
194.398291
 20
137.091247
 42
-0.018550
  0
VERTEX
  8
0
 10
191.939635
 20
137.000000
 42
-0.016866
  0
VERTEX
  8
0
 10
189.407997
 20
137.085421
 42
-0.183402
  0
VERTEX
  8
0
 10
188.496227
 20
137.503831
 42
-0.180190
  0
VERTEX
  8
0
 10
188.083302
 20
138.425409
 42
-0.016173
  0
VERTEX
  8
0
 10
188.000000
 20
141.000000
 42
0.020272
  0
VERTEX
  8
0
 10
187.923415
 20
142.888175
 42
0.069535
  0
VERTEX
  8
0
 10
187.656250
 20
144.083333
 42
0.128937
  0
VERTEX
  8
0
 10
187.184843
 20
144.750359
 42
0.176579
  0
VERTEX
  8
0
 10
186.500000
 20
145.000000
 42
0.292784
  0
VERTEX
  8
0
 10
185.729954
 20
144.506808
 42
0.072528
  0
VERTEX
  8
0
 10
185.285714
 20
143.000000
 42
0.030643
  0
VERTEX
  8
0
 10
185.054606
 20
140.139949
 42
0.004841
  0
SEQEND
  0
POLYLINE
  8
0
 66
1
 70
1
  0
VERTEX
  8
0
 10
204.219469
 20
124.073932
 42
0.008129
  0
VERTEX
  8
0
 10
203.089383
 20
121.224804
 42
0.068315
  0
VERTEX
  8
0
 10
202.781605
 20
119.879654
 42
0.185833
  0
VERTEX
  8
0
 10
203.006456
 20
119.094637
 42
0.140401
  0
VERTEX
  8
0
 10
203.729272
 20
118.550394
 42
0.046937
  0
VERTEX
  8
0
 10
204.901802
 20
118.222599
 42
0.247349
  0
VERTEX
  8
0
 10
205.518196
 20
118.417446
 42
0.075976
  0
VERTEX
  8
0
 10
206.086466
 20
119.200121
 42
0.002307
  0
VERTEX
  8
0
 10
207.914901
 20
122.784296
 42
0.018769
  0
VERTEX
  8
0
 10
208.698887
 20
124.495640
 42
0.025638
  0
VERTEX
  8
0
 10
209.265603
 20
126.093756
 42
0.024313
  0
VERTEX
  8
0
 10
209.591178
 20
127.419006
 42
0.188656
  0
VERTEX
  8
0
 10
209.478804
 20
128.034296
 42
0.192723
  0
VERTEX
  8
0
 10
208.352549
 20
128.866633
 42
0.229163
  0
VERTEX
  8
0
 10
207.068322
 20
128.613143
 42
0.102400
  0
VERTEX
  8
0
 10
205.656812
 20
127.007937
 42
0.030841
  0
SEQEND
  0
POLYLINE
  8
0
 66
1
 70
1
  0
VERTEX
  8
0
 10
32.000000
 20
93.030451
 42
0.000000
  0
VERTEX
  8
0
 10
32.000000
 20
79.060903
 42
0.000000
  0
VERTEX
  8
0
 10
35.750000
 20
78.993488
 42
-0.000540
  0
VERTEX
  8
0
 10
37.354854
 20
78.962904
 42
-0.000437
  0
VERTEX
  8
0
 10
39.076525
 20
78.926728
 42
-0.000442
  0
VERTEX
  8
0
 10
40.664198
 20
78.890574
 42
-0.001145
  0
VERTEX
  8
0
 10
41.808383
 20
78.860885
 42
0.164154
  0
VERTEX
  8
0
 10
45.113159
 20
79.872944
 42
0.119404
  0
VERTEX
  8
0
 10
47.639525
 20
82.809007
 42
0.106749
  0
VERTEX
  8
0
 10
48.723113
 20
86.879691
 42
0.110488
  0
VERTEX
  8
0
 10
48.008176
 20
90.980262
 42
0.100904
  0
VERTEX
  8
0
 10
46.397780
 20
93.365642
 42
0.091073
  0
VERTEX
  8
0
 10
43.927421
 20
95.034747
 42
0.093987
  0
VERTEX
  8
0
 10
41.096849
 20
95.682980
 42
0.116835
  0
VERTEX
  8
0
 10
38.454941
 20
95.161423
 42
0.000000
  0
VERTEX
  8
0
 10
36.000000
 20
94.042878
 42
0.000000
  0
VERTEX
  8
0
 10
36.000000
 20
100.521439
 42
0.007453
  0
VERTEX
  8
0
 10
35.943511
 20
104.310748
 42
0.067506
  0
VERTEX
  8
0
 10
35.672822
 20
105.940180
 42
0.186621
  0
VERTEX
  8
0
 10
35.065828
 20
106.708822
 42
0.134139
  0
VERTEX
  8
0
 10
34.000000
 20
107.000000
 42
0.234817
  0
VERTEX
  8
0
 10
32.887966
 20
106.447273
 42
0.127189
  0
VERTEX
  8
0
 10
32.285792
 20
105.003806
 42
0.033125
  0
VERTEX
  8
0
 10
32.042816
 20
101.811936
 42
0.002438
  0
SEQEND
  0
POLYLINE
  8
0
 66
1
 70
1
  0
VERTEX
  8
0
 10
42.800000
 20
90.800000
 42
-0.137426
  0
VERTEX
  8
0
 10
43.777427
 20
89.061815
 42
-0.080813
  0
VERTEX
  8
0
 10
43.964165
 20
86.667680
 42
-0.083397
  0
VERTEX
  8
0
 10
43.388954
 20
84.413512
 42
-0.167322
  0
VERTEX
  8
0
 10
42.154606
 20
83.082743
 42
-0.066058
  0
VERTEX
  8
0
 10
41.177688
 20
82.715615
 42
-0.089538
  0
VERTEX
  8
0
 10
40.238068
 20
82.669584
 42
-0.079287
  0
VERTEX
  8
0
 10
39.258269
 20
82.959721
 42
-0.041243
  0
VERTEX
  8
0
 10
38.154606
 20
83.604263
 42
-0.093498
  0
VERTEX
  8
0
 10
36.703313
 20
85.091015
 42
-0.126068
  0
VERTEX
  8
0
 10
36.085867
 20
86.858617
 42
-0.125774
  0
VERTEX
  8
0
 10
36.393864
 20
88.708468
 42
-0.092810
  0
VERTEX
  8
0
 10
37.571429
 20
90.428571
 42
-0.060741
  0
VERTEX
  8
0
 10
38.953112
 20
91.509933
 42
-0.118504
  0
VERTEX
  8
0
 10
40.279186
 20
91.930075
 42
-0.131354
  0
VERTEX
  8
0
 10
41.558061
 20
91.683732
 42
-0.083667
  0
SEQEND
  0
POLYLINE
  8
0
 66
1
 70
1
  0
VERTEX
  8
0
 10
117.215983
 20
104.788625
 42
0.050097
  0
VERTEX
  8
0
 10
115.623830
 20
104.194397
 42
0.064479
  0
VERTEX
  8
0
 10
114.323722
 20
103.331225
 42
0.061715
  0
VERTEX
  8
0
 10
113.245429
 20
102.132704
 42
0.041122
  0
VERTEX
  8
0
 10
112.314963
 20
100.534295
 42
0.087896
  0
VERTEX
  8
0
 10
111.377590
 20
97.142423
 42
0.125671
  0
VERTEX
  8
0
 10
111.859619
 20
94.072466
 42
0.120331
  0
VERTEX
  8
0
 10
113.783477
 20
91.516831
 42
0.076496
  0
VERTEX
  8
0
 10
117.006458
 20
89.614093
 42
-0.016300
  0
VERTEX
  8
0
 10
118.517812
 20
88.951439
 42
-0.019333
  0
VERTEX
  8
0
 10
119.897236
 20
88.225447
 42
-0.018492
  0
VERTEX
  8
0
 10
121.001844
 20
87.532748
 42
-0.105422
  0
VERTEX
  8
0
 10
121.478328
 20
87.035066
 42
-0.328760
  0
VERTEX
  8
0
 10
121.395769
 20
86.026602
 42
-0.159034
  0
VERTEX
  8
0
 10
120.222285
 20
85.325686
 42
-0.083868
  0
VERTEX
  8
0
 10
118.110529
 20
85.208027
 42
-0.062390
  0
VERTEX
  8
0
 10
115.836439
 20
85.755636
 42
0.028890
  0
VERTEX
  8
0
 10
114.128449
 20
86.289899
 42
0.160529
  0
VERTEX
  8
0
 10
113.182667
 20
86.220787
 42
0.151732
  0
VERTEX
  8
0
 10
112.434250
 20
85.599998
 42
0.024987
  0
VERTEX
  8
0
 10
111.478040
 20
83.957534
 42
0.014787
  0
VERTEX
  8
0
 10
110.650687
 20
82.234577
 42
0.122609
  0
VERTEX
  8
0
 10
110.501567
 20
81.386755
 42
0.204171
  0
VERTEX
  8
0
 10
110.812264
 20
80.779176
 42
0.053214
  0
VERTEX
  8
0
 10
111.744137
 20
80.156634
 42
0.081119
  0
VERTEX
  8
0
 10
116.256577
 20
78.657499
 42
0.070083
  0
VERTEX
  8
0
 10
121.253064
 20
78.562905
 42
0.077557
  0
VERTEX
  8
0
 10
125.570761
 20
79.784913
 42
0.163634
  0
VERTEX
  8
0
 10
128.076338
 20
82.142640
 42
0.100496
  0
VERTEX
  8
0
 10
129.259387
 20
86.091572
 42
0.126661
  0
VERTEX
  8
0
 10
128.648960
 20
89.844976
 42
0.119687
  0
VERTEX
  8
0
 10
126.252286
 20
92.988219
 42
0.083729
  0
VERTEX
  8
0
 10
122.356694
 20
95.187981
 42
-0.050004
  0
VERTEX
  8
0
 10
119.646787
 20
96.486668
 42
-0.276278
  0
VERTEX
  8
0
 10
118.923665
 20
97.859315
 42
-0.374183
  0
VERTEX
  8
0
 10
119.827028
 20
98.790277
 42
-0.061379
  0
VERTEX
  8
0
 10
122.546636
 20
98.686145
 42
0.023892
  0
VERTEX
  8
0
 10
124.537720
 20
98.459988
 42
0.112315
  0
VERTEX
  8
0
 10
125.667455
 20
98.640412
 42
0.143303
  0
VERTEX
  8
0
 10
126.462550
 20
99.266105
 42
0.048006
  0
VERTEX
  8
0
 10
127.209077
 20
100.559529
 42
0.026848
  0
VERTEX
  8
0
 10
127.593688
 20
101.539954
 42
0.036588
  0
VERTEX
  8
0
 10
127.825794
 20
102.460401
 42
0.040018
  0
VERTEX
  8
0
 10
127.896427
 20
103.210575
 42
0.202524
  0
VERTEX
  8
0
 10
127.741664
 20
103.591669
 42
0.139345
  0
VERTEX
  8
0
 10
126.200118
 20
104.450895
 42
0.029597
  0
VERTEX
  8
0
 10
123.141964
 20
104.983429
 42
0.031856
  0
VERTEX
  8
0
 10
119.842318
 20
105.147027
 42
0.060812
  0
SEQEND
  0
POLYLINE
  8
0
 66
1
 70
1
  0
VERTEX
  8
0
 10
133.714060
 20
104.380727
 42
0.180868
  0
VERTEX
  8
0
 10
133.427523
 20
103.751853
 42
0.003747
  0
VERTEX
  8
0
 10
133.209755
 20
100.253505
 42
0.008262
  0
VERTEX
  8
0
 10
133.051670
 20
96.111723
 42
0.005407
  0
VERTEX
  8
0
 10
133.000000
 20
91.333333
 42
0.000000
  0
VERTEX
  8
0
 10
133.000000
 20
79.000000
 42
0.000000
  0
VERTEX
  8
0
 10
137.000000
 20
79.000000
 42
0.000000
  0
VERTEX
  8
0
 10
141.000000
 20
79.000000
 42
0.000000
  0
VERTEX
  8
0
 10
141.000000
 20
84.000000
 42
0.000000
  0
VERTEX
  8
0
 10
141.000000
 20
89.000000
 42
0.000000
  0
VERTEX
  8
0
 10
145.000000
 20
89.000000
 42
0.000000
  0
VERTEX
  8
0
 10
149.000000
 20
89.000000
 42
0.000000
  0
VERTEX
  8
0
 10
149.000000
 20
84.000000
 42
0.000000
  0
VERTEX
  8
0
 10
149.000000
 20
79.000000
 42
0.000000
  0
VERTEX
  8
0
 10
153.029877
 20
79.000000
 42
0.000000
  0
VERTEX
  8
0
 10
157.059754
 20
79.000000
 42
0.000000
  0
VERTEX
  8
0
 10
156.779877
 20
91.750000
 42
0.000000
  0
VERTEX
  8
0
 10
156.500000
 20
104.500000
 42
0.000000
  0
VERTEX
  8
0
 10
153.000000
 20
104.500000
 42
0.026997
  0
VERTEX
  8
0
 10
150.809258
 20
104.381627
 42
0.199453
  0
VERTEX
  8
0
 10
149.911043
 20
103.888943
 42
0.142043
  0
VERTEX
  8
0
 10
149.463742
 20
102.810460
 42
0.011720
  0
VERTEX
  8
0
 10
149.195209
 20
99.750000
 42
0.000000
  0
VERTEX
  8
0
 10
148.890418
 20
95.000000
 42
0.000000
  0
VERTEX
  8
0
 10
145.000000
 20
95.000000
 42
0.000000
  0
VERTEX
  8
0
 10
141.109582
 20
95.000000
 42
0.000000
  0
VERTEX
  8
0
 10
140.804791
 20
99.750000
 42
0.013405
  0
VERTEX
  8
0
 10
140.540852
 20
102.646028
 42
0.117278
  0
VERTEX
  8
0
 10
140.100330
 20
103.848415
 42
0.181730
  0
VERTEX
  8
0
 10
139.242378
 20
104.469482
 42
0.042375
  0
VERTEX
  8
0
 10
137.464060
 20
104.797393
 42
0.023563
  0
VERTEX
  8
0
 10
136.249413
 20
104.858820
 42
0.028525
  0
VERTEX
  8
0
 10
135.110172
 20
104.797672
 42
0.029193
  0
VERTEX
  8
0
 10
134.179428
 20
104.638837
 42
0.140413
  0
SEQEND
  0
POLYLINE
  8
0
 66
1
 70
1
  0
VERTEX
  8
0
 10
167.589506
 20
104.144824
 42
0.045244
  0
VERTEX
  8
0
 10
166.775076
 20
102.513927
 42
0.000562
  0
VERTEX
  8
0
 10
162.532247
 20
91.626561
 42
0.000289
  0
VERTEX
  8
0
 10
158.173783
 20
80.385952
 42
0.092593
  0
VERTEX
  8
0
 10
158.000000
 20
79.455571
 42
0.366137
  0
VERTEX
  8
0
 10
158.152788
 20
79.274894
 42
0.012527
  0
VERTEX
  8
0
 10
159.140740
 20
79.133824
 42
0.018186
  0
VERTEX
  8
0
 10
160.394479
 20
79.032792
 42
0.011011
  0
VERTEX
  8
0
 10
161.883369
 20
79.000000
 42
0.023027
  0
VERTEX
  8
0
 10
163.861651
 20
79.091155
 42
0.083692
  0
VERTEX
  8
0
 10
165.073791
 20
79.412424
 42
0.128970
  0
VERTEX
  8
0
 10
165.825673
 20
80.023689
 42
0.094250
  0
VERTEX
  8
0
 10
166.289749
 20
81.000000
 42
-0.101147
  0
VERTEX
  8
0
 10
166.783355
 20
82.002862
 42
-0.134468
  0
VERTEX
  8
0
 10
167.592098
 20
82.610645
 42
-0.077321
  0
VERTEX
  8
0
 10
168.949403
 20
82.918163
 42
-0.017119
  0
VERTEX
  8
0
 10
171.338993
 20
83.000000
 42
-0.017836
  0
VERTEX
  8
0
 10
173.708326
 20
82.915457
 42
-0.074731
  0
VERTEX
  8
0
 10
175.095634
 20
82.604472
 42
-0.125332
  0
VERTEX
  8
0
 10
175.949576
 20
81.996037
 42
-0.099081
  0
VERTEX
  8
0
 10
176.500000
 20
81.000000
 42
0.093230
  0
VERTEX
  8
0
 10
177.021684
 20
80.029562
 42
0.120296
  0
VERTEX
  8
0
 10
177.823191
 20
79.417495
 42
0.079929
  0
VERTEX
  8
0
 10
179.075726
 20
79.093376
 42
0.023429
  0
VERTEX
  8
0
 10
181.067388
 20
79.000000
 42
0.006368
  0
VERTEX
  8
0
 10
182.575286
 20
79.019205
 42
0.010587
  0
VERTEX
  8
0
 10
183.844795
 20
79.078463
 42
0.004430
  0
VERTEX
  8
0
 10
184.901348
 20
79.159634
 42
0.389377
  0
VERTEX
  8
0
 10
185.000000
 20
79.267108
 42
0.090169
  0
VERTEX
  8
0
 10
184.962309
 20
79.474408
 42
0.000133
  0
VERTEX
  8
0
 10
183.589246
 20
83.122602
 42
0.001089
  0
VERTEX
  8
0
 10
182.038659
 20
87.212134
 42
0.000671
  0
VERTEX
  8
0
 10
180.197434
 20
92.017108
 42
0.000000
  0
VERTEX
  8
0
 10
175.394869
 20
104.500000
 42
0.000000
  0
VERTEX
  8
0
 10
171.790336
 20
104.804827
 42
0.026032
  0
VERTEX
  8
0
 10
170.366536
 20
104.850852
 42
0.034038
  0
VERTEX
  8
0
 10
169.069473
 20
104.736692
 42
0.036242
  0
VERTEX
  8
0
 10
168.046975
 20
104.499123
 42
0.181060
  0
SEQEND
  0
POLYLINE
  8
0
 66
1
 70
1
  0
VERTEX
  8
0
 10
172.850155
 20
92.000000
 42
-0.014531
  0
VERTEX
  8
0
 10
173.427735
 20
90.174115
 42
-0.176862
  0
VERTEX
  8
0
 10
173.375216
 20
89.453905
 42
-0.260507
  0
VERTEX
  8
0
 10
172.883301
 20
89.089018
 42
-0.032143
  0
VERTEX
  8
0
 10
171.500000
 20
89.000000
 42
-0.032143
  0
VERTEX
  8
0
 10
170.116699
 20
89.089018
 42
-0.260507
  0
VERTEX
  8
0
 10
169.624784
 20
89.453905
 42
-0.176862
  0
VERTEX
  8
0
 10
169.572265
 20
90.174115
 42
-0.014531
  0
VERTEX
  8
0
 10
170.149845
 20
92.000000
 42
-0.008468
  0
VERTEX
  8
0
 10
170.572690
 20
93.149940
 42
-0.013400
  0
VERTEX
  8
0
 10
170.977848
 20
94.118750
 42
-0.007306
  0
VERTEX
  8
0
 10
171.344516
 20
94.902663
 42
-0.287196
  0
VERTEX
  8
0
 10
171.500000
 20
95.000000
 42
-0.287196
  0
VERTEX
  8
0
 10
171.655484
 20
94.902663
 42
-0.007306
  0
VERTEX
  8
0
 10
172.022152
 20
94.118750
 42
-0.013400
  0
VERTEX
  8
0
 10
172.427310
 20
93.149940
 42
-0.008468
  0
SEQEND
  0
POLYLINE
  8
0
 66
1
 70
1
  0
VERTEX
  8
0
 10
187.750000
 20
104.426914
 42
0.178102
  0
VERTEX
  8
0
 10
187.449414
 20
103.764708
 42
0.004095
  0
VERTEX
  8
0
 10
187.220313
 20
100.267073
 42
0.008628
  0
VERTEX
  8
0
 10
187.054293
 20
96.114941
 42
0.005677
  0
VERTEX
  8
0
 10
187.000000
 20
91.333333
 42
0.000000
  0
VERTEX
  8
0
 10
187.000000
 20
79.000000
 42
0.000000
  0
VERTEX
  8
0
 10
190.939635
 20
79.000000
 42
0.018555
  0
VERTEX
  8
0
 10
193.399330
 20
79.091313
 42
0.163629
  0
VERTEX
  8
0
 10
194.387952
 20
79.507661
 42
0.171987
  0
VERTEX
  8
0
 10
194.898785
 20
80.426992
 42
0.020993
  0
VERTEX
  8
0
 10
195.189635
 20
82.750000
 42
0.000000
  0
VERTEX
  8
0
 10
195.500000
 20
86.500000
 42
0.000000
  0
VERTEX
  8
0
 10
197.831559
 20
82.750000
 42
0.024756
  0
VERTEX
  8
0
 10
199.318216
 20
80.603595
 42
0.103806
  0
VERTEX
  8
0
 10
200.503461
 20
79.587594
 42
0.102196
  0
VERTEX
  8
0
 10
202.006781
 20
79.125676
 42
0.023611
  0
VERTEX
  8
0
 10
204.666728
 20
79.000000
 42
0.000000
  0
VERTEX
  8
0
 10
209.170337
 20
79.000000
 42
0.000000
  0
VERTEX
  8
0
 10
205.490450
 20
84.013009
 42
0.000000
  0
VERTEX
  8
0
 10
201.810563
 20
89.026018
 42
0.000000
  0
VERTEX
  8
0
 10
204.005282
 20
90.803193
 42
0.134828
  0
VERTEX
  8
0
 10
205.661640
 20
93.113051
 42
0.086565
  0
VERTEX
  8
0
 10
206.260186
 20
96.377097
 42
0.084130
  0
VERTEX
  8
0
 10
205.719897
 20
99.742081
 42
0.115087
  0
VERTEX
  8
0
 10
204.105205
 20
102.339239
 42
0.070641
  0
VERTEX
  8
0
 10
202.728822
 20
103.373355
 42
0.057812
  0
VERTEX
  8
0
 10
201.023238
 20
104.070077
 42
0.040302
  0
VERTEX
  8
0
 10
198.687405
 20
104.523550
 42
0.013877
  0
VERTEX
  8
0
 10
195.255205
 20
104.810598
 42
0.011016
  0
VERTEX
  8
0
 10
192.612755
 20
104.899563
 42
0.015677
  0
VERTEX
  8
0
 10
190.264029
 20
104.853223
 42
0.011620
  0
VERTEX
  8
0
 10
188.344424
 20
104.710301
 42
0.175424
  0
SEQEND
  0
POLYLINE
  8
0
 66
1
 70
1
  0
VERTEX
  8
0
 10
198.500000
 20
96.500000
 42
-0.084062
  0
VERTEX
  8
0
 10
198.368100
 20
95.721001
 42
-0.078398
  0
VERTEX
  8
0
 10
197.985938
 20
95.007845
 42
-0.081315
  0
VERTEX
  8
0
 10
197.418371
 20
94.468276
 42
-0.102252
  0
VERTEX
  8
0
 10
196.750000
 20
94.190371
 42
-0.089609
  0
VERTEX
  8
0
 10
195.921951
 20
94.180837
 42
-0.191065
  0
VERTEX
  8
0
 10
195.383469
 20
94.507148
 42
-0.129356
  0
VERTEX
  8
0
 10
195.085064
 20
95.230782
 42
-0.033473
  0
VERTEX
  8
0
 10
195.000000
 20
96.500000
 42
-0.033473
  0
VERTEX
  8
0
 10
195.085064
 20
97.769218
 42
-0.129356
  0
VERTEX
  8
0
 10
195.383469
 20
98.492852
 42
-0.191065
  0
VERTEX
  8
0
 10
195.921951
 20
98.819163
 42
-0.089609
  0
VERTEX
  8
0
 10
196.750000
 20
98.809629
 42
-0.102252
  0
VERTEX
  8
0
 10
197.418371
 20
98.531724
 42
-0.081315
  0
VERTEX
  8
0
 10
197.985938
 20
97.992155
 42
-0.078398
  0
VERTEX
  8
0
 10
198.368100
 20
97.278999
 42
-0.084062
  0
SEQEND
  0
POLYLINE
  8
0
 66
1
 70
1
  0
VERTEX
  8
0
 10
211.714060
 20
104.380727
 42
0.180868
  0
VERTEX
  8
0
 10
211.427523
 20
103.751853
 42
0.003747
  0
VERTEX
  8
0
 10
211.209755
 20
100.253505
 42
0.008262
  0
VERTEX
  8
0
 10
211.051670
 20
96.111723
 42
0.005407
  0
VERTEX
  8
0
 10
211.000000
 20
91.333333
 42
0.000000
  0
VERTEX
  8
0
 10
211.000000
 20
79.000000
 42
0.000000
  0
VERTEX
  8
0
 10
214.945209
 20
79.000000
 42
0.000000
  0
VERTEX
  8
0
 10
218.890418
 20
79.000000
 42
0.000000
  0
VERTEX
  8
0
 10
219.195209
 20
83.625951
 42
0.000000
  0
VERTEX
  8
0
 10
219.500000
 20
88.251901
 42
0.000000
  0
VERTEX
  8
0
 10
222.812136
 20
83.625951
 42
0.015942
  0
VERTEX
  8
0
 10
224.895690
 20
80.903624
 42
0.087100
  0
VERTEX
  8
0
 10
226.293931
 20
79.697179
 42
0.105921
  0
VERTEX
  8
0
 10
227.891761
 20
79.155090
 42
0.029015
  0
VERTEX
  8
0
 10
230.562136
 20
79.000000
 42
0.013594
  0
VERTEX
  8
0
 10
232.263508
 20
79.046265
 42
0.022338
  0
VERTEX
  8
0
 10
233.696377
 20
79.188642
 42
0.018288
  0
VERTEX
  8
0
 10
234.796666
 20
79.389179
 42
0.352035
  0
VERTEX
  8
0
 10
235.000000
 20
79.642187
 42
0.157975
  0
VERTEX
  8
0
 10
234.865121
 20
80.058432
 42
0.004425
  0
VERTEX
  8
0
 10
233.730768
 20
81.596151
 42
0.008642
  0
VERTEX
  8
0
 10
232.334948
 20
83.388319
 42
0.005782
  0
VERTEX
  8
0
 10
230.679211
 20
85.392187
 42
-0.002926
  0
VERTEX
  8
0
 10
228.978647
 20
87.426530
 42
-0.003785
  0
VERTEX
  8
0
 10
227.443399
 20
89.314020
 42
-0.002874
  0
VERTEX
  8
0
 10
226.178864
 20
90.911689
 42
-0.033446
  0
VERTEX
  8
0
 10
225.731172
 20
91.570435
 42
-0.250622
  0
VERTEX
  8
0
 10
225.704393
 20
92.258168
 42
-0.019922
  0
VERTEX
  8
0
 10
226.594787
 20
93.919281
 42
-0.023254
  0
VERTEX
  8
0
 10
227.893127
 20
95.907957
 42
-0.015528
  0
VERTEX
  8
0
 10
229.551960
 20
98.063343
 42
0.006380
  0
VERTEX
  8
0
 10
231.256329
 20
100.196012
 42
0.009397
  0
VERTEX
  8
0
 10
232.693388
 20
102.115360
 42
0.005257
  0
VERTEX
  8
0
 10
233.848850
 20
103.756745
 42
0.151867
  0
VERTEX
  8
0
 10
234.000000
 20
104.242908
 42
0.327035
  0
VERTEX
  8
0
 10
233.783541
 20
104.538454
 42
0.029342
  0
VERTEX
  8
0
 10
232.838456
 20
104.777604
 42
0.029284
  0
VERTEX
  8
0
 10
231.561537
 20
104.945356
 42
0.018020
  0
VERTEX
  8
0
 10
230.045807
 20
105.000000
 42
0.039015
  0
VERTEX
  8
0
 10
227.739570
 20
104.819770
 42
0.098905
  0
VERTEX
  8
0
 10
226.169600
 20
104.241076
 42
0.075741
  0
VERTEX
  8
0
 10
224.704696
 20
103.003411
 42
0.016494
  0
VERTEX
  8
0
 10
222.606450
 20
100.435620
 42
0.000000
  0
VERTEX
  8
0
 10
219.121287
 20
95.871240
 42
0.000000
  0
VERTEX
  8
0
 10
218.810644
 20
100.185620
 42
0.016646
  0
VERTEX
  8
0
 10
218.539694
 20
102.752512
 42
0.122936
  0
VERTEX
  8
0
 10
218.083093
 20
103.885494
 42
0.172344
  0
VERTEX
  8
0
 10
217.217025
 20
104.480191
 42
0.040707
  0
VERTEX
  8
0
 10
215.464060
 20
104.797393
 42
0.023563
  0
VERTEX
  8
0
 10
214.249413
 20
104.858820
 42
0.028525
  0
VERTEX
  8
0
 10
213.110172
 20
104.797672
 42
0.029193
  0
VERTEX
  8
0
 10
212.179428
 20
104.638837
 42
0.140413
  0
SEQEND
  0
POLYLINE
  8
0
 66
1
 70
1
  0
VERTEX
  8
0
 10
239.000000
 20
96.000000
 42
0.008505
  0
VERTEX
  8
0
 10
239.065393
 20
92.155800
 42
0.021121
  0
VERTEX
  8
0
 10
239.279762
 20
89.350000
 42
0.021014
  0
VERTEX
  8
0
 10
239.597688
 20
87.386343
 42
0.356062
  0
VERTEX
  8
0
 10
240.071429
 20
87.000000
 42
-0.262054
  0
VERTEX
  8
0
 10
240.328704
 20
86.855217
 42
-0.216722
  0
VERTEX
  8
0
 10
240.366518
 20
86.538393
 42
-0.087140
  0
VERTEX
  8
0
 10
240.102231
 20
86.033083
 42
-0.032428
  0
VERTEX
  8
0
 10
239.571429
 20
85.428571
 42
0.069139
  0
VERTEX
  8
0
 10
238.452536
 20
83.948585
 42
0.128013
  0
VERTEX
  8
0
 10
238.075482
 20
82.500000
 42
0.128013
  0
VERTEX
  8
0
 10
238.452536
 20
81.051415
 42
0.069139
  0
VERTEX
  8
0
 10
239.571429
 20
79.571429
 42
0.069139
  0
VERTEX
  8
0
 10
241.051415
 20
78.452536
 42
0.128013
  0
VERTEX
  8
0
 10
242.500000
 20
78.075482
 42
0.128013
  0
VERTEX
  8
0
 10
243.948585
 20
78.452536
 42
0.069139
  0
VERTEX
  8
0
 10
245.428571
 20
79.571429
 42
0.065944
  0
VERTEX
  8
0
 10
246.548340
 20
81.033153
 42
0.129895
  0
VERTEX
  8
0
 10
246.927057
 20
82.436100
 42
0.139937
  0
VERTEX
  8
0
 10
246.553478
 20
83.771629
 42
0.081996
  0
VERTEX
  8
0
 10
245.457618
 20
85.035174
 42
-0.046596
  0
VERTEX
  8
0
 10
244.818201
 20
85.675168
 42
-0.120521
  0
VERTEX
  8
0
 10
244.535154
 20
86.258232
 42
-0.155155
  0
VERTEX
  8
0
 10
244.588313
 20
86.811415
 42
-0.095726
  0
VERTEX
  8
0
 10
244.957618
 20
87.357618
 42
0.157168
  0
VERTEX
  8
0
 10
245.367794
 20
88.157932
 42
0.012678
  0
VERTEX
  8
0
 10
245.693800
 20
90.531925
 42
0.016117
  0
VERTEX
  8
0
 10
245.924055
 20
93.444765
 42
0.011664
  0
VERTEX
  8
0
 10
246.000000
 20
96.700000
 42
0.000000
  0
VERTEX
  8
0
 10
246.000000
 20
105.000000
 42
0.000000
  0
VERTEX
  8
0
 10
242.500000
 20
105.000000
 42
0.000000
  0
VERTEX
  8
0
 10
239.000000
 20
105.000000
 42
0.000000
  0
SEQEND
  0
POLYLINE
  8
0
 66
1
 70
1
  0
VERTEX
  8
0
 10
55.281802
 20
94.793696
 42
0.078679
  0
VERTEX
  8
0
 10
54.353957
 20
94.149581
 42
0.039203
  0
VERTEX
  8
0
 10
53.399088
 20
93.079514
 42
0.037669
  0
VERTEX
  8
0
 10
52.562870
 20
91.788868
 42
0.045237
  0
VERTEX
  8
0
 10
51.987479
 20
90.462062
 42
0.091652
  0
VERTEX
  8
0
 10
51.380442
 20
86.025501
 42
0.130556
  0
VERTEX
  8
0
 10
52.574472
 20
82.251976
 42
0.137826
  0
VERTEX
  8
0
 10
55.416754
 20
79.704418
 42
0.107538
  0
VERTEX
  8
0
 10
59.459480
 20
78.703983
 42
0.087996
  0
VERTEX
  8
0
 10
62.533179
 20
79.159734
 42
0.090519
  0
VERTEX
  8
0
 10
65.228970
 20
80.643978
 42
0.135148
  0
VERTEX
  8
0
 10
66.570707
 20
82.530190
 42
0.291626
  0
VERTEX
  8
0
 10
66.201299
 20
84.198701
 42
0.092188
  0
VERTEX
  8
0
 10
65.455955
 20
84.710306
 42
0.130729
  0
VERTEX
  8
0
 10
64.665584
 20
84.835992
 42
0.085022
  0
VERTEX
  8
0
 10
63.671462
 20
84.558805
 42
0.023006
  0
VERTEX
  8
0
 10
62.222105
 20
83.790272
 42
-0.031758
  0
VERTEX
  8
0
 10
60.856420
 20
83.096431
 42
-0.065244
  0
VERTEX
  8
0
 10
59.704314
 20
82.769782
 42
-0.081680
  0
VERTEX
  8
0
 10
58.686080
 20
82.787125
 42
-0.082732
  0
VERTEX
  8
0
 10
57.731917
 20
83.130151
 42
-0.082766
  0
VERTEX
  8
0
 10
56.251686
 20
84.315840
 42
-0.437660
  0
VERTEX
  8
0
 10
56.339151
 20
85.235619
 42
-0.143064
  0
VERTEX
  8
0
 10
57.947646
 20
85.853389
 42
-0.020627
  0
VERTEX
  8
0
 10
61.500000
 20
86.000000
 42
0.008542
  0
VERTEX
  8
0
 10
64.919658
 20
86.058427
 42
0.100155
  0
VERTEX
  8
0
 10
66.209821
 20
86.365702
 42
0.223279
  0
VERTEX
  8
0
 10
66.809500
 20
87.080579
 42
0.064750
  0
VERTEX
  8
0
 10
67.000000
 20
88.545455
 42
0.075857
  0
VERTEX
  8
0
 10
66.824198
 20
89.697555
 42
0.038394
  0
VERTEX
  8
0
 10
66.278977
 20
91.064205
 42
0.037017
  0
VERTEX
  8
0
 10
65.484837
 20
92.418504
 42
0.045294
  0
VERTEX
  8
0
 10
64.545455
 20
93.545455
 42
0.070501
  0
VERTEX
  8
0
 10
62.508352
 20
95.076873
 42
0.092744
  0
VERTEX
  8
0
 10
60.304790
 20
95.804419
 42
0.088253
  0
VERTEX
  8
0
 10
57.903121
 20
95.703224
 42
0.057973
  0
SEQEND
  0
POLYLINE
  8
0
 66
1
 70
1
  0
VERTEX
  8
0
 10
61.000000
 20
91.000000
 42
-0.046037
  0
VERTEX
  8
0
 10
61.616325
 20
90.515969
 42
-0.464355
  0
VERTEX
  8
0
 10
61.600168
 20
90.229858
 42
-0.149908
  0
VERTEX
  8
0
 10
61.116157
 20
90.054644
 42
-0.011070
  0
VERTEX
  8
0
 10
59.690983
 20
90.015313
 42
-0.031127
  0
VERTEX
  8
0
 10
58.616019
 20
90.076417
 42
-0.075986
  0
VERTEX
  8
0
 10
57.853834
 20
90.287930
 42
-0.157247
  0
VERTEX
  8
0
 10
57.494373
 20
90.612423
 42
-0.276250
  0
VERTEX
  8
0
 10
57.500000
 20
91.000000
 42
-0.088664
  0
VERTEX
  8
0
 10
58.118496
 20
91.690509
 42
-0.167411
  0
VERTEX
  8
0
 10
58.817281
 20
91.931224
 42
-0.113655
  0
VERTEX
  8
0
 10
59.714104
 20
91.724699
 42
-0.030273
  0
SEQEND
  0
POLYLINE
  8
0
 66
1
 70
1
  0
VERTEX
  8
0
 10
82.429237
 20
93.692791
 42
0.149662
  0
VERTEX
  8
0
 10
79.837637
 20
89.589396
 42
0.128327
  0
VERTEX
  8
0
 10
79.781569
 20
84.463109
 42
0.143960
  0
VERTEX
  8
0
 10
82.181591
 20
80.369532
 42
0.197585
  0
VERTEX
  8
0
 10
86.125834
 20
78.864981
 42
-0.000850
  0
VERTEX
  8
0
 10
87.296129
 20
78.893105
 42
-0.000337
  0
VERTEX
  8
0
 10
88.904151
 20
78.927931
 42
-0.000333
  0
VERTEX
  8
0
 10
90.640370
 20
78.963205
 42
-0.000418
  0
VERTEX
  8
0
 10
92.250000
 20
78.993488
 42
0.000000
  0
VERTEX
  8
0
 10
96.000000
 20
79.060903
 42
0.000000
  0
VERTEX
  8
0
 10
96.000000
 20
87.046336
 42
0.000000
  0
VERTEX
  8
0
 10
96.000000
 20
95.031769
 42
0.000000
  0
VERTEX
  8
0
 10
93.250000
 20
94.962355
 42
-0.020474
  0
VERTEX
  8
0
 10
92.008908
 20
94.981848
 42
-0.012442
  0
VERTEX
  8
0
 10
90.545975
 20
95.101386
 42
-0.012460
  0
VERTEX
  8
0
 10
89.098408
 20
95.292600
 42
-0.021442
  0
VERTEX
  8
0
 10
87.906510
 20
95.533129
 42
0.062483
  0
VERTEX
  8
0
 10
86.519334
 20
95.696457
 42
0.079301
  0
VERTEX
  8
0
 10
85.248877
 20
95.483767
 42
0.066259
  0
VERTEX
  8
0
 10
83.942803
 20
94.842407
 42
0.030402
  0
SEQEND
  0
POLYLINE
  8
0
 66
1
 70
1
  0
VERTEX
  8
0
 10
90.428571
 20
90.428571
 42
-0.092810
  0
VERTEX
  8
0
 10
91.606136
 20
88.708468
 42
-0.125774
  0
VERTEX
  8
0
 10
91.914133
 20
86.858617
 42
-0.126068
  0
VERTEX
  8
0
 10
91.296687
 20
85.091015
 42
-0.093498
  0
VERTEX
  8
0
 10
89.845394
 20
83.604263
 42
-0.111035
  0
VERTEX
  8
0
 10
87.743771
 20
82.740750
 42
-0.170016
  0
VERTEX
  8
0
 10
85.820826
 20
83.067126
 42
-0.164806
  0
VERTEX
  8
0
 10
84.480838
 20
84.537061
 42
-0.103495
  0
VERTEX
  8
0
 10
84.000000
 20
86.835184
 42
-0.091254
  0
VERTEX
  8
0
 10
84.538844
 20
89.763022
 42
-0.176056
  0
VERTEX
  8
0
 10
86.076680
 20
91.542979
 42
-0.205145
  0
VERTEX
  8
0
 10
88.207452
 20
91.767601
 42
-0.122039
  0
SEQEND
  0
ENDSEC
  0
EOF
