  0
SECTION
  2
HEADER
  9
$ACADVER
  1
AC1006
  9
$EXTMIN
 10
0.000000
 20
0.000000
 30
0.000000
  9
$EXTMAX
 10
319.000000
 20
318.000000
 30
0.000000
  0
ENDSEC
  0
SECTION
  2
ENTITIES
  0
POLYLINE
  8
0
 66
1
 70
1
  0
VERTEX
  8
0
 10
128.000000
 20
252.500000
 42
0.009965
  0
VERTEX
  8
0
 10
126.748377
 20
251.113340
 42
0.114481
  0
VERTEX
  8
0
 10
126.407253
 20
250.468152
 42
0.394519
  0
VERTEX
  8
0
 10
126.592869
 20
250.122786
 42
0.081705
  0
VERTEX
  8
0
 10
127.339255
 20
250.000000
 42
-0.055268
  0
VERTEX
  8
0
 10
128.127242
 20
249.912633
 42
-0.026119
  0
VERTEX
  8
0
 10
129.113532
 20
249.636404
 42
-0.025506
  0
VERTEX
  8
0
 10
130.126560
 20
249.236127
 42
-0.032748
  0
VERTEX
  8
0
 10
131.009128
 20
248.762226
 42
0.086777
  0
VERTEX
  8
0
 10
132.229536
 20
248.267509
 42
0.157295
  0
VERTEX
  8
0
 10
133.290920
 20
248.374030
 42
0.081191
  0
VERTEX
  8
0
 10
134.550581
 20
249.188713
 42
0.012322
  0
VERTEX
  8
0
 10
136.728893
 20
251.262226
 42
0.000000
  0
VERTEX
  8
0
 10
140.466667
 20
255.000000
 42
0.000000
  0
VERTEX
  8
0
 10
135.407647
 20
255.000000
 42
0.020714
  0
VERTEX
  8
0
 10
132.702651
 20
254.887892
 42
0.060735
  0
VERTEX
  8
0
 10
130.879435
 20
254.510397
 42
0.075798
  0
VERTEX
  8
0
 10
129.434196
 20
253.763871
 42
0.047162
  0
SEQEND
  0
POLYLINE
  8
0
 66
1
 70
1
  0
VERTEX
  8
0
 10
119.750000
 20
244.256818
 42
0.000000
  0
VERTEX
  8
0
 10
115.000000
 20
239.431302
 42
0.000000
  0
VERTEX
  8
0
 10
115.000000
 20
227.202082
 42
-0.006996
  0
VERTEX
  8
0
 10
114.924586
 20
221.812251
 42
-0.014533
  0
VERTEX
  8
0
 10
114.684860
 20
217.614399
 42
-0.015475
  0
VERTEX
  8
0
 10
114.316252
 20
214.479784
 42
-0.102922
  0
VERTEX
  8
0
 10
113.775041
 20
213.011391
 42
0.033247
  0
VERTEX
  8
0
 10
113.215675
 20
211.967160
 42
0.106729
  0
VERTEX
  8
0
 10
113.050081
 20
211.200232
 42
0.132680
  0
VERTEX
  8
0
 10
113.230766
 20
210.531315
 42
0.064530
  0
VERTEX
  8
0
 10
113.775041
 20
209.824959
 42
-0.122921
  0
VERTEX
  8
0
 10
114.249606
 20
209.034670
 42
-0.026131
  0
VERTEX
  8
0
 10
114.640168
 20
207.465352
 42
-0.025858
  0
VERTEX
  8
0
 10
114.910023
 20
205.549947
 42
-0.022069
  0
VERTEX
  8
0
 10
115.000000
 20
203.512408
 42
0.026663
  0
VERTEX
  8
0
 10
115.166050
 20
200.400805
 42
0.089368
  0
VERTEX
  8
0
 10
115.737697
 20
198.448832
 42
0.070178
  0
VERTEX
  8
0
 10
117.027810
 20
196.576284
 42
0.012392
  0
VERTEX
  8
0
 10
120.000000
 20
193.500000
 42
0.000000
  0
VERTEX
  8
0
 10
125.000000
 20
188.575184
 42
0.000000
  0
VERTEX
  8
0
 10
125.000000
 20
197.853333
 42
-0.014334
  0
VERTEX
  8
0
 10
125.189723
 20
204.469779
 42
-0.057513
  0
VERTEX
  8
0
 10
125.882419
 20
208.451779
 42
-0.178037
  0
VERTEX
  8
0
 10
127.055108
 20
210.028417
 42
-0.329067
  0
VERTEX
  8
0
 10
128.569739
 20
209.942122
 42
-0.163428
  0
VERTEX
  8
0
 10
129.286221
 20
208.784140
 42
-0.031858
  0
VERTEX
  8
0
 10
129.698440
 20
206.329694
 42
-0.020670
  0
VERTEX
  8
0
 10
129.935881
 20
202.465393
 42
-0.005009
  0
VERTEX
  8
0
 10
130.000000
 20
196.064646
 42
0.003331
  0
VERTEX
  8
0
 10
130.055241
 20
187.772920
 42
0.041744
  0
VERTEX
  8
0
 10
130.358035
 20
184.653449
 42
0.100381
  0
VERTEX
  8
0
 10
131.146857
 20
182.680172
 42
0.056668
  0
VERTEX
  8
0
 10
132.800758
 20
180.690886
 42
0.000000
  0
VERTEX
  8
0
 10
135.601516
 20
178.007590
 42
0.000000
  0
VERTEX
  8
0
 10
139.550758
 20
182.128800
 42
0.015210
  0
VERTEX
  8
0
 10
141.164350
 20
183.918579
 42
0.042691
  0
VERTEX
  8
0
 10
142.140961
 20
185.292563
 42
0.080230
  0
VERTEX
  8
0
 10
142.509833
 20
186.236643
 42
0.374042
  0
VERTEX
  8
0
 10
142.250000
 20
186.708338
 42
-0.266302
  0
VERTEX
  8
0
 10
141.633985
 20
187.441435
 42
-0.021616
  0
VERTEX
  8
0
 10
141.282572
 20
190.027113
 42
-0.018074
  0
VERTEX
  8
0
 10
141.061518
 20
193.990904
 42
-0.004892
  0
VERTEX
  8
0
 10
141.000000
 20
200.278614
 42
0.003319
  0
VERTEX
  8
0
 10
140.943817
 20
208.741452
 42
0.038637
  0
VERTEX
  8
0
 10
140.644899
 20
212.034898
 42
0.091724
  0
VERTEX
  8
0
 10
139.879940
 20
214.126061
 42
0.057654
  0
VERTEX
  8
0
 10
138.302881
 20
216.205748
 42
0.000000
  0
VERTEX
  8
0
 10
135.605763
 20
219.020933
 42
0.000000
  0
VERTEX
  8
0
 10
131.847447
 20
215.351036
 42
-0.012397
  0
VERTEX
  8
0
 10
129.741468
 20
213.394211
 42
-0.075338
  0
VERTEX
  8
0
 10
128.495043
 20
212.589094
 42
-0.160718
  0
VERTEX
  8
0
 10
127.521148
 20
212.487035
 42
-0.120180
  0
VERTEX
  8
0
 10
126.544565
 20
212.963014
 42
-0.172134
  0
VERTEX
  8
0
 10
125.547150
 20
214.637779
 42
-0.027717
  0
VERTEX
  8
0
 10
125.005568
 20
218.458857
 42
-0.025067
  0
VERTEX
  8
0
 10
124.873622
 20
222.200057
 42
-0.409865
  0
VERTEX
  8
0
 10
125.685549
 20
223.000000
 42
-0.138223
  0
VERTEX
  8
0
 10
126.068239
 20
222.892146
 42
-0.017184
  0
VERTEX
  8
0
 10
126.796836
 20
222.410853
 42
-0.019205
  0
VERTEX
  8
0
 10
127.638310
 20
221.762430
 42
-0.014811
  0
VERTEX
  8
0
 10
128.505968
 20
220.994394
 42
0.000000
  0
VERTEX
  8
0
 10
130.640838
 20
218.988787
 42
0.000000
  0
VERTEX
  8
0
 10
133.020386
 20
221.521700
 42
0.000000
  0
VERTEX
  8
0
 10
135.399933
 20
224.054612
 42
0.000000
  0
VERTEX
  8
0
 10
132.727273
 20
226.727273
 42
0.000000
  0
VERTEX
  8
0
 10
130.054612
 20
229.399933
 42
0.000000
  0
VERTEX
  8
0
 10
127.559243
 20
227.055656
 42
0.000000
  0
VERTEX
  8
0
 10
125.063874
 20
224.711379
 42
0.000000
  0
VERTEX
  8
0
 10
124.781937
 20
236.896856
 42
0.000000
  0
VERTEX
  8
0
 10
124.500000
 20
249.082334
 42
0.000000
  0
SEQEND
  0
POLYLINE
  8
0
 66
1
 70
1
  0
VERTEX
  8
0
 10
153.224972
 20
241.726484
 42
0.000000
  0
VERTEX
  8
0
 10
146.000000
 20
234.452968
 42
0.000000
  0
VERTEX
  8
0
 10
146.000000
 20
224.426484
 42
-0.008563
  0
VERTEX
  8
0
 10
145.926031
 20
220.107483
 42
-0.017526
  0
VERTEX
  8
0
 10
145.691511
 20
216.728672
 42
-0.017419
  0
VERTEX
  8
0
 10
145.338758
 20
214.210581
 42
-0.154047
  0
VERTEX
  8
0
 10
144.827126
 20
213.227126
 42
0.085022
  0
VERTEX
  8
0
 10
144.328053
 20
212.521753
 42
0.111996
  0
VERTEX
  8
0
 10
144.154251
 20
211.755561
 42
0.080304
  0
VERTEX
  8
0
 10
144.308486
 20
210.801437
 42
0.026756
  0
VERTEX
  8
0
 10
144.827126
 20
209.480073
 42
-0.048528
  0
VERTEX
  8
0
 10
145.278482
 20
208.164682
 42
-0.018668
  0
VERTEX
  8
0
 10
145.655468
 20
206.268292
 42
-0.018277
  0
VERTEX
  8
0
 10
145.913915
 20
204.166515
 42
-0.021454
  0
VERTEX
  8
0
 10
146.000000
 20
202.161155
 42
0.028779
  0
VERTEX
  8
0
 10
146.161172
 20
199.363316
 42
0.083082
  0
VERTEX
  8
0
 10
146.697657
 20
197.503712
 42
0.070423
  0
VERTEX
  8
0
 10
147.863445
 20
195.752237
 42
0.016724
  0
VERTEX
  8
0
 10
150.287852
 20
193.208208
 42
0.007738
  0
VERTEX
  8
0
 10
151.982481
 20
191.595774
 42
0.011363
  0
VERTEX
  8
0
 10
153.525340
 20
190.236161
 42
0.006877
  0
VERTEX
  8
0
 10
154.848075
 20
189.153617
 42
0.169628
  0
VERTEX
  8
0
 10
155.287852
 20
189.000000
 42
0.387555
  0
VERTEX
  8
0
 10
155.574006
 20
189.261003
 42
0.004974
  0
VERTEX
  8
0
 10
155.790806
 20
191.901532
 42
0.011234
  0
VERTEX
  8
0
 10
155.948793
 20
195.090183
 42
0.006760
  0
VERTEX
  8
0
 10
156.000000
 20
198.877555
 42
-0.007661
  0
VERTEX
  8
0
 10
156.070915
 20
203.505588
 42
-0.022349
  0
VERTEX
  8
0
 10
156.311312
 20
206.690607
 42
-0.029383
  0
VERTEX
  8
0
 10
156.703138
 20
208.858939
 42
-0.161520
  0
VERTEX
  8
0
 10
157.323794
 20
209.853762
 42
-0.308232
  0
VERTEX
  8
0
 10
159.045000
 20
210.017320
 42
-0.214392
  0
VERTEX
  8
0
 10
160.259066
 20
208.404158
 42
-0.048852
  0
VERTEX
  8
0
 10
160.862645
 20
203.606440
 42
-0.006881
  0
VERTEX
  8
0
 10
161.000000
 20
193.625686
 42
0.000000
  0
VERTEX
  8
0
 10
161.000000
 20
178.651372
 42
0.000000
  0
VERTEX
  8
0
 10
158.623515
 20
180.883963
 42
0.000000
  0
VERTEX
  8
0
 10
156.247031
 20
183.116555
 42
0.000000
  0
VERTEX
  8
0
 10
153.373515
 20
180.615154
 42
0.000000
  0
VERTEX
  8
0
 10
150.500000
 20
178.113752
 42
0.000000
  0
VERTEX
  8
0
 10
153.249632
 20
175.329971
 42
0.000000
  0
VERTEX
  8
0
 10
155.999265
 20
172.546190
 42
0.000000
  0
VERTEX
  8
0
 10
163.999632
 20
180.499635
 42
0.000000
  0
VERTEX
  8
0
 10
172.000000
 20
188.453080
 42
0.000000
  0
VERTEX
  8
0
 10
172.000000
 20
198.526540
 42
-0.008359
  0
VERTEX
  8
0
 10
172.073691
 20
202.934248
 42
-0.018155
  0
VERTEX
  8
0
 10
172.309562
 20
206.310925
 42
-0.019018
  0
VERTEX
  8
0
 10
172.669188
 20
208.789683
 42
-0.151976
  0
VERTEX
  8
0
 10
173.200000
 20
209.800000
 42
0.049631
  0
VERTEX
  8
0
 10
173.734592
 20
210.452741
 42
0.147822
  0
VERTEX
  8
0
 10
173.900000
 20
211.000000
 42
0.147822
  0
VERTEX
  8
0
 10
173.734592
 20
211.547259
 42
0.049631
  0
VERTEX
  8
0
 10
173.200000
 20
212.200000
 42
-0.124123
  0
VERTEX
  8
0
 10
172.734921
 20
212.978664
 42
-0.025693
  0
VERTEX
  8
0
 10
172.352500
 20
214.540972
 42
-0.025532
  0
VERTEX
  8
0
 10
172.088121
 20
216.449753
 42
-0.021648
  0
VERTEX
  8
0
 10
172.000000
 20
218.484160
 42
0.028312
  0
VERTEX
  8
0
 10
171.821632
 20
221.631629
 42
0.092430
  0
VERTEX
  8
0
 10
171.212464
 20
223.618081
 42
0.067183
  0
VERTEX
  8
0
 10
169.826134
 20
225.576240
 42
0.010356
  0
VERTEX
  8
0
 10
166.500000
 20
229.000000
 42
0.000000
  0
VERTEX
  8
0
 10
161.000000
 20
234.431680
 42
0.000000
  0
VERTEX
  8
0
 10
161.000000
 20
223.774857
 42
-0.009480
  0
VERTEX
  8
0
 10
160.867089
 20
216.765078
 42
-0.070325
  0
VERTEX
  8
0
 10
160.276492
 20
213.488561
 42
-0.291914
  0
VERTEX
  8
0
 10
159.117391
 20
212.543553
 42
-0.204970
  0
VERTEX
  8
0
 10
157.456195
 20
213.036355
 42
-0.167228
  0
VERTEX
  8
0
 10
156.710277
 20
214.262085
 42
-0.030543
  0
VERTEX
  8
0
 10
156.296335
 20
216.924778
 42
-0.019157
  0
VERTEX
  8
0
 10
156.061342
 20
221.204853
 42
-0.004135
  0
VERTEX
  8
0
 10
156.000000
 20
228.622445
 42
-0.004376
  0
VERTEX
  8
0
 10
156.048249
 20
234.135418
 42
-0.007288
  0
VERTEX
  8
0
 10
156.197182
 20
238.776593
 42
-0.002123
  0
VERTEX
  8
0
 10
156.399224
 20
242.742567
 42
-0.398153
  0
VERTEX
  8
0
 10
156.671259
 20
243.000000
 42
-0.128226
  0
VERTEX
  8
0
 10
157.038606
 20
242.904218
 42
-0.019293
  0
VERTEX
  8
0
 10
157.693675
 20
242.503760
 42
-0.020593
  0
VERTEX
  8
0
 10
158.445301
 20
241.957506
 42
-0.016482
  0
VERTEX
  8
0
 10
159.209205
 20
241.310672
 42
0.039470
  0
VERTEX
  8
0
 10
160.389312
 20
240.401074
 42
0.199477
  0
VERTEX
  8
0
 10
161.189914
 20
240.252092
 42
0.130871
  0
VERTEX
  8
0
 10
162.058410
 20
240.693329
 42
0.013769
  0
VERTEX
  8
0
 10
163.727273
 20
242.272727
 42
0.012658
  0
VERTEX
  8
0
 10
165.368680
 20
243.999418
 42
0.142026
  0
VERTEX
  8
0
 10
165.778508
 20
244.842220
 42
0.199833
  0
VERTEX
  8
0
 10
165.596635
 20
245.640406
 42
0.029274
  0
VERTEX
  8
0
 10
164.534340
 20
246.962055
 42
0.027585
  0
VERTEX
  8
0
 10
163.745992
 20
247.742057
 42
0.030671
  0
VERTEX
  8
0
 10
162.902781
 20
248.401354
 42
0.032179
  0
VERTEX
  8
0
 10
162.123154
 20
248.866504
 42
0.118957
  0
VERTEX
  8
0
 10
161.569985
 20
249.000000
 42
0.174851
  0
VERTEX
  8
0
 10
160.874316
 20
248.749051
 42
0.006124
  0
VERTEX
  8
0
 10
158.656621
 20
246.863405
 42
0.010734
  0
VERTEX
  8
0
 10
156.074701
 20
244.513597
 42
0.007228
  0
SEQEND
  0
POLYLINE
  8
0
 66
1
 70
1
  0
VERTEX
  8
0
 10
177.026356
 20
240.377236
 42
0.017475
  0
VERTEX
  8
0
 10
175.594337
 20
238.626483
 42
0.057515
  0
VERTEX
  8
0
 10
174.833719
 20
237.345227
 42
0.104857
  0
VERTEX
  8
0
 10
174.628414
 20
236.390819
 42
0.199675
  0
VERTEX
  8
0
 10
174.922764
 20
235.677236
 42
-0.168385
  0
VERTEX
  8
0
 10
175.386036
 20
234.722478
 42
-0.009898
  0
VERTEX
  8
0
 10
175.707296
 20
231.465559
 42
-0.012926
  0
VERTEX
  8
0
 10
175.929360
 20
227.253684
 42
-0.006706
  0
VERTEX
  8
0
 10
176.000000
 20
221.987091
 42
0.000000
  0
VERTEX
  8
0
 10
176.000000
 20
209.374182
 42
0.000000
  0
VERTEX
  8
0
 10
179.008197
 20
206.492147
 42
0.000000
  0
VERTEX
  8
0
 10
182.016393
 20
203.610112
 42
0.000000
  0
VERTEX
  8
0
 10
185.804325
 20
207.308928
 42
-0.039280
  0
VERTEX
  8
0
 10
188.784518
 20
209.793625
 42
-0.273681
  0
VERTEX
  8
0
 10
190.599298
 20
209.943096
 42
-0.250436
  0
VERTEX
  8
0
 10
191.718314
 20
208.401601
 42
-0.034298
  0
VERTEX
  8
0
 10
192.000000
 20
204.300000
 42
-0.014324
  0
VERTEX
  8
0
 10
191.911813
 20
201.222245
 42
-0.210684
  0
VERTEX
  8
0
 10
191.430140
 20
200.280048
 42
-0.337061
  0
VERTEX
  8
0
 10
190.580579
 20
200.252248
 42
-0.029526
  0
VERTEX
  8
0
 10
188.790795
 20
201.689328
 42
0.039470
  0
VERTEX
  8
0
 10
187.610688
 20
202.598926
 42
0.199477
  0
VERTEX
  8
0
 10
186.810086
 20
202.747908
 42
0.130871
  0
VERTEX
  8
0
 10
185.941590
 20
202.306671
 42
0.013769
  0
VERTEX
  8
0
 10
184.272727
 20
200.727273
 42
0.012658
  0
VERTEX
  8
0
 10
182.631320
 20
199.000582
 42
0.142026
  0
VERTEX
  8
0
 10
182.221492
 20
198.157780
 42
0.199833
  0
VERTEX
  8
0
 10
182.403365
 20
197.359594
 42
0.029274
  0
VERTEX
  8
0
 10
183.465660
 20
196.037945
 42
0.050417
  0
VERTEX
  8
0
 10
185.029224
 20
194.626011
 42
0.135021
  0
VERTEX
  8
0
 10
186.418586
 20
194.094603
 42
0.162465
  0
VERTEX
  8
0
 10
187.718416
 20
194.392403
 42
0.082873
  0
VERTEX
  8
0
 10
189.000000
 20
195.500000
 42
-0.031583
  0
VERTEX
  8
0
 10
189.541110
 20
196.074049
 42
-0.034151
  0
VERTEX
  8
0
 10
190.136985
 20
196.559375
 42
-0.036411
  0
VERTEX
  8
0
 10
190.700558
 20
196.899069
 42
-0.117955
  0
VERTEX
  8
0
 10
191.122445
 20
197.000000
 42
-0.387100
  0
VERTEX
  8
0
 10
191.474946
 20
196.678992
 42
-0.005113
  0
VERTEX
  8
0
 10
191.742218
 20
193.475000
 42
-0.011394
  0
VERTEX
  8
0
 10
191.936899
 20
189.601180
 42
-0.006857
  0
VERTEX
  8
0
 10
192.000000
 20
185.000000
 42
0.000000
  0
VERTEX
  8
0
 10
192.000000
 20
173.000000
 42
0.000000
  0
VERTEX
  8
0
 10
189.200000
 20
173.000000
 42
-0.038048
  0
VERTEX
  8
0
 10
188.040120
 20
173.088390
 42
-0.034770
  0
VERTEX
  8
0
 10
186.870572
 20
173.351928
 42
-0.036578
  0
VERTEX
  8
0
 10
185.858500
 20
173.737813
 42
-0.087222
  0
VERTEX
  8
0
 10
185.201947
 20
174.198053
 42
0.164241
  0
VERTEX
  8
0
 10
184.428567
 20
174.581053
 42
0.142943
  0
VERTEX
  8
0
 10
183.531255
 20
174.445699
 42
0.068906
  0
VERTEX
  8
0
 10
182.339481
 20
173.679670
 42
0.015229
  0
VERTEX
  8
0
 10
180.540858
 20
172.039601
 42
0.018800
  0
VERTEX
  8
0
 10
179.251624
 20
170.692422
 42
0.028612
  0
VERTEX
  8
0
 10
178.247871
 20
169.421865
 42
0.027778
  0
VERTEX
  8
0
 10
177.584291
 20
168.353659
 42
0.269746
  0
VERTEX
  8
0
 10
177.597929
 20
167.841548
 42
0.188530
  0
VERTEX
  8
0
 10
178.034666
 20
167.513287
 42
0.023990
  0
VERTEX
  8
0
 10
179.203246
 20
167.247205
 42
0.025403
  0
VERTEX
  8
0
 10
180.680404
 20
167.061420
 42
0.018582
  0
VERTEX
  8
0
 10
182.332477
 20
167.000000
 42
0.054880
  0
VERTEX
  8
0
 10
184.990990
 20
167.292679
 42
0.089662
  0
VERTEX
  8
0
 10
187.075343
 20
168.169378
 42
0.046735
  0
VERTEX
  8
0
 10
189.526294
 20
170.112727
 42
0.006136
  0
VERTEX
  8
0
 10
194.273460
 20
174.772124
 42
0.000000
  0
VERTEX
  8
0
 10
202.000000
 20
182.544247
 42
0.000000
  0
VERTEX
  8
0
 10
202.000000
 20
195.049617
 42
-0.005966
  0
VERTEX
  8
0
 10
202.071909
 20
201.076449
 42
-0.018094
  0
VERTEX
  8
0
 10
202.317951
 20
205.169037
 42
-0.024819
  0
VERTEX
  8
0
 10
202.732076
 20
207.988103
 42
-0.104257
  0
VERTEX
  8
0
 10
203.400087
 20
209.553891
 42
0.033417
  0
VERTEX
  8
0
 10
204.098099
 20
210.707332
 42
0.119918
  0
VERTEX
  8
0
 10
204.300173
 20
211.537765
 42
0.122712
  0
VERTEX
  8
0
 10
204.095962
 20
212.357313
 42
0.035757
  0
VERTEX
  8
0
 10
203.400087
 20
213.467527
 42
-0.078280
  0
VERTEX
  8
0
 10
202.860818
 20
214.515793
 42
-0.026778
  0
VERTEX
  8
0
 10
202.411275
 20
216.170017
 42
-0.025857
  0
VERTEX
  8
0
 10
202.103089
 20
218.078514
 42
-0.027106
  0
VERTEX
  8
0
 10
202.000000
 20
219.978721
 42
0.033693
  0
VERTEX
  8
0
 10
201.813946
 20
222.736643
 42
0.087431
  0
VERTEX
  8
0
 10
201.210193
 20
224.627051
 42
0.064795
  0
VERTEX
  8
0
 10
199.885811
 20
226.510035
 42
0.012650
  0
VERTEX
  8
0
 10
197.000000
 20
229.500000
 42
0.000000
  0
VERTEX
  8
0
 10
192.000000
 20
234.424816
 42
0.000000
  0
VERTEX
  8
0
 10
192.000000
 20
224.794196
 42
-0.007211
  0
VERTEX
  8
0
 10
191.903025
 20
218.070801
 42
-0.041054
  0
VERTEX
  8
0
 10
191.507592
 20
214.519987
 42
-0.099039
  0
VERTEX
  8
0
 10
190.744753
 20
212.666305
 42
-0.250809
  0
VERTEX
  8
0
 10
189.500000
 20
212.000000
 42
-0.268892
  0
VERTEX
  8
0
 10
188.216836
 20
212.743849
 42
-0.090048
  0
VERTEX
  8
0
 10
187.465034
 20
214.866002
 42
-0.035024
  0
VERTEX
  8
0
 10
187.087399
 20
219.011787
 42
-0.005205
  0
VERTEX
  8
0
 10
187.000000
 20
227.407473
 42
0.003873
  0
VERTEX
  8
0
 10
186.941741
 20
234.928045
 42
0.035933
  0
VERTEX
  8
0
 10
186.658347
 20
238.164927
 42
0.084760
  0
VERTEX
  8
0
 10
185.985544
 20
240.140249
 42
0.079973
  0
VERTEX
  8
0
 10
184.685549
 20
241.825686
 42
0.043412
  0
VERTEX
  8
0
 10
182.583659
 20
243.482108
 42
0.194279
  0
VERTEX
  8
0
 10
181.076032
 20
243.782813
 42
0.145497
  0
VERTEX
  8
0
 10
179.514327
 20
242.977951
 42
0.021360
  0
SEQEND
  0
POLYLINE
  8
0
 66
1
 70
1
  0
VERTEX
  8
0
 10
22.000000
 20
137.620191
 42
0.000000
  0
VERTEX
  8
0
 10
22.000000
 20
125.000000
 42
0.000000
  0
VERTEX
  8
0
 10
27.095708
 20
125.000000
 42
0.048861
  0
VERTEX
  8
0
 10
31.330186
 20
125.414790
 42
0.073804
  0
VERTEX
  8
0
 10
34.813933
 20
126.657432
 42
0.081997
  0
VERTEX
  8
0
 10
37.525309
 20
128.734062
 42
0.077783
  0
VERTEX
  8
0
 10
39.483842
 20
131.607192
 42
0.058046
  0
VERTEX
  8
0
 10
40.807172
 20
135.507465
 42
0.085453
  0
VERTEX
  8
0
 10
40.953878
 20
139.114478
 42
0.087994
  0
VERTEX
  8
0
 10
39.891041
 20
142.486022
 42
0.065319
  0
VERTEX
  8
0
 10
37.644924
 20
145.690392
 42
0.026806
  0
VERTEX
  8
0
 10
35.544394
 20
147.749241
 42
0.078626
  0
VERTEX
  8
0
 10
33.838092
 20
148.830565
 42
0.067691
  0
VERTEX
  8
0
 10
31.739988
 20
149.417433
 42
0.016341
  0
VERTEX
  8
0
 10
28.144924
 20
149.795898
 42
0.000000
  0
VERTEX
  8
0
 10
22.000000
 20
150.240382
 42
0.000000
  0
SEQEND
  0
POLYLINE
  8
0
 66
1
 70
1
  0
VERTEX
  8
0
 10
34.450000
 20
142.924511
 42
-0.121466
  0
VERTEX
  8
0
 10
36.052400
 20
140.379441
 42
-0.097756
  0
VERTEX
  8
0
 10
36.457621
 20
137.161507
 42
-0.094397
  0
VERTEX
  8
0
 10
35.606474
 20
133.934193
 42
-0.103956
  0
VERTEX
  8
0
 10
33.644236
 20
131.370408
 42
-0.038354
  0
VERTEX
  8
0
 10
32.409544
 20
130.463168
 42
-0.032341
  0
VERTEX
  8
0
 10
30.979984
 20
129.696307
 42
-0.033583
  0
VERTEX
  8
0
 10
29.577352
 20
129.167446
 42
-0.073488
  0
VERTEX
  8
0
 10
28.444236
 20
129.000000
 42
-0.105645
  0
VERTEX
  8
0
 10
27.037226
 20
129.300642
 42
-0.221583
  0
VERTEX
  8
0
 10
26.321224
 20
130.127519
 42
-0.065409
  0
VERTEX
  8
0
 10
26.045485
 20
131.990922
 42
-0.004069
  0
VERTEX
  8
0
 10
26.000000
 20
137.579455
 42
0.000000
  0
VERTEX
  8
0
 10
26.000000
 20
146.158911
 42
0.000000
  0
VERTEX
  8
0
 10
29.250000
 20
145.481744
 42
-0.036586
  0
VERTEX
  8
0
 10
30.637111
 20
145.085037
 42
-0.026343
  0
VERTEX
  8
0
 10
32.118125
 20
144.451226
 42
-0.026773
  0
VERTEX
  8
0
 10
33.469808
 20
143.694121
 42
-0.050800
  0
SEQEND
  0
POLYLINE
  8
0
 66
1
 70
1
  0
VERTEX
  8
0
 10
89.015313
 20
145.819551
 42
0.035310
  0
VERTEX
  8
0
 10
89.399070
 20
140.652622
 42
0.317735
  0
VERTEX
  8
0
 10
90.877736
 20
139.096934
 42
0.405624
  0
VERTEX
  8
0
 10
92.427868
 20
140.101951
 42
0.038855
  0
VERTEX
  8
0
 10
93.154236
 20
145.000000
 42
0.013248
  0
VERTEX
  8
0
 10
93.266218
 20
147.599190
 42
0.099258
  0
VERTEX
  8
0
 10
93.044953
 20
148.806187
 42
0.189536
  0
VERTEX
  8
0
 10
92.432060
 20
149.459088
 42
0.075212
  0
VERTEX
  8
0
 10
91.233864
 20
149.819551
 42
0.068380
  0
VERTEX
  8
0
 10
90.001650
 20
149.826374
 42
0.237677
  0
VERTEX
  8
0
 10
89.362558
 20
149.391297
 42
0.115739
  0
VERTEX
  8
0
 10
89.068447
 20
148.352649
 42
0.012259
  0
SEQEND
  0
POLYLINE
  8
0
 66
1
 70
1
  0
VERTEX
  8
0
 10
68.034319
 20
135.750000
 42
0.004662
  0
VERTEX
  8
0
 10
68.069849
 20
129.954801
 42
0.030022
  0
VERTEX
  8
0
 10
68.290585
 20
127.035947
 42
0.071338
  0
VERTEX
  8
0
 10
68.728837
 20
125.499979
 42
0.295807
  0
VERTEX
  8
0
 10
69.500000
 20
125.000000
 42
0.233840
  0
VERTEX
  8
0
 10
70.230940
 20
125.361620
 42
0.107478
  0
VERTEX
  8
0
 10
70.693128
 20
126.348968
 42
0.046730
  0
VERTEX
  8
0
 10
70.937668
 20
128.215264
 42
0.009224
  0
VERTEX
  8
0
 10
71.000000
 20
131.593805
 42
0.000000
  0
VERTEX
  8
0
 10
71.000000
 20
138.187610
 42
0.000000
  0
VERTEX
  8
0
 10
77.958011
 20
130.843805
 42
0.000000
  0
VERTEX
  8
0
 10
84.916021
 20
123.500000
 42
0.000000
  0
VERTEX
  8
0
 10
84.958011
 20
134.250000
 42
0.004654
  0
VERTEX
  8
0
 10
84.926687
 20
140.047497
 42
0.030033
  0
VERTEX
  8
0
 10
84.708145
 20
142.965332
 42
0.071476
  0
VERTEX
  8
0
 10
84.270949
 20
144.500076
 42
0.295848
  0
VERTEX
  8
0
 10
83.500000
 20
145.000000
 42
0.236942
  0
VERTEX
  8
0
 10
82.766377
 20
144.631669
 42
0.104549
  0
VERTEX
  8
0
 10
82.299807
 20
143.619280
 42
0.045633
  0
VERTEX
  8
0
 10
82.045576
 20
141.708973
 42
0.009005
  0
VERTEX
  8
0
 10
81.965681
 20
138.250000
 42
0.000000
  0
VERTEX
  8
0
 10
81.931361
 20
131.500000
 42
0.000000
  0
VERTEX
  8
0
 10
75.000000
 20
139.000000
 42
0.000000
  0
VERTEX
  8
0
 10
68.068639
 20
146.500000
 42
0.000000
  0
SEQEND
  0
POLYLINE
  8
0
 66
1
 70
1
  0
VERTEX
  8
0
 10
275.645405
 20
138.742947
 42
-0.001496
  0
VERTEX
  8
0
 10
274.153107
 20
135.553656
 42
-0.001513
  0
VERTEX
  8
0
 10
272.647318
 20
132.385350
 42
-0.001472
  0
VERTEX
  8
0
 10
271.319901
 20
129.634836
 42
-0.006167
  0
VERTEX
  8
0
 10
270.496353
 20
127.992947
 42
0.008514
  0
VERTEX
  8
0
 10
269.553946
 20
126.091883
 42
0.153318
  0
VERTEX
  8
0
 10
269.460905
 20
125.426496
 42
0.326453
  0
VERTEX
  8
0
 10
269.809918
 20
125.085098
 42
0.035835
  0
VERTEX
  8
0
 10
270.995759
 20
125.000000
 42
0.096983
  0
VERTEX
  8
0
 10
271.899304
 20
125.176921
 42
0.069758
  0
VERTEX
  8
0
 10
272.790654
 20
125.694414
 42
0.063556
  0
VERTEX
  8
0
 10
273.579746
 20
126.494383
 42
0.056080
  0
VERTEX
  8
0
 10
274.181954
 20
127.500000
 42
-0.057237
  0
VERTEX
  8
0
 10
274.946769
 20
128.770497
 42
-0.113278
  0
VERTEX
  8
0
 10
275.850183
 20
129.514567
 42
-0.089480
  0
VERTEX
  8
0
 10
277.134844
 20
129.890800
 42
-0.026610
  0
VERTEX
  8
0
 10
279.185266
 20
130.000000
 42
-0.025072
  0
VERTEX
  8
0
 10
281.258968
 20
129.895949
 42
-0.094947
  0
VERTEX
  8
0
 10
282.497951
 20
129.526767
 42
-0.124503
  0
VERTEX
  8
0
 10
283.330205
 20
128.786973
 42
-0.058339
  0
VERTEX
  8
0
 10
284.000000
 20
127.500000
 42
0.056297
  0
VERTEX
  8
0
 10
284.525103
 20
126.480936
 42
0.069558
  0
VERTEX
  8
0
 10
285.234546
 20
125.683651
 42
0.077528
  0
VERTEX
  8
0
 10
286.063433
 20
125.175464
 42
0.099135
  0
VERTEX
  8
0
 10
286.939712
 20
125.000000
 42
0.282014
  0
VERTEX
  8
0
 10
287.909350
 20
125.594157
 42
0.195990
  0
VERTEX
  8
0
 10
288.020375
 20
126.909272
 42
0.031066
  0
VERTEX
  8
0
 10
286.834474
 20
130.013074
 42
0.001524
  0
VERTEX
  8
0
 10
282.252766
 20
140.000000
 42
0.000000
  0
VERTEX
  8
0
 10
279.246743
 20
146.500000
 42
0.000000
  0
SEQEND
  0
POLYLINE
  8
0
 66
1
 70
1
  0
VERTEX
  8
0
 10
280.984687
 20
134.250000
 42
-0.158219
  0
VERTEX
  8
0
 10
280.836402
 20
133.773316
 42
-0.098647
  0
VERTEX
  8
0
 10
280.408002
 20
133.367188
 42
-0.080065
  0
VERTEX
  8
0
 10
279.763678
 20
133.093045
 42
-0.060695
  0
VERTEX
  8
0
 10
279.000000
 20
133.000000
 42
-0.039748
  0
VERTEX
  8
0
 10
277.598136
 20
133.111617
 42
-0.292965
  0
VERTEX
  8
0
 10
277.120483
 20
133.538121
 42
-0.177244
  0
VERTEX
  8
0
 10
277.183838
 20
134.339282
 42
-0.015411
  0
VERTEX
  8
0
 10
278.107487
 20
136.200841
 42
-0.022513
  0
VERTEX
  8
0
 10
278.722140
 20
137.234622
 42
-0.165834
  0
VERTEX
  8
0
 10
279.169096
 20
137.581997
 42
-0.279935
  0
VERTEX
  8
0
 10
279.595734
 20
137.489326
 42
-0.061692
  0
VERTEX
  8
0
 10
280.092174
 20
136.885100
 42
-0.033977
  0
VERTEX
  8
0
 10
280.429182
 20
136.263233
 42
-0.025536
  0
VERTEX
  8
0
 10
280.716195
 20
135.539686
 42
-0.026062
  0
VERTEX
  8
0
 10
280.916569
 20
134.828049
 42
-0.052574
  0
SEQEND
  0
POLYLINE
  8
0
 66
1
 70
1
  0
VERTEX
  8
0
 10
46.923077
 20
142.076923
 42
0.033637
  0
VERTEX
  8
0
 10
45.440988
 20
140.380780
 42
0.068913
  0
VERTEX
  8
0
 10
44.575653
 20
138.845654
 42
0.065756
  0
VERTEX
  8
0
 10
44.136944
 20
137.086210
 42
0.028267
  0
VERTEX
  8
0
 10
44.000000
 20
134.665817
 42
0.026167
  0
VERTEX
  8
0
 10
44.130107
 20
132.181426
 42
0.076514
  0
VERTEX
  8
0
 10
44.565596
 20
130.526906
 42
0.082135
  0
VERTEX
  8
0
 10
45.458370
 20
129.146263
 42
0.033358
  0
VERTEX
  8
0
 10
47.076725
 20
127.588894
 42
0.159599
  0
VERTEX
  8
0
 10
53.436207
 20
125.026848
 42
0.165861
  0
VERTEX
  8
0
 10
59.965518
 20
126.779727
 42
0.173938
  0
VERTEX
  8
0
 10
63.858887
 20
132.059924
 42
0.173383
  0
VERTEX
  8
0
 10
63.514703
 20
138.619052
 42
0.117443
  0
VERTEX
  8
0
 10
60.530338
 20
142.715681
 42
0.126142
  0
VERTEX
  8
0
 10
56.093321
 20
144.894294
 42
0.127520
  0
VERTEX
  8
0
 10
51.193581
 20
144.657937
 42
0.121474
  0
SEQEND
  0
POLYLINE
  8
0
 66
1
 70
1
  0
VERTEX
  8
0
 10
58.545455
 20
139.545455
 42
-0.040209
  0
VERTEX
  8
0
 10
59.484759
 20
138.441577
 42
-0.035540
  0
VERTEX
  8
0
 10
60.278977
 20
137.156575
 42
-0.037261
  0
VERTEX
  8
0
 10
60.826604
 20
135.889878
 42
-0.083587
  0
VERTEX
  8
0
 10
61.000000
 20
134.859906
 42
-0.124559
  0
VERTEX
  8
0
 10
60.407190
 20
132.517195
 42
-0.076909
  0
VERTEX
  8
0
 10
58.679818
 20
130.241175
 42
-0.076160
  0
VERTEX
  8
0
 10
56.323538
 20
128.573011
 42
-0.116529
  0
VERTEX
  8
0
 10
53.898266
 20
128.000000
 42
-0.129829
  0
VERTEX
  8
0
 10
51.600818
 20
128.606780
 42
-0.072376
  0
VERTEX
  8
0
 10
49.301014
 20
130.395095
 42
-0.071699
  0
VERTEX
  8
0
 10
47.584022
 20
132.788928
 42
-0.120341
  0
VERTEX
  8
0
 10
47.000000
 20
135.180313
 42
-0.145622
  0
VERTEX
  8
0
 10
47.607708
 20
137.222663
 42
-0.055062
  0
VERTEX
  8
0
 10
49.519020
 20
139.545868
 42
-0.055011
  0
VERTEX
  8
0
 10
51.903094
 20
141.405498
 42
-0.139017
  0
VERTEX
  8
0
 10
54.000000
 20
142.000000
 42
-0.087500
  0
VERTEX
  8
0
 10
54.975261
 20
141.828012
 42
-0.036522
  0
VERTEX
  8
0
 10
56.197727
 20
141.278977
 42
-0.034710
  0
VERTEX
  8
0
 10
57.451898
 20
140.484747
 42
-0.037888
  0
SEQEND
  0
POLYLINE
  8
0
 66
1
 70
1
  0
VERTEX
  8
0
 10
95.000000
 20
143.547717
 42
0.122955
  0
VERTEX
  8
0
 10
95.150718
 20
142.944087
 42
0.106104
  0
VERTEX
  8
0
 10
95.573056
 20
142.443465
 42
0.092969
  0
VERTEX
  8
0
 10
96.217877
 20
142.113325
 42
0.072071
  0
VERTEX
  8
0
 10
97.000000
 20
142.000000
 42
-0.165398
  0
VERTEX
  8
0
 10
98.081504
 20
141.632181
 42
-0.172700
  0
VERTEX
  8
0
 10
98.691176
 20
140.687500
 42
-0.052938
  0
VERTEX
  8
0
 10
98.949850
 20
138.634096
 42
-0.004884
  0
VERTEX
  8
0
 10
99.000000
 20
133.500000
 42
0.004884
  0
VERTEX
  8
0
 10
99.050150
 20
128.365904
 42
0.052938
  0
VERTEX
  8
0
 10
99.308824
 20
126.312500
 42
0.172700
  0
VERTEX
  8
0
 10
99.918496
 20
125.367819
 42
0.165398
  0
VERTEX
  8
0
 10
101.000000
 20
125.000000
 42
0.165398
  0
VERTEX
  8
0
 10
102.081504
 20
125.367819
 42
0.172700
  0
VERTEX
  8
0
 10
102.691176
 20
126.312500
 42
0.052938
  0
VERTEX
  8
0
 10
102.949850
 20
128.365904
 42
0.004884
  0
VERTEX
  8
0
 10
103.000000
 20
133.500000
 42
-0.003960
  0
VERTEX
  8
0
 10
103.044611
 20
139.131949
 42
-0.069916
  0
VERTEX
  8
0
 10
103.325980
 20
140.927419
 42
-0.232218
  0
VERTEX
  8
0
 10
104.068200
 20
141.721906
 42
-0.091012
  0
VERTEX
  8
0
 10
105.583333
 20
142.000000
 42
0.036783
  0
VERTEX
  8
0
 10
106.646882
 20
142.078347
 42
0.094132
  0
VERTEX
  8
0
 10
107.373247
 20
142.331029
 42
0.162229
  0
VERTEX
  8
0
 10
107.731750
 20
142.734336
 42
0.182975
  0
VERTEX
  8
0
 10
107.753964
 20
143.250000
 42
0.223019
  0
VERTEX
  8
0
 10
107.237216
 20
143.796143
 42
0.035837
  0
VERTEX
  8
0
 10
105.799252
 20
144.244973
 42
0.030501
  0
VERTEX
  8
0
 10
103.770882
 20
144.592987
 42
0.015182
  0
VERTEX
  8
0
 10
101.170631
 20
144.797717
 42
0.008953
  0
VERTEX
  8
0
 10
97.899655
 20
144.896873
 42
0.053117
  0
VERTEX
  8
0
 10
96.198641
 20
144.736960
 42
0.135068
  0
VERTEX
  8
0
 10
95.332694
 20
144.298852
 42
0.211550
  0
SEQEND
  0
POLYLINE
  8
0
 66
1
 70
1
  0
VERTEX
  8
0
 10
123.000000
 20
139.625000
 42
-0.015517
  0
VERTEX
  8
0
 10
122.832815
 20
134.239200
 42
-0.052314
  0
VERTEX
  8
0
 10
122.249331
 20
130.769273
 42
-0.094094
  0
VERTEX
  8
0
 10
121.229197
 20
128.703843
 42
-0.196842
  0
VERTEX
  8
0
 10
119.714248
 20
127.804602
 42
0.072605
  0
VERTEX
  8
0
 10
117.688924
 20
127.195970
 42
0.355843
  0
VERTEX
  8
0
 10
117.205449
 20
126.195549
 42
0.279481
  0
VERTEX
  8
0
 10
118.106121
 20
125.282585
 42
0.061859
  0
VERTEX
  8
0
 10
120.381483
 20
125.000000
 42
0.100176
  0
VERTEX
  8
0
 10
123.260016
 20
125.582566
 42
0.184920
  0
VERTEX
  8
0
 10
124.958126
 20
127.213037
 42
0.094439
  0
VERTEX
  8
0
 10
125.795042
 20
130.467737
 42
0.015844
  0
VERTEX
  8
0
 10
126.000000
 20
136.934259
 42
0.006914
  0
VERTEX
  8
0
 10
125.941509
 20
141.163790
 42
0.039074
  0
VERTEX
  8
0
 10
125.703507
 20
143.405710
 42
0.092962
  0
VERTEX
  8
0
 10
125.247601
 20
144.583715
 42
0.259645
  0
VERTEX
  8
0
 10
124.500000
 20
145.000000
 42
0.208707
  0
VERTEX
  8
0
 10
123.786478
 20
144.688602
 42
0.119473
  0
VERTEX
  8
0
 10
123.319767
 20
143.854167
 42
0.055535
  0
VERTEX
  8
0
 10
123.067225
 20
142.301011
 42
0.012559
  0
SEQEND
  0
POLYLINE
  8
0
 66
1
 70
1
  0
VERTEX
  8
0
 10
130.000000
 20
137.188561
 42
0.029884
  0
VERTEX
  8
0
 10
130.359083
 20
131.186010
 42
0.109037
  0
VERTEX
  8
0
 10
131.612119
 20
127.606383
 42
0.162746
  0
VERTEX
  8
0
 10
133.927932
 20
125.678642
 42
0.093153
  0
VERTEX
  8
0
 10
137.538955
 20
125.000000
 42
0.087016
  0
VERTEX
  8
0
 10
141.184924
 20
125.639359
 42
0.168401
  0
VERTEX
  8
0
 10
143.457722
 20
127.480528
 42
0.111688
  0
VERTEX
  8
0
 10
144.663172
 20
130.956598
 42
0.027846
  0
VERTEX
  8
0
 10
145.000000
 20
137.000000
 42
0.006994
  0
VERTEX
  8
0
 10
144.941370
 20
141.191484
 42
0.039364
  0
VERTEX
  8
0
 10
144.703125
 20
143.416667
 42
0.093584
  0
VERTEX
  8
0
 10
144.246922
 20
144.586019
 42
0.258593
  0
VERTEX
  8
0
 10
143.500000
 20
145.000000
 42
0.220681
  0
VERTEX
  8
0
 10
142.777897
 20
144.664975
 42
0.114101
  0
VERTEX
  8
0
 10
142.313186
 20
143.760850
 42
0.051145
  0
VERTEX
  8
0
 10
142.064712
 20
142.063516
 42
0.010790
  0
VERTEX
  8
0
 10
142.000000
 20
139.065100
 42
-0.021539
  0
VERTEX
  8
0
 10
141.765564
 20
133.625464
 42
-0.081551
  0
VERTEX
  8
0
 10
140.929436
 20
130.335613
 42
-0.158034
  0
VERTEX
  8
0
 10
139.432402
 20
128.646217
 42
-0.163119
  0
VERTEX
  8
0
 10
137.249515
 20
128.183624
 42
-0.078821
  0
VERTEX
  8
0
 10
135.623262
 20
128.636996
 42
-0.202864
  0
VERTEX
  8
0
 10
134.815834
 20
129.518966
 42
-0.071894
  0
VERTEX
  8
0
 10
134.450571
 20
131.344606
 42
-0.004684
  0
VERTEX
  8
0
 10
134.209558
 20
136.750000
 42
0.005580
  0
VERTEX
  8
0
 10
133.984603
 20
141.599864
 42
0.052233
  0
VERTEX
  8
0
 10
133.648094
 20
143.660412
 42
0.157722
  0
VERTEX
  8
0
 10
133.016038
 20
144.626991
 42
0.171351
  0
VERTEX
  8
0
 10
131.959558
 20
145.000000
 42
0.161768
  0
VERTEX
  8
0
 10
130.910896
 20
144.651603
 42
0.172557
  0
VERTEX
  8
0
 10
130.312714
 20
143.753418
 42
0.055857
  0
VERTEX
  8
0
 10
130.052371
 20
141.824939
 42
0.005648
  0
SEQEND
  0
POLYLINE
  8
0
 66
1
 70
1
  0
VERTEX
  8
0
 10
150.571429
 20
143.428571
 42
0.051602
  0
VERTEX
  8
0
 10
149.969897
 20
142.688179
 42
0.038261
  0
VERTEX
  8
0
 10
149.461607
 20
141.763675
 42
0.039048
  0
VERTEX
  8
0
 10
149.113858
 20
140.805504
 42
0.067626
  0
VERTEX
  8
0
 10
149.000000
 20
139.967527
 42
0.140787
  0
VERTEX
  8
0
 10
149.494660
 20
138.245578
 42
0.049766
  0
VERTEX
  8
0
 10
151.081172
 20
136.196819
 42
0.049675
  0
VERTEX
  8
0
 10
153.023572
 20
134.516584
 42
0.154688
  0
VERTEX
  8
0
 10
154.653378
 20
134.000000
 42
-0.186867
  0
VERTEX
  8
0
 10
155.961061
 20
133.493590
 42
-0.106152
  0
VERTEX
  8
0
 10
156.961251
 20
132.093590
 42
-0.107345
  0
VERTEX
  8
0
 10
157.291818
 20
130.419538
 42
-0.194002
  0
VERTEX
  8
0
 10
156.753196
 20
129.153196
 42
-0.088139
  0
VERTEX
  8
0
 10
155.514893
 20
128.288507
 42
-0.128845
  0
VERTEX
  8
0
 10
154.212494
 20
128.054911
 42
-0.149562
  0
VERTEX
  8
0
 10
153.098323
 20
128.494417
 42
-0.133723
  0
VERTEX
  8
0
 10
152.361626
 20
129.500000
 42
0.180810
  0
VERTEX
  8
0
 10
151.535543
 20
130.433997
 42
0.081358
  0
VERTEX
  8
0
 10
149.961699
 20
130.966964
 42
0.102415
  0
VERTEX
  8
0
 10
148.537290
 20
130.910016
 42
0.344403
  0
VERTEX
  8
0
 10
148.000000
 20
130.222506
 42
0.103059
  0
VERTEX
  8
0
 10
148.089730
 20
129.791800
 42
0.016968
  0
VERTEX
  8
0
 10
148.457282
 20
129.020540
 42
0.018033
  0
VERTEX
  8
0
 10
148.960704
 20
128.130421
 42
0.015060
  0
VERTEX
  8
0
 10
149.556704
 20
127.222506
 42
0.177681
  0
VERTEX
  8
0
 10
152.577106
 20
125.120061
 42
0.148291
  0
VERTEX
  8
0
 10
156.505764
 20
125.269565
 42
0.144391
  0
VERTEX
  8
0
 10
159.763636
 20
127.591812
 42
0.167728
  0
VERTEX
  8
0
 10
161.000000
 20
131.173753
 42
0.105108
  0
VERTEX
  8
0
 10
160.596490
 20
133.072046
 42
0.065235
  0
VERTEX
  8
0
 10
159.402757
 20
135.022664
 42
0.067799
  0
VERTEX
  8
0
 10
157.826752
 20
136.508456
 42
0.156395
  0
VERTEX
  8
0
 10
156.293704
 20
137.000000
 42
-0.107231
  0
VERTEX
  8
0
 10
155.801838
 20
137.106714
 42
-0.039438
  0
VERTEX
  8
0
 10
155.176960
 20
137.453075
 42
-0.036865
  0
VERTEX
  8
0
 10
154.532083
 20
137.952185
 42
-0.036445
  0
VERTEX
  8
0
 10
153.964826
 20
138.542382
 42
-0.140582
  0
VERTEX
  8
0
 10
153.281261
 20
140.100654
 42
-0.248364
  0
VERTEX
  8
0
 10
153.754223
 20
141.385085
 42
-0.210607
  0
VERTEX
  8
0
 10
155.191607
 20
141.854973
 42
-0.115270
  0
VERTEX
  8
0
 10
156.978599
 20
141.245438
 42
0.096372
  0
VERTEX
  8
0
 10
158.487432
 20
140.666983
 42
0.263978
  0
VERTEX
  8
0
 10
159.524824
 20
141.036558
 42
0.261785
  0
VERTEX
  8
0
 10
159.745019
 20
142.121127
 42
0.095526
  0
VERTEX
  8
0
 10
158.963645
 20
143.543805
 42
0.148519
  0
VERTEX
  8
0
 10
157.345120
 20
144.611605
 42
0.075653
  0
VERTEX
  8
0
 10
154.908689
 20
144.948216
 42
0.073578
  0
VERTEX
  8
0
 10
152.402221
 20
144.542128
 42
0.120044
  0
SEQEND
  0
POLYLINE
  8
0
 66
1
 70
1
  0
VERTEX
  8
0
 10
162.666667
 20
144.333333
 42
0.100787
  0
VERTEX
  8
0
 10
162.055946
 20
143.410269
 42
0.268587
  0
VERTEX
  8
0
 10
162.163032
 20
142.656815
 42
0.178078
  0
VERTEX
  8
0
 10
162.981608
 20
142.152274
 42
0.050018
  0
VERTEX
  8
0
 10
164.500000
 20
142.000000
 42
-0.098988
  0
VERTEX
  8
0
 10
165.949892
 20
141.710115
 42
-0.226266
  0
VERTEX
  8
0
 10
166.676471
 20
140.900000
 42
-0.067556
  0
VERTEX
  8
0
 10
166.954758
 20
139.072835
 42
-0.004059
  0
VERTEX
  8
0
 10
167.000000
 20
133.500000
 42
0.004884
  0
VERTEX
  8
0
 10
167.050150
 20
128.365904
 42
0.052938
  0
VERTEX
  8
0
 10
167.308824
 20
126.312500
 42
0.172700
  0
VERTEX
  8
0
 10
167.918496
 20
125.367819
 42
0.165398
  0
VERTEX
  8
0
 10
169.000000
 20
125.000000
 42
0.165398
  0
VERTEX
  8
0
 10
170.081504
 20
125.367819
 42
0.172700
  0
VERTEX
  8
0
 10
170.691176
 20
126.312500
 42
0.052938
  0
VERTEX
  8
0
 10
170.949850
 20
128.365904
 42
0.004884
  0
VERTEX
  8
0
 10
171.000000
 20
133.500000
 42
-0.004884
  0
VERTEX
  8
0
 10
171.050150
 20
138.634096
 42
-0.052938
  0
VERTEX
  8
0
 10
171.308824
 20
140.687500
 42
-0.172700
  0
VERTEX
  8
0
 10
171.918496
 20
141.632181
 42
-0.165398
  0
VERTEX
  8
0
 10
173.000000
 20
142.000000
 42
0.072314
  0
VERTEX
  8
0
 10
173.769411
 20
142.111864
 42
0.088920
  0
VERTEX
  8
0
 10
174.416667
 20
142.437500
 42
0.102140
  0
VERTEX
  8
0
 10
174.846791
 20
142.924246
 42
0.130775
  0
VERTEX
  8
0
 10
175.000000
 20
143.500000
 42
0.218563
  0
VERTEX
  8
0
 10
174.669191
 20
144.220631
 42
0.115102
  0
VERTEX
  8
0
 10
173.777778
 20
144.685714
 42
0.051894
  0
VERTEX
  8
0
 10
172.106552
 20
144.934870
 42
0.011076
  0
VERTEX
  8
0
 10
169.166667
 20
145.000000
 42
0.010625
  0
VERTEX
  8
0
 10
166.883527
 20
144.951479
 42
0.014928
  0
VERTEX
  8
0
 10
164.851042
 20
144.804167
 42
0.011119
  0
VERTEX
  8
0
 10
163.189525
 20
144.596327
 42
0.161051
  0
SEQEND
  0
POLYLINE
  8
0
 66
1
 70
1
  0
VERTEX
  8
0
 10
187.000000
 20
135.000000
 42
0.000000
  0
VERTEX
  8
0
 10
187.000000
 20
125.000000
 42
0.000000
  0
VERTEX
  8
0
 10
191.500000
 20
125.000000
 42
0.016668
  0
VERTEX
  8
0
 10
193.673807
 20
125.072487
 42
0.063857
  0
VERTEX
  8
0
 10
195.000000
 20
125.333333
 42
0.126480
  0
VERTEX
  8
0
 10
195.727332
 20
125.803001
 42
0.188641
  0
VERTEX
  8
0
 10
196.000000
 20
126.500000
 42
0.140575
  0
VERTEX
  8
0
 10
195.822179
 20
127.119980
 42
0.118484
  0
VERTEX
  8
0
 10
195.333333
 20
127.600000
 42
0.088208
  0
VERTEX
  8
0
 10
194.543379
 20
127.901370
 42
0.047160
  0
VERTEX
  8
0
 10
193.500000
 20
128.000000
 42
-0.098988
  0
VERTEX
  8
0
 10
192.050108
 20
128.289885
 42
-0.226266
  0
VERTEX
  8
0
 10
191.323529
 20
129.100000
 42
-0.067556
  0
VERTEX
  8
0
 10
191.045242
 20
130.927165
 42
-0.004059
  0
VERTEX
  8
0
 10
191.000000
 20
136.500000
 42
0.004884
  0
VERTEX
  8
0
 10
190.949850
 20
141.634096
 42
0.052938
  0
VERTEX
  8
0
 10
190.691176
 20
143.687500
 42
0.172700
  0
VERTEX
  8
0
 10
190.081504
 20
144.632181
 42
0.165398
  0
VERTEX
  8
0
 10
189.000000
 20
145.000000
 42
0.186821
  0
VERTEX
  8
0
 10
187.909584
 20
144.577840
 42
0.160003
  0
VERTEX
  8
0
 10
187.300000
 20
143.500000
 42
0.045528
  0
VERTEX
  8
0
 10
187.047257
 20
141.133618
 42
0.003852
  0
SEQEND
  0
POLYLINE
  8
0
 66
1
 70
1
  0
VERTEX
  8
0
 10
200.660651
 20
142.387924
 42
0.134194
  0
VERTEX
  8
0
 10
197.578457
 20
136.987279
 42
0.159371
  0
VERTEX
  8
0
 10
197.953953
 20
131.153380
 42
0.161090
  0
VERTEX
  8
0
 10
201.693079
 20
126.712291
 42
0.137392
  0
VERTEX
  8
0
 10
207.603977
 20
125.022236
 42
0.110924
  0
VERTEX
  8
0
 10
212.146729
 20
126.016770
 42
0.116470
  0
VERTEX
  8
0
 10
215.734991
 20
128.850066
 42
0.117102
  0
VERTEX
  8
0
 10
217.663992
 20
132.975418
 42
0.113016
  0
VERTEX
  8
0
 10
217.567964
 20
137.585231
 42
0.140765
  0
VERTEX
  8
0
 10
215.017081
 20
141.983163
 42
0.122796
  0
VERTEX
  8
0
 10
210.389538
 20
144.639711
 42
0.123574
  0
VERTEX
  8
0
 10
205.080345
 20
144.803650
 42
0.143566
  0
SEQEND
  0
POLYLINE
  8
0
 66
1
 70
1
  0
VERTEX
  8
0
 10
212.000000
 20
140.000000
 42
-0.112070
  0
VERTEX
  8
0
 10
213.537594
 20
137.559393
 42
-0.090316
  0
VERTEX
  8
0
 10
214.029180
 20
134.490605
 42
-0.094732
  0
VERTEX
  8
0
 10
213.406890
 20
131.573925
 42
-0.141095
  0
VERTEX
  8
0
 10
211.777494
 20
129.556704
 42
-0.125275
  0
VERTEX
  8
0
 10
208.180627
 20
128.195598
 42
-0.145339
  0
VERTEX
  8
0
 10
204.588840
 20
128.834909
 42
-0.147723
  0
VERTEX
  8
0
 10
201.968294
 20
131.316300
 42
-0.130570
  0
VERTEX
  8
0
 10
201.000000
 20
134.961045
 42
-0.141672
  0
VERTEX
  8
0
 10
202.079354
 20
138.693928
 42
-0.145590
  0
VERTEX
  8
0
 10
204.975635
 20
141.227543
 42
-0.151225
  0
VERTEX
  8
0
 10
208.696790
 20
141.711700
 42
-0.154872
  0
SEQEND
  0
POLYLINE
  8
0
 66
1
 70
1
  0
VERTEX
  8
0
 10
223.660651
 20
142.387924
 42
0.134194
  0
VERTEX
  8
0
 10
220.578457
 20
136.987279
 42
0.159371
  0
VERTEX
  8
0
 10
220.953953
 20
131.153380
 42
0.161090
  0
VERTEX
  8
0
 10
224.693079
 20
126.712291
 42
0.137392
  0
VERTEX
  8
0
 10
230.603977
 20
125.022236
 42
0.110924
  0
VERTEX
  8
0
 10
235.146729
 20
126.016770
 42
0.116470
  0
VERTEX
  8
0
 10
238.734991
 20
128.850066
 42
0.117102
  0
VERTEX
  8
0
 10
240.663992
 20
132.975418
 42
0.113016
  0
VERTEX
  8
0
 10
240.567964
 20
137.585231
 42
0.140765
  0
VERTEX
  8
0
 10
238.017081
 20
141.983163
 42
0.122796
  0
VERTEX
  8
0
 10
233.389538
 20
144.639711
 42
0.123574
  0
VERTEX
  8
0
 10
228.080345
 20
144.803650
 42
0.143566
  0
SEQEND
  0
POLYLINE
  8
0
 66
1
 70
1
  0
VERTEX
  8
0
 10
235.000000
 20
140.000000
 42
-0.112070
  0
VERTEX
  8
0
 10
236.537594
 20
137.559393
 42
-0.090316
  0
VERTEX
  8
0
 10
237.029180
 20
134.490605
 42
-0.094732
  0
VERTEX
  8
0
 10
236.406890
 20
131.573925
 42
-0.141095
  0
VERTEX
  8
0
 10
234.777494
 20
129.556704
 42
-0.125275
  0
VERTEX
  8
0
 10
231.180627
 20
128.195598
 42
-0.145339
  0
VERTEX
  8
0
 10
227.588840
 20
128.834909
 42
-0.147723
  0
VERTEX
  8
0
 10
224.968294
 20
131.316300
 42
-0.130570
  0
VERTEX
  8
0
 10
224.000000
 20
134.961045
 42
-0.141672
  0
VERTEX
  8
0
 10
225.079354
 20
138.693928
 42
-0.145590
  0
VERTEX
  8
0
 10
227.975635
 20
141.227543
 42
-0.151225
  0
VERTEX
  8
0
 10
231.696790
 20
141.711700
 42
-0.154872
  0
SEQEND
  0
POLYLINE
  8
0
 66
1
 70
1
  0
VERTEX
  8
0
 10
244.000000
 20
135.000000
 42
0.003852
  0
VERTEX
  8
0
 10
244.047257
 20
128.866382
 42
0.045528
  0
VERTEX
  8
0
 10
244.300000
 20
126.500000
 42
0.160003
  0
VERTEX
  8
0
 10
244.909584
 20
125.422160
 42
0.186821
  0
VERTEX
  8
0
 10
246.000000
 20
125.000000
 42
0.097695
  0
VERTEX
  8
0
 10
247.027145
 20
125.202628
 42
0.185883
  0
VERTEX
  8
0
 10
247.630434
 20
125.772723
 42
0.095828
  0
VERTEX
  8
0
 10
247.927374
 20
126.911678
 42
0.015992
  0
VERTEX
  8
0
 10
248.000000
 20
129.181785
 42
0.000000
  0
VERTEX
  8
0
 10
248.000000
 20
133.363570
 42
0.000000
  0
VERTEX
  8
0
 10
251.214000
 20
129.181785
 42
0.022833
  0
VERTEX
  8
0
 10
252.797707
 20
127.305124
 42
0.046329
  0
VERTEX
  8
0
 10
254.233695
 20
126.015876
 42
0.060792
  0
VERTEX
  8
0
 10
255.569245
 20
125.255479
 42
0.099361
  0
VERTEX
  8
0
 10
256.842159
 20
125.000000
 42
0.000000
  0
VERTEX
  8
0
 10
259.256319
 20
125.000000
 42
0.000000
  0
VERTEX
  8
0
 10
256.611522
 20
128.250000
 42
-0.006797
  0
VERTEX
  8
0
 10
252.369076
 20
133.610462
 42
-0.133323
  0
VERTEX
  8
0
 10
251.574195
 20
135.539727
 42
-0.207999
  0
VERTEX
  8
0
 10
252.078665
 20
137.265364
 42
-0.020368
  0
VERTEX
  8
0
 10
255.055887
 20
140.556944
 42
0.004331
  0
VERTEX
  8
0
 10
257.752258
 20
143.352380
 42
0.086499
  0
VERTEX
  8
0
 10
258.406006
 20
144.336993
 42
0.450119
  0
VERTEX
  8
0
 10
258.179871
 20
144.827032
 42
0.073267
  0
VERTEX
  8
0
 10
257.005815
 20
145.000000
 42
0.092502
  0
VERTEX
  8
0
 10
255.839307
 20
144.782328
 42
0.035383
  0
VERTEX
  8
0
 10
254.338934
 20
144.076540
 42
0.033048
  0
VERTEX
  8
0
 10
252.754237
 20
143.046197
 42
0.031811
  0
VERTEX
  8
0
 10
251.297607
 20
141.803833
 42
0.000000
  0
VERTEX
  8
0
 10
248.000000
 20
138.607666
 42
0.000000
  0
VERTEX
  8
0
 10
248.000000
 20
141.803833
 42
0.026989
  0
VERTEX
  8
0
 10
247.912097
 20
143.431131
 42
0.113283
  0
VERTEX
  8
0
 10
247.593563
 20
144.350479
 42
0.171080
  0
VERTEX
  8
0
 10
246.987173
 20
144.833643
 42
0.083669
  0
VERTEX
  8
0
 10
246.000000
 20
145.000000
 42
0.186821
  0
VERTEX
  8
0
 10
244.909584
 20
144.577840
 42
0.160003
  0
VERTEX
  8
0
 10
244.300000
 20
143.500000
 42
0.045528
  0
VERTEX
  8
0
 10
244.047257
 20
141.133618
 42
0.003852
  0
SEQEND
  0
POLYLINE
  8
0
 66
1
 70
1
  0
VERTEX
  8
0
 10
287.666667
 20
144.333333
 42
0.100787
  0
VERTEX
  8
0
 10
287.055946
 20
143.410269
 42
0.268587
  0
VERTEX
  8
0
 10
287.163032
 20
142.656815
 42
0.178078
  0
VERTEX
  8
0
 10
287.981608
 20
142.152274
 42
0.050018
  0
VERTEX
  8
0
 10
289.500000
 20
142.000000
 42
-0.098988
  0
VERTEX
  8
0
 10
290.949892
 20
141.710115
 42
-0.226266
  0
VERTEX
  8
0
 10
291.676471
 20
140.900000
 42
-0.067556
  0
VERTEX
  8
0
 10
291.954758
 20
139.072835
 42
-0.004059
  0
VERTEX
  8
0
 10
292.000000
 20
133.500000
 42
0.004884
  0
VERTEX
  8
0
 10
292.050150
 20
128.365904
 42
0.052938
  0
VERTEX
  8
0
 10
292.308824
 20
126.312500
 42
0.172700
  0
VERTEX
  8
0
 10
292.918496
 20
125.367819
 42
0.165398
  0
VERTEX
  8
0
 10
294.000000
 20
125.000000
 42
0.165398
  0
VERTEX
  8
0
 10
295.081504
 20
125.367819
 42
0.172700
  0
VERTEX
  8
0
 10
295.691176
 20
126.312500
 42
0.052938
  0
VERTEX
  8
0
 10
295.949850
 20
128.365904
 42
0.004884
  0
VERTEX
  8
0
 10
296.000000
 20
133.500000
 42
-0.004884
  0
VERTEX
  8
0
 10
296.050150
 20
138.634096
 42
-0.052938
  0
VERTEX
  8
0
 10
296.308824
 20
140.687500
 42
-0.172700
  0
VERTEX
  8
0
 10
296.918496
 20
141.632181
 42
-0.165398
  0
VERTEX
  8
0
 10
298.000000
 20
142.000000
 42
0.072314
  0
VERTEX
  8
0
 10
298.769411
 20
142.111864
 42
0.088920
  0
VERTEX
  8
0
 10
299.416667
 20
142.437500
 42
0.102140
  0
VERTEX
  8
0
 10
299.846791
 20
142.924246
 42
0.130775
  0
VERTEX
  8
0
 10
300.000000
 20
143.500000
 42
0.218563
  0
VERTEX
  8
0
 10
299.669191
 20
144.220631
 42
0.115102
  0
VERTEX
  8
0
 10
298.777778
 20
144.685714
 42
0.051894
  0
VERTEX
  8
0
 10
297.106552
 20
144.934870
 42
0.011076
  0
VERTEX
  8
0
 10
294.166667
 20
145.000000
 42
0.010625
  0
VERTEX
  8
0
 10
291.883527
 20
144.951479
 42
0.014928
  0
VERTEX
  8
0
 10
289.851042
 20
144.804167
 42
0.011119
  0
VERTEX
  8
0
 10
288.189525
 20
144.596327
 42
0.161051
  0
SEQEND
  0
POLYLINE
  8
0
 66
1
 70
1
  0
VERTEX
  8
0
 10
230.500000
 20
105.482740
 42
-0.000952
  0
VERTEX
  8
0
 10
228.954571
 20
104.924836
 42
-0.001500
  0
VERTEX
  8
0
 10
227.625521
 20
104.452399
 42
-0.000351
  0
VERTEX
  8
0
 10
226.459318
 20
104.042707
 42
-0.062076
  0
VERTEX
  8
0
 10
226.331559
 20
104.015056
 42
0.226111
  0
VERTEX
  8
0
 10
226.229753
 20
103.954873
 42
0.001315
  0
VERTEX
  8
0
 10
225.601140
 20
103.015063
 42
0.005132
  0
VERTEX
  8
0
 10
224.891681
 20
101.924207
 42
0.003199
  0
VERTEX
  8
0
 10
224.081559
 20
100.631966
 42
0.071695
  0
VERTEX
  8
0
 10
222.616710
 20
97.265591
 42
0.063460
  0
VERTEX
  8
0
 10
222.080780
 20
93.477173
 42
0.064111
  0
VERTEX
  8
0
 10
222.512703
 20
89.713611
 42
0.076469
  0
VERTEX
  8
0
 10
223.885678
 20
86.419965
 42
0.078463
  0
VERTEX
  8
0
 10
225.933427
 20
84.009408
 42
0.051302
  0
VERTEX
  8
0
 10
228.934328
 20
81.923274
 42
0.051101
  0
VERTEX
  8
0
 10
232.315084
 20
80.482549
 42
0.075326
  0
VERTEX
  8
0
 10
235.500000
 20
80.000000
 42
0.101771
  0
VERTEX
  8
0
 10
240.548903
 20
81.038421
 42
0.093799
  0
VERTEX
  8
0
 10
244.945969
 20
83.999973
 42
0.094238
  0
VERTEX
  8
0
 10
247.941458
 20
88.349596
 42
0.103920
  0
VERTEX
  8
0
 10
248.996262
 20
93.345708
 42
0.122672
  0
VERTEX
  8
0
 10
247.461352
 20
99.533341
 42
0.126368
  0
VERTEX
  8
0
 10
243.213398
 20
104.197975
 42
0.122430
  0
VERTEX
  8
0
 10
237.124563
 20
106.331740
 42
0.110893
  0
SEQEND
  0
POLYLINE
  8
0
 66
1
 70
1
  0
VERTEX
  8
0
 10
239.365141
 20
97.927420
 42
-0.044431
  0
VERTEX
  8
0
 10
240.373259
 20
96.978193
 42
-0.041232
  0
VERTEX
  8
0
 10
241.226010
 20
95.842976
 42
-0.043873
  0
VERTEX
  8
0
 10
241.812488
 20
94.700179
 42
-0.096916
  0
VERTEX
  8
0
 10
242.000000
 20
93.741871
 42
-0.128116
  0
VERTEX
  8
0
 10
241.429357
 20
91.551374
 42
-0.067772
  0
VERTEX
  8
0
 10
239.730098
 20
89.292877
 42
-0.067900
  0
VERTEX
  8
0
 10
237.494209
 20
87.576001
 42
-0.130546
  0
VERTEX
  8
0
 10
235.325686
 20
87.000000
 42
-0.118202
  0
VERTEX
  8
0
 10
233.117072
 20
87.529524
 42
-0.080863
  0
VERTEX
  8
0
 10
231.027136
 20
89.059738
 42
-0.080445
  0
VERTEX
  8
0
 10
229.521110
 20
91.183281
 42
-0.114580
  0
VERTEX
  8
0
 10
229.000000
 20
93.427420
 42
-0.141628
  0
VERTEX
  8
0
 10
229.566213
 20
95.386264
 42
-0.054322
  0
VERTEX
  8
0
 10
231.346476
 20
97.627322
 42
-0.054338
  0
VERTEX
  8
0
 10
233.563023
 20
99.428503
 42
-0.144445
  0
VERTEX
  8
0
 10
235.500000
 20
100.000000
 42
-0.100305
  0
VERTEX
  8
0
 10
236.141580
 20
99.869984
 42
-0.023085
  0
VERTEX
  8
0
 10
237.142877
 20
99.391180
 42
-0.022951
  0
VERTEX
  8
0
 10
238.266124
 20
98.720771
 42
-0.020634
  0
SEQEND
  0
POLYLINE
  8
0
 66
1
 70
1
  0
VERTEX
  8
0
 10
171.000000
 20
93.500000
 42
0.000000
  0
VERTEX
  8
0
 10
171.000000
 20
81.000000
 42
0.000000
  0
VERTEX
  8
0
 10
178.389216
 20
81.000000
 42
0.011895
  0
VERTEX
  8
0
 10
182.080373
 20
81.087823
 42
0.033578
  0
VERTEX
  8
0
 10
184.641653
 20
81.382916
 42
0.048553
  0
VERTEX
  8
0
 10
186.510080
 20
81.917903
 42
0.076337
  0
VERTEX
  8
0
 10
187.949213
 20
82.757791
 42
0.122656
  0
VERTEX
  8
0
 10
189.627891
 20
84.984205
 42
0.096282
  0
VERTEX
  8
0
 10
190.260149
 20
87.950835
 42
0.097614
  0
VERTEX
  8
0
 10
189.733315
 20
90.902935
 42
0.130464
  0
VERTEX
  8
0
 10
188.135342
 20
93.091490
 42
-0.034608
  0
VERTEX
  8
0
 10
187.328127
 20
93.843256
 42
-0.075600
  0
VERTEX
  8
0
 10
186.851394
 20
94.538827
 42
-0.131019
  0
VERTEX
  8
0
 10
186.743986
 20
95.099178
 42
-0.241023
  0
VERTEX
  8
0
 10
186.978505
 20
95.486715
 42
0.156575
  0
VERTEX
  8
0
 10
187.373217
 20
95.949110
 42
0.036734
  0
VERTEX
  8
0
 10
187.699936
 20
96.926716
 42
0.034356
  0
VERTEX
  8
0
 10
187.924959
 20
98.160424
 42
0.027939
  0
VERTEX
  8
0
 10
188.000000
 20
99.502313
 42
0.104269
  0
VERTEX
  8
0
 10
187.363709
 20
102.520345
 42
0.153799
  0
VERTEX
  8
0
 10
185.589947
 20
104.539542
 42
0.103920
  0
VERTEX
  8
0
 10
182.381650
 20
105.666184
 42
0.032666
  0
VERTEX
  8
0
 10
177.277494
 20
106.000000
 42
0.000000
  0
VERTEX
  8
0
 10
171.000000
 20
106.000000
 42
0.000000
  0
SEQEND
  0
POLYLINE
  8
0
 66
1
 70
1
  0
VERTEX
  8
0
 10
181.468991
 20
99.050173
 42
-0.202545
  0
VERTEX
  8
0
 10
181.538079
 20
98.604787
 42
-0.092842
  0
VERTEX
  8
0
 10
181.287850
 20
98.060535
 42
-0.069300
  0
VERTEX
  8
0
 10
180.761187
 20
97.500252
 42
-0.046669
  0
VERTEX
  8
0
 10
180.028008
 20
97.014990
 42
-0.024031
  0
VERTEX
  8
0
 10
178.903520
 20
96.481001
 42
-0.211393
  0
VERTEX
  8
0
 10
178.365794
 20
96.492488
 42
-0.254463
  0
VERTEX
  8
0
 10
178.073245
 20
96.890013
 42
-0.034034
  0
VERTEX
  8
0
 10
178.000000
 20
97.964816
 42
-0.145550
  0
VERTEX
  8
0
 10
178.368138
 20
99.202666
 42
-0.174085
  0
VERTEX
  8
0
 10
179.332849
 20
99.932914
 42
-0.179504
  0
VERTEX
  8
0
 10
180.518038
 20
99.871229
 42
-0.153692
  0
SEQEND
  0
POLYLINE
  8
0
 66
1
 70
1
  0
VERTEX
  8
0
 10
182.654923
 20
89.456872
 42
-0.045190
  0
VERTEX
  8
0
 10
182.988923
 20
88.278012
 42
-0.222468
  0
VERTEX
  8
0
 10
182.821049
 20
87.626108
 42
-0.158016
  0
VERTEX
  8
0
 10
182.156325
 20
87.202369
 42
-0.020808
  0
VERTEX
  8
0
 10
180.500000
 20
86.845069
 42
-0.069180
  0
VERTEX
  8
0
 10
179.554573
 20
86.814131
 42
-0.146570
  0
VERTEX
  8
0
 10
178.884957
 20
87.094479
 42
-0.133353
  0
VERTEX
  8
0
 10
178.440168
 20
87.720036
 42
-0.053017
  0
VERTEX
  8
0
 10
178.180449
 20
88.750000
 42
-0.046630
  0
VERTEX
  8
0
 10
178.127602
 20
89.852734
 42
-0.157373
  0
VERTEX
  8
0
 10
178.376960
 20
90.520287
 42
-0.170222
  0
VERTEX
  8
0
 10
178.954113
 20
90.885284
 42
-0.056735
  0
VERTEX
  8
0
 10
179.961834
 20
91.000000
 42
-0.067662
  0
VERTEX
  8
0
 10
180.809271
 20
90.884794
 42
-0.062604
  0
VERTEX
  8
0
 10
181.619565
 20
90.546706
 42
-0.066653
  0
VERTEX
  8
0
 10
182.272208
 20
90.047016
 42
-0.104842
  0
SEQEND
  0
POLYLINE
  8
0
 66
1
 70
1
  0
VERTEX
  8
0
 10
193.000000
 20
93.500000
 42
0.000000
  0
VERTEX
  8
0
 10
193.000000
 20
81.000000
 42
0.000000
  0
VERTEX
  8
0
 10
200.500000
 20
81.000000
 42
0.000000
  0
VERTEX
  8
0
 10
208.000000
 20
81.000000
 42
0.000000
  0
VERTEX
  8
0
 10
208.000000
 20
84.000000
 42
0.033956
  0
VERTEX
  8
0
 10
207.879267
 20
85.775737
 42
0.200505
  0
VERTEX
  8
0
 10
207.416667
 20
86.562500
 42
0.146160
  0
VERTEX
  8
0
 10
206.438365
 20
86.923201
 42
0.015744
  0
VERTEX
  8
0
 10
204.000000
 20
87.000000
 42
-0.020272
  0
VERTEX
  8
0
 10
202.111825
 20
87.076585
 42
-0.069535
  0
VERTEX
  8
0
 10
200.916667
 20
87.343750
 42
-0.128937
  0
VERTEX
  8
0
 10
200.249641
 20
87.815157
 42
-0.176579
  0
VERTEX
  8
0
 10
200.000000
 20
88.500000
 42
-0.164293
  0
VERTEX
  8
0
 10
200.226074
 20
89.169448
 42
-0.129352
  0
VERTEX
  8
0
 10
200.833333
 20
89.642857
 42
-0.075863
  0
VERTEX
  8
0
 10
201.895967
 20
89.918107
 42
-0.025511
  0
VERTEX
  8
0
 10
203.500000
 20
90.000000
 42
0.021326
  0
VERTEX
  8
0
 10
205.550789
 20
90.087510
 42
0.154411
  0
VERTEX
  8
0
 10
206.452041
 20
90.459760
 42
0.186448
  0
VERTEX
  8
0
 10
206.885349
 20
91.245372
 42
0.033856
  0
VERTEX
  8
0
 10
207.000000
 20
92.936642
 42
0.037101
  0
VERTEX
  8
0
 10
206.878717
 20
94.568881
 42
0.160302
  0
VERTEX
  8
0
 10
206.447344
 20
95.426072
 42
0.145027
  0
VERTEX
  8
0
 10
205.563338
 20
95.907418
 42
0.028560
  0
VERTEX
  8
0
 10
203.758189
 20
96.186642
 42
-0.036391
  0
VERTEX
  8
0
 10
202.326949
 20
96.431017
 42
-0.070566
  0
VERTEX
  8
0
 10
201.252758
 20
96.863507
 42
-0.093346
  0
VERTEX
  8
0
 10
200.541387
 20
97.474719
 42
-0.122511
  0
VERTEX
  8
0
 10
200.184865
 20
98.250000
 42
-0.121917
  0
VERTEX
  8
0
 10
200.233365
 20
99.124246
 42
-0.211908
  0
VERTEX
  8
0
 10
200.701747
 20
99.662940
 42
-0.094464
  0
VERTEX
  8
0
 10
201.769179
 20
99.934472
 42
-0.015183
  0
VERTEX
  8
0
 10
203.926676
 20
100.000000
 42
0.015118
  0
VERTEX
  8
0
 10
206.420638
 20
100.075426
 42
0.144579
  0
VERTEX
  8
0
 10
207.410556
 20
100.434125
 42
0.202448
  0
VERTEX
  8
0
 10
207.877878
 20
101.219967
 42
0.034263
  0
VERTEX
  8
0
 10
208.000000
 20
103.000000
 42
0.000000
  0
VERTEX
  8
0
 10
208.000000
 20
106.000000
 42
0.000000
  0
VERTEX
  8
0
 10
200.500000
 20
106.000000
 42
0.000000
  0
VERTEX
  8
0
 10
193.000000
 20
106.000000
 42
0.000000
  0
SEQEND
  0
POLYLINE
  8
0
 66
1
 70
1
  0
VERTEX
  8
0
 10
253.000000
 20
93.500000
 42
0.000000
  0
VERTEX
  8
0
 10
253.000000
 20
81.000000
 42
0.000000
  0
VERTEX
  8
0
 10
256.454310
 20
81.000000
 42
0.000000
  0
VERTEX
  8
0
 10
259.908620
 20
81.000000
 42
0.000000
  0
VERTEX
  8
0
 10
260.204310
 20
87.667595
 42
0.000000
  0
VERTEX
  8
0
 10
260.500000
 20
94.335191
 42
0.000000
  0
VERTEX
  8
0
 10
265.500000
 20
87.692500
 42
0.008775
  0
VERTEX
  8
0
 10
268.553403
 20
83.780741
 42
0.059902
  0
VERTEX
  8
0
 10
270.305613
 20
82.078941
 42
0.105869
  0
VERTEX
  8
0
 10
271.969783
 20
81.295090
 42
0.055707
  0
VERTEX
  8
0
 10
274.250000
 20
81.024905
 42
0.000000
  0
VERTEX
  8
0
 10
278.000000
 20
81.000000
 42
0.000000
  0
VERTEX
  8
0
 10
278.000000
 20
93.500000
 42
0.000000
  0
VERTEX
  8
0
 10
278.000000
 20
106.000000
 42
0.000000
  0
VERTEX
  8
0
 10
274.543810
 20
106.000000
 42
0.000000
  0
VERTEX
  8
0
 10
271.087619
 20
106.000000
 42
0.000000
  0
VERTEX
  8
0
 10
270.793810
 20
98.920714
 42
0.000000
  0
VERTEX
  8
0
 10
270.500000
 20
91.841428
 42
0.000000
  0
VERTEX
  8
0
 10
265.124366
 20
98.920714
 42
0.008310
  0
VERTEX
  8
0
 10
261.942164
 20
102.969902
 42
0.052012
  0
VERTEX
  8
0
 10
260.080264
 20
104.827240
 42
0.097799
  0
VERTEX
  8
0
 10
258.424560
 20
105.700323
 42
0.072699
  0
VERTEX
  8
0
 10
256.374366
 20
106.000000
 42
0.000000
  0
VERTEX
  8
0
 10
253.000000
 20
106.000000
 42
0.000000
  0
SEQEND
  0
POLYLINE
  8
0
 66
1
 70
1
  0
VERTEX
  8
0
 10
282.000000
 20
93.500000
 42
0.000000
  0
VERTEX
  8
0
 10
282.000000
 20
81.000000
 42
0.000000
  0
VERTEX
  8
0
 10
289.500000
 20
81.000000
 42
0.000000
  0
VERTEX
  8
0
 10
297.000000
 20
81.000000
 42
0.000000
  0
VERTEX
  8
0
 10
297.000000
 20
84.000000
 42
0.033956
  0
VERTEX
  8
0
 10
296.879267
 20
85.775737
 42
0.200505
  0
VERTEX
  8
0
 10
296.416667
 20
86.562500
 42
0.146160
  0
VERTEX
  8
0
 10
295.438365
 20
86.923201
 42
0.015744
  0
VERTEX
  8
0
 10
293.000000
 20
87.000000
 42
-0.020272
  0
VERTEX
  8
0
 10
291.111825
 20
87.076585
 42
-0.069535
  0
VERTEX
  8
0
 10
289.916667
 20
87.343750
 42
-0.128937
  0
VERTEX
  8
0
 10
289.249641
 20
87.815157
 42
-0.176579
  0
VERTEX
  8
0
 10
289.000000
 20
88.500000
 42
-0.164293
  0
VERTEX
  8
0
 10
289.226074
 20
89.169448
 42
-0.129352
  0
VERTEX
  8
0
 10
289.833333
 20
89.642857
 42
-0.075863
  0
VERTEX
  8
0
 10
290.895967
 20
89.918107
 42
-0.025511
  0
VERTEX
  8
0
 10
292.500000
 20
90.000000
 42
0.021326
  0
VERTEX
  8
0
 10
294.550789
 20
90.087510
 42
0.154411
  0
VERTEX
  8
0
 10
295.452041
 20
90.459760
 42
0.186448
  0
VERTEX
  8
0
 10
295.885349
 20
91.245372
 42
0.033856
  0
VERTEX
  8
0
 10
296.000000
 20
92.936642
 42
0.037101
  0
VERTEX
  8
0
 10
295.878717
 20
94.568881
 42
0.160302
  0
VERTEX
  8
0
 10
295.447344
 20
95.426072
 42
0.145027
  0
VERTEX
  8
0
 10
294.563338
 20
95.907418
 42
0.028560
  0
VERTEX
  8
0
 10
292.758189
 20
96.186642
 42
-0.036391
  0
VERTEX
  8
0
 10
291.326949
 20
96.431017
 42
-0.070566
  0
VERTEX
  8
0
 10
290.252758
 20
96.863507
 42
-0.093346
  0
VERTEX
  8
0
 10
289.541387
 20
97.474719
 42
-0.122511
  0
VERTEX
  8
0
 10
289.184865
 20
98.250000
 42
-0.121917
  0
VERTEX
  8
0
 10
289.233365
 20
99.124246
 42
-0.211908
  0
VERTEX
  8
0
 10
289.701747
 20
99.662940
 42
-0.094464
  0
VERTEX
  8
0
 10
290.769179
 20
99.934472
 42
-0.015183
  0
VERTEX
  8
0
 10
292.926676
 20
100.000000
 42
0.015118
  0
VERTEX
  8
0
 10
295.420638
 20
100.075426
 42
0.144579
  0
VERTEX
  8
0
 10
296.410556
 20
100.434125
 42
0.202448
  0
VERTEX
  8
0
 10
296.877878
 20
101.219967
 42
0.034263
  0
VERTEX
  8
0
 10
297.000000
 20
103.000000
 42
0.000000
  0
VERTEX
  8
0
 10
297.000000
 20
106.000000
 42
0.000000
  0
VERTEX
  8
0
 10
289.500000
 20
106.000000
 42
0.000000
  0
VERTEX
  8
0
 10
282.000000
 20
106.000000
 42
0.000000
  0
SEQEND
  0
POLYLINE
  8
0
 66
1
 70
1
  0
VERTEX
  8
0
 10
96.896074
 20
92.355321
 42
0.000452
  0
VERTEX
  8
0
 10
95.187418
 20
88.597654
 42
0.000665
  0
VERTEX
  8
0
 10
93.693430
 20
85.292516
 42
0.000305
  0
VERTEX
  8
0
 10
92.424929
 20
82.471666
 42
0.012594
  0
VERTEX
  8
0
 10
92.166667
 20
81.855321
 42
0.413324
  0
VERTEX
  8
0
 10
92.516667
 20
81.055009
 42
0.180554
  0
VERTEX
  8
0
 10
93.796354
 20
81.032753
 42
0.079674
  0
VERTEX
  8
0
 10
95.672871
 20
82.055174
 42
0.121943
  0
VERTEX
  8
0
 10
96.818046
 20
83.500000
 42
-0.056109
  0
VERTEX
  8
0
 10
97.562745
 20
84.743396
 42
-0.107567
  0
VERTEX
  8
0
 10
98.444410
 20
85.493212
 42
-0.090874
  0
VERTEX
  8
0
 10
99.662361
 20
85.882279
 42
-0.031998
  0
VERTEX
  8
0
 10
101.500000
 20
86.000000
 42
-0.031998
  0
VERTEX
  8
0
 10
103.337639
 20
85.882279
 42
-0.090874
  0
VERTEX
  8
0
 10
104.555590
 20
85.493212
 42
-0.107567
  0
VERTEX
  8
0
 10
105.437255
 20
84.743396
 42
-0.056109
  0
VERTEX
  8
0
 10
106.181954
 20
83.500000
 42
0.103666
  0
VERTEX
  8
0
 10
107.491069
 20
81.719966
 42
0.156007
  0
VERTEX
  8
0
 10
109.235931
 20
80.939580
 42
0.305954
  0
VERTEX
  8
0
 10
110.353941
 20
81.525581
 42
0.203108
  0
VERTEX
  8
0
 10
110.493903
 20
83.019210
 42
0.029067
  0
VERTEX
  8
0
 10
109.257171
 20
86.251342
 42
0.003068
  0
VERTEX
  8
0
 10
105.889973
 20
93.599126
 42
0.000549
  0
VERTEX
  8
0
 10
102.098193
 20
101.717837
 42
0.291012
  0
VERTEX
  8
0
 10
101.654453
 20
102.000000
 42
0.284440
  0
VERTEX
  8
0
 10
101.448960
 20
101.872808
 42
0.000996
  0
VERTEX
  8
0
 10
100.107229
 20
99.166876
 42
0.004752
  0
VERTEX
  8
0
 10
98.607595
 20
96.053052
 42
0.002913
  0
SEQEND
  0
POLYLINE
  8
0
 66
1
 70
1
  0
VERTEX
  8
0
 10
103.285674
 20
91.015584
 42
-0.052300
  0
VERTEX
  8
0
 10
103.441012
 20
89.996554
 42
-0.200490
  0
VERTEX
  8
0
 10
103.226145
 20
89.406031
 42
-0.171505
  0
VERTEX
  8
0
 10
102.624545
 20
89.087928
 42
-0.036688
  0
VERTEX
  8
0
 10
101.427819
 20
89.000000
 42
-0.026409
  0
VERTEX
  8
0
 10
100.062210
 20
89.072178
 42
-0.253533
  0
VERTEX
  8
0
 10
99.598585
 20
89.390869
 42
-0.209575
  0
VERTEX
  8
0
 10
99.562673
 20
90.000765
 42
-0.018295
  0
VERTEX
  8
0
 10
100.167667
 20
91.468643
 42
-0.045679
  0
VERTEX
  8
0
 10
101.073779
 20
93.055539
 42
-0.283492
  0
VERTEX
  8
0
 10
101.897286
 20
93.411694
 42
-0.258115
  0
VERTEX
  8
0
 10
102.648114
 20
92.841506
 42
-0.040101
  0
SEQEND
  0
POLYLINE
  8
0
 66
1
 70
1
  0
VERTEX
  8
0
 10
9.000000
 20
99.547717
 42
0.122955
  0
VERTEX
  8
0
 10
9.150718
 20
98.944087
 42
0.106104
  0
VERTEX
  8
0
 10
9.573056
 20
98.443465
 42
0.092969
  0
VERTEX
  8
0
 10
10.217877
 20
98.113325
 42
0.072071
  0
VERTEX
  8
0
 10
11.000000
 20
98.000000
 42
-0.165398
  0
VERTEX
  8
0
 10
12.081504
 20
97.632181
 42
-0.172700
  0
VERTEX
  8
0
 10
12.691176
 20
96.687500
 42
-0.052938
  0
VERTEX
  8
0
 10
12.949850
 20
94.634096
 42
-0.004884
  0
VERTEX
  8
0
 10
13.000000
 20
89.500000
 42
0.004884
  0
VERTEX
  8
0
 10
13.050150
 20
84.365904
 42
0.052938
  0
VERTEX
  8
0
 10
13.308824
 20
82.312500
 42
0.172700
  0
VERTEX
  8
0
 10
13.918496
 20
81.367819
 42
0.165398
  0
VERTEX
  8
0
 10
15.000000
 20
81.000000
 42
0.165398
  0
VERTEX
  8
0
 10
16.081504
 20
81.367819
 42
0.172700
  0
VERTEX
  8
0
 10
16.691176
 20
82.312500
 42
0.052938
  0
VERTEX
  8
0
 10
16.949850
 20
84.365904
 42
0.004884
  0
VERTEX
  8
0
 10
17.000000
 20
89.500000
 42
-0.003960
  0
VERTEX
  8
0
 10
17.044611
 20
95.131949
 42
-0.069916
  0
VERTEX
  8
0
 10
17.325980
 20
96.927419
 42
-0.232218
  0
VERTEX
  8
0
 10
18.068200
 20
97.721906
 42
-0.091012
  0
VERTEX
  8
0
 10
19.583333
 20
98.000000
 42
0.036783
  0
VERTEX
  8
0
 10
20.646882
 20
98.078347
 42
0.094132
  0
VERTEX
  8
0
 10
21.373247
 20
98.331029
 42
0.162229
  0
VERTEX
  8
0
 10
21.731750
 20
98.734336
 42
0.182975
  0
VERTEX
  8
0
 10
21.753964
 20
99.250000
 42
0.223019
  0
VERTEX
  8
0
 10
21.237216
 20
99.796143
 42
0.035837
  0
VERTEX
  8
0
 10
19.799252
 20
100.244973
 42
0.030501
  0
VERTEX
  8
0
 10
17.770882
 20
100.592987
 42
0.015182
  0
VERTEX
  8
0
 10
15.170631
 20
100.797717
 42
0.008953
  0
VERTEX
  8
0
 10
11.899655
 20
100.896873
 42
0.053117
  0
VERTEX
  8
0
 10
10.198641
 20
100.736960
 42
0.135068
  0
VERTEX
  8
0
 10
9.332694
 20
100.298852
 42
0.211550
  0
SEQEND
  0
POLYLINE
  8
0
 66
1
 70
1
  0
VERTEX
  8
0
 10
24.000000
 20
91.000000
 42
0.005163
  0
VERTEX
  8
0
 10
24.055242
 20
85.649956
 42
0.032071
  0
VERTEX
  8
0
 10
24.287500
 20
82.916667
 42
0.076301
  0
VERTEX
  8
0
 10
24.734210
 20
81.478670
 42
0.286822
  0
VERTEX
  8
0
 10
25.500000
 20
81.000000
 42
0.188641
  0
VERTEX
  8
0
 10
26.196999
 20
81.272668
 42
0.126480
  0
VERTEX
  8
0
 10
26.666667
 20
82.000000
 42
0.063857
  0
VERTEX
  8
0
 10
26.927513
 20
83.326193
 42
0.016668
  0
VERTEX
  8
0
 10
27.000000
 20
85.500000
 42
0.000000
  0
VERTEX
  8
0
 10
27.000000
 20
90.000000
 42
0.000000
  0
VERTEX
  8
0
 10
31.000000
 20
90.000000
 42
0.000000
  0
VERTEX
  8
0
 10
35.000000
 20
90.000000
 42
0.000000
  0
VERTEX
  8
0
 10
35.000000
 20
85.500000
 42
0.016668
  0
VERTEX
  8
0
 10
35.072487
 20
83.326193
 42
0.063857
  0
VERTEX
  8
0
 10
35.333333
 20
82.000000
 42
0.126480
  0
VERTEX
  8
0
 10
35.803001
 20
81.272668
 42
0.188641
  0
VERTEX
  8
0
 10
36.500000
 20
81.000000
 42
0.286822
  0
VERTEX
  8
0
 10
37.265790
 20
81.478670
 42
0.076301
  0
VERTEX
  8
0
 10
37.712500
 20
82.916667
 42
0.032071
  0
VERTEX
  8
0
 10
37.944758
 20
85.649956
 42
0.005163
  0
VERTEX
  8
0
 10
38.000000
 20
91.000000
 42
0.005163
  0
VERTEX
  8
0
 10
37.944758
 20
96.350044
 42
0.032071
  0
VERTEX
  8
0
 10
37.712500
 20
99.083333
 42
0.076301
  0
VERTEX
  8
0
 10
37.265790
 20
100.521330
 42
0.286822
  0
VERTEX
  8
0
 10
36.500000
 20
101.000000
 42
0.176579
  0
VERTEX
  8
0
 10
35.815157
 20
100.750359
 42
0.128937
  0
VERTEX
  8
0
 10
35.343750
 20
100.083333
 42
0.069535
  0
VERTEX
  8
0
 10
35.076585
 20
98.888175
 42
0.020272
  0
VERTEX
  8
0
 10
35.000000
 20
97.000000
 42
0.000000
  0
VERTEX
  8
0
 10
35.000000
 20
93.000000
 42
0.000000
  0
VERTEX
  8
0
 10
31.000000
 20
93.000000
 42
0.000000
  0
VERTEX
  8
0
 10
27.000000
 20
93.000000
 42
0.000000
  0
VERTEX
  8
0
 10
27.000000
 20
97.000000
 42
0.020272
  0
VERTEX
  8
0
 10
26.923415
 20
98.888175
 42
0.069535
  0
VERTEX
  8
0
 10
26.656250
 20
100.083333
 42
0.128937
  0
VERTEX
  8
0
 10
26.184843
 20
100.750359
 42
0.176579
  0
VERTEX
  8
0
 10
25.500000
 20
101.000000
 42
0.286822
  0
VERTEX
  8
0
 10
24.734210
 20
100.521330
 42
0.076301
  0
VERTEX
  8
0
 10
24.287500
 20
99.083333
 42
0.032071
  0
VERTEX
  8
0
 10
24.055242
 20
96.350044
 42
0.005163
  0
SEQEND
  0
POLYLINE
  8
0
 66
1
 70
1
  0
VERTEX
  8
0
 10
43.000000
 20
91.000000
 42
0.000000
  0
VERTEX
  8
0
 10
43.000000
 20
81.000000
 42
0.000000
  0
VERTEX
  8
0
 10
48.500000
 20
81.000000
 42
0.012120
  0
VERTEX
  8
0
 10
51.247932
 20
81.066617
 42
0.054498
  0
VERTEX
  8
0
 10
52.833333
 20
81.318182
 42
0.118311
  0
VERTEX
  8
0
 10
53.683247
 20
81.784456
 42
0.211442
  0
VERTEX
  8
0
 10
54.000000
 20
82.500000
 42
0.176579
  0
VERTEX
  8
0
 10
53.750359
 20
83.184843
 42
0.128937
  0
VERTEX
  8
0
 10
53.083333
 20
83.656250
 42
0.069535
  0
VERTEX
  8
0
 10
51.888175
 20
83.923415
 42
0.020272
  0
VERTEX
  8
0
 10
50.000000
 20
84.000000
 42
-0.015744
  0
VERTEX
  8
0
 10
47.561635
 20
84.076799
 42
-0.146160
  0
VERTEX
  8
0
 10
46.583333
 20
84.437500
 42
-0.200505
  0
VERTEX
  8
0
 10
46.120733
 20
85.224263
 42
-0.033956
  0
VERTEX
  8
0
 10
46.000000
 20
87.000000
 42
-0.034263
  0
VERTEX
  8
0
 10
46.122122
 20
88.780033
 42
-0.202448
  0
VERTEX
  8
0
 10
46.589444
 20
89.565875
 42
-0.144579
  0
VERTEX
  8
0
 10
47.579362
 20
89.924574
 42
-0.015118
  0
VERTEX
  8
0
 10
50.073324
 20
90.000000
 42
0.015182
  0
VERTEX
  8
0
 10
52.230853
 20
90.065524
 42
0.094469
  0
VERTEX
  8
0
 10
53.298248
 20
90.337052
 42
0.211929
  0
VERTEX
  8
0
 10
53.766579
 20
90.875744
 42
0.121912
  0
VERTEX
  8
0
 10
53.815008
 20
91.750000
 42
0.128769
  0
VERTEX
  8
0
 10
53.432549
 20
92.555240
 42
0.101082
  0
VERTEX
  8
0
 10
52.672037
 20
93.157477
 42
0.068885
  0
VERTEX
  8
0
 10
51.469112
 20
93.570503
 42
0.027614
  0
VERTEX
  8
0
 10
49.741683
 20
93.810365
 42
-0.022653
  0
VERTEX
  8
0
 10
47.852573
 20
94.053609
 42
-0.092272
  0
VERTEX
  8
0
 10
46.772270
 20
94.457006
 42
-0.153897
  0
VERTEX
  8
0
 10
46.204066
 20
95.099649
 42
-0.105034
  0
VERTEX
  8
0
 10
46.000000
 20
96.060365
 42
-0.102090
  0
VERTEX
  8
0
 10
46.202039
 20
97.039568
 42
-0.179993
  0
VERTEX
  8
0
 10
46.765561
 20
97.628773
 42
-0.095542
  0
VERTEX
  8
0
 10
47.874924
 20
97.925071
 42
-0.017624
  0
VERTEX
  8
0
 10
50.000000
 20
98.000000
 42
0.020272
  0
VERTEX
  8
0
 10
51.888175
 20
98.076585
 42
0.069535
  0
VERTEX
  8
0
 10
53.083333
 20
98.343750
 42
0.128937
  0
VERTEX
  8
0
 10
53.750359
 20
98.815157
 42
0.176579
  0
VERTEX
  8
0
 10
54.000000
 20
99.500000
 42
0.211442
  0
VERTEX
  8
0
 10
53.683247
 20
100.215544
 42
0.118311
  0
VERTEX
  8
0
 10
52.833333
 20
100.681818
 42
0.054498
  0
VERTEX
  8
0
 10
51.247932
 20
100.933383
 42
0.012120
  0
VERTEX
  8
0
 10
48.500000
 20
101.000000
 42
0.000000
  0
VERTEX
  8
0
 10
43.000000
 20
101.000000
 42
0.000000
  0
SEQEND
  0
POLYLINE
  8
0
 66
1
 70
1
  0
VERTEX
  8
0
 10
68.571429
 20
99.428571
 42
0.051602
  0
VERTEX
  8
0
 10
67.969897
 20
98.688179
 42
0.038261
  0
VERTEX
  8
0
 10
67.461607
 20
97.763675
 42
0.039048
  0
VERTEX
  8
0
 10
67.113858
 20
96.805504
 42
0.067626
  0
VERTEX
  8
0
 10
67.000000
 20
95.967527
 42
0.140787
  0
VERTEX
  8
0
 10
67.494660
 20
94.245578
 42
0.049766
  0
VERTEX
  8
0
 10
69.081172
 20
92.196819
 42
0.049675
  0
VERTEX
  8
0
 10
71.023572
 20
90.516584
 42
0.154688
  0
VERTEX
  8
0
 10
72.653378
 20
90.000000
 42
-0.186867
  0
VERTEX
  8
0
 10
73.961061
 20
89.493590
 42
-0.106152
  0
VERTEX
  8
0
 10
74.961251
 20
88.093590
 42
-0.107345
  0
VERTEX
  8
0
 10
75.291818
 20
86.419538
 42
-0.194002
  0
VERTEX
  8
0
 10
74.753196
 20
85.153196
 42
-0.088139
  0
VERTEX
  8
0
 10
73.514893
 20
84.288507
 42
-0.128845
  0
VERTEX
  8
0
 10
72.212494
 20
84.054911
 42
-0.149562
  0
VERTEX
  8
0
 10
71.098323
 20
84.494417
 42
-0.133723
  0
VERTEX
  8
0
 10
70.361626
 20
85.500000
 42
0.180810
  0
VERTEX
  8
0
 10
69.535543
 20
86.433997
 42
0.081358
  0
VERTEX
  8
0
 10
67.961699
 20
86.966964
 42
0.102415
  0
VERTEX
  8
0
 10
66.537290
 20
86.910016
 42
0.344403
  0
VERTEX
  8
0
 10
66.000000
 20
86.222506
 42
0.103059
  0
VERTEX
  8
0
 10
66.089730
 20
85.791800
 42
0.016968
  0
VERTEX
  8
0
 10
66.457282
 20
85.020540
 42
0.018033
  0
VERTEX
  8
0
 10
66.960704
 20
84.130421
 42
0.015060
  0
VERTEX
  8
0
 10
67.556704
 20
83.222506
 42
0.177681
  0
VERTEX
  8
0
 10
70.577106
 20
81.120061
 42
0.148291
  0
VERTEX
  8
0
 10
74.505764
 20
81.269565
 42
0.144391
  0
VERTEX
  8
0
 10
77.763636
 20
83.591812
 42
0.167728
  0
VERTEX
  8
0
 10
79.000000
 20
87.173753
 42
0.105108
  0
VERTEX
  8
0
 10
78.596490
 20
89.072046
 42
0.065235
  0
VERTEX
  8
0
 10
77.402757
 20
91.022664
 42
0.067799
  0
VERTEX
  8
0
 10
75.826752
 20
92.508456
 42
0.156395
  0
VERTEX
  8
0
 10
74.293704
 20
93.000000
 42
-0.107231
  0
VERTEX
  8
0
 10
73.801838
 20
93.106714
 42
-0.039438
  0
VERTEX
  8
0
 10
73.176960
 20
93.453075
 42
-0.036865
  0
VERTEX
  8
0
 10
72.532083
 20
93.952185
 42
-0.036445
  0
VERTEX
  8
0
 10
71.964826
 20
94.542382
 42
-0.140582
  0
VERTEX
  8
0
 10
71.281261
 20
96.100654
 42
-0.248364
  0
VERTEX
  8
0
 10
71.754223
 20
97.385085
 42
-0.210607
  0
VERTEX
  8
0
 10
73.191607
 20
97.854973
 42
-0.115270
  0
VERTEX
  8
0
 10
74.978599
 20
97.245438
 42
0.096372
  0
VERTEX
  8
0
 10
76.487432
 20
96.666983
 42
0.263978
  0
VERTEX
  8
0
 10
77.524824
 20
97.036558
 42
0.261785
  0
VERTEX
  8
0
 10
77.745019
 20
98.121127
 42
0.095526
  0
VERTEX
  8
0
 10
76.963645
 20
99.543805
 42
0.148519
  0
VERTEX
  8
0
 10
75.345120
 20
100.611605
 42
0.075653
  0
VERTEX
  8
0
 10
72.908689
 20
100.948216
 42
0.073578
  0
VERTEX
  8
0
 10
70.402221
 20
100.542128
 42
0.120044
  0
SEQEND
  0
POLYLINE
  8
0
 66
1
 70
1
  0
VERTEX
  8
0
 10
80.666667
 20
100.333333
 42
0.100787
  0
VERTEX
  8
0
 10
80.055946
 20
99.410269
 42
0.268587
  0
VERTEX
  8
0
 10
80.163032
 20
98.656815
 42
0.178078
  0
VERTEX
  8
0
 10
80.981608
 20
98.152274
 42
0.050018
  0
VERTEX
  8
0
 10
82.500000
 20
98.000000
 42
-0.098988
  0
VERTEX
  8
0
 10
83.949892
 20
97.710115
 42
-0.226266
  0
VERTEX
  8
0
 10
84.676471
 20
96.900000
 42
-0.067556
  0
VERTEX
  8
0
 10
84.954758
 20
95.072835
 42
-0.004059
  0
VERTEX
  8
0
 10
85.000000
 20
89.500000
 42
0.004884
  0
VERTEX
  8
0
 10
85.050150
 20
84.365904
 42
0.052938
  0
VERTEX
  8
0
 10
85.308824
 20
82.312500
 42
0.172700
  0
VERTEX
  8
0
 10
85.918496
 20
81.367819
 42
0.165398
  0
VERTEX
  8
0
 10
87.000000
 20
81.000000
 42
0.165398
  0
VERTEX
  8
0
 10
88.081504
 20
81.367819
 42
0.172700
  0
VERTEX
  8
0
 10
88.691176
 20
82.312500
 42
0.052938
  0
VERTEX
  8
0
 10
88.949850
 20
84.365904
 42
0.004884
  0
VERTEX
  8
0
 10
89.000000
 20
89.500000
 42
-0.004884
  0
VERTEX
  8
0
 10
89.050150
 20
94.634096
 42
-0.052938
  0
VERTEX
  8
0
 10
89.308824
 20
96.687500
 42
-0.172700
  0
VERTEX
  8
0
 10
89.918496
 20
97.632181
 42
-0.165398
  0
VERTEX
  8
0
 10
91.000000
 20
98.000000
 42
0.072314
  0
VERTEX
  8
0
 10
91.769411
 20
98.111864
 42
0.088920
  0
VERTEX
  8
0
 10
92.416667
 20
98.437500
 42
0.102140
  0
VERTEX
  8
0
 10
92.846791
 20
98.924246
 42
0.130775
  0
VERTEX
  8
0
 10
93.000000
 20
99.500000
 42
0.218563
  0
VERTEX
  8
0
 10
92.669191
 20
100.220631
 42
0.115102
  0
VERTEX
  8
0
 10
91.777778
 20
100.685714
 42
0.051894
  0
VERTEX
  8
0
 10
90.106552
 20
100.934870
 42
0.011076
  0
VERTEX
  8
0
 10
87.166667
 20
101.000000
 42
0.010625
  0
VERTEX
  8
0
 10
84.883527
 20
100.951479
 42
0.014928
  0
VERTEX
  8
0
 10
82.851042
 20
100.804167
 42
0.011119
  0
VERTEX
  8
0
 10
81.189525
 20
100.596327
 42
0.161051
  0
SEQEND
  0
POLYLINE
  8
0
 66
1
 70
1
  0
VERTEX
  8
0
 10
113.000000
 20
91.000000
 42
0.003852
  0
VERTEX
  8
0
 10
113.047257
 20
84.866382
 42
0.045528
  0
VERTEX
  8
0
 10
113.300000
 20
82.500000
 42
0.160003
  0
VERTEX
  8
0
 10
113.909584
 20
81.422160
 42
0.186821
  0
VERTEX
  8
0
 10
115.000000
 20
81.000000
 42
0.091029
  0
VERTEX
  8
0
 10
116.012132
 20
81.185806
 42
0.180869
  0
VERTEX
  8
0
 10
116.616028
 20
81.716517
 42
0.103497
  0
VERTEX
  8
0
 10
116.921506
 20
82.756556
 42
0.019858
  0
VERTEX
  8
0
 10
117.000000
 20
84.732135
 42
0.000000
  0
VERTEX
  8
0
 10
117.000000
 20
88.464269
 42
0.000000
  0
VERTEX
  8
0
 10
119.536051
 20
84.732135
 42
0.029826
  0
VERTEX
  8
0
 10
120.706491
 20
83.213032
 42
0.042196
  0
VERTEX
  8
0
 10
121.931239
 20
82.024628
 42
0.049724
  0
VERTEX
  8
0
 10
123.101021
 20
81.247090
 42
0.122422
  0
VERTEX
  8
0
 10
124.095068
 20
81.000000
 42
0.096957
  0
VERTEX
  8
0
 10
125.211351
 20
81.218517
 42
0.375427
  0
VERTEX
  8
0
 10
125.503170
 20
81.798903
 42
0.083543
  0
VERTEX
  8
0
 10
124.965154
 20
83.006580
 42
0.005023
  0
VERTEX
  8
0
 10
122.725813
 20
86.309162
 42
-0.015826
  0
VERTEX
  8
0
 10
121.668389
 20
87.943578
 42
-0.108871
  0
VERTEX
  8
0
 10
121.364092
 20
88.844567
 42
-0.187939
  0
VERTEX
  8
0
 10
121.553416
 20
89.548529
 42
-0.067229
  0
VERTEX
  8
0
 10
122.288804
 20
90.309162
 42
0.166607
  0
VERTEX
  8
0
 10
124.314235
 20
93.451101
 42
0.178681
  0
VERTEX
  8
0
 10
123.909950
 20
97.071404
 42
0.154207
  0
VERTEX
  8
0
 10
121.121039
 20
99.942698
 42
0.124119
  0
VERTEX
  8
0
 10
116.927420
 20
101.000000
 42
0.000000
  0
VERTEX
  8
0
 10
113.000000
 20
101.000000
 42
0.000000
  0
SEQEND
  0
POLYLINE
  8
0
 66
1
 70
1
  0
VERTEX
  8
0
 10
120.802469
 20
94.629863
 42
-0.073081
  0
VERTEX
  8
0
 10
120.555919
 20
93.798568
 42
-0.066228
  0
VERTEX
  8
0
 10
120.074788
 20
93.042100
 42
-0.069657
  0
VERTEX
  8
0
 10
119.441604
 20
92.472071
 42
-0.101732
  0
VERTEX
  8
0
 10
118.750000
 20
92.186892
 42
-0.096626
  0
VERTEX
  8
0
 10
117.906198
 20
92.190535
 42
-0.199985
  0
VERTEX
  8
0
 10
117.368842
 20
92.551674
 42
-0.120007
  0
VERTEX
  8
0
 10
117.078661
 20
93.358051
 42
-0.026646
  0
VERTEX
  8
0
 10
117.000000
 20
94.833056
 42
-0.022859
  0
VERTEX
  8
0
 10
117.073421
 20
96.438165
 42
-0.153010
  0
VERTEX
  8
0
 10
117.377172
 20
97.166563
 42
-0.229325
  0
VERTEX
  8
0
 10
117.969023
 20
97.431715
 42
-0.056590
  0
VERTEX
  8
0
 10
119.052469
 20
97.276028
 42
-0.068224
  0
VERTEX
  8
0
 10
119.943816
 20
96.907534
 42
-0.115064
  0
VERTEX
  8
0
 10
120.528750
 20
96.354499
 42
-0.114724
  0
VERTEX
  8
0
 10
120.809740
 20
95.598492
 42
-0.067558
  0
SEQEND
  0
POLYLINE
  8
0
 66
1
 70
1
  0
VERTEX
  8
0
 10
129.451981
 20
98.567058
 42
0.104924
  0
VERTEX
  8
0
 10
128.583640
 20
96.334611
 42
0.154331
  0
VERTEX
  8
0
 10
128.884216
 20
94.267131
 42
0.109193
  0
VERTEX
  8
0
 10
130.481978
 20
92.242685
 42
0.038039
  0
VERTEX
  8
0
 10
133.545837
 20
90.105457
 42
-0.028062
  0
VERTEX
  8
0
 10
135.075286
 20
89.083279
 42
-0.055706
  0
VERTEX
  8
0
 10
136.134280
 20
88.083667
 42
-0.076338
  0
VERTEX
  8
0
 10
136.718465
 20
87.132035
 42
-0.148179
  0
VERTEX
  8
0
 10
136.810191
 20
86.252920
 42
-0.165889
  0
VERTEX
  8
0
 10
136.045109
 20
84.913685
 42
-0.139368
  0
VERTEX
  8
0
 10
134.563248
 20
84.205118
 42
-0.140582
  0
VERTEX
  8
0
 10
132.940114
 20
84.384818
 42
-0.169340
  0
VERTEX
  8
0
 10
131.797559
 20
85.397259
 42
0.112955
  0
VERTEX
  8
0
 10
130.791218
 20
86.510152
 42
0.142158
  0
VERTEX
  8
0
 10
129.481584
 20
86.956182
 42
0.200896
  0
VERTEX
  8
0
 10
128.438104
 20
86.574475
 42
0.208860
  0
VERTEX
  8
0
 10
128.000000
 20
85.571429
 42
0.230705
  0
VERTEX
  8
0
 10
129.400175
 20
82.698385
 42
0.134438
  0
VERTEX
  8
0
 10
133.012588
 20
81.185661
 42
0.123788
  0
VERTEX
  8
0
 10
137.117210
 20
81.668212
 42
0.192979
  0
VERTEX
  8
0
 10
139.701588
 20
84.049964
 42
0.085099
  0
VERTEX
  8
0
 10
140.461365
 20
86.741580
 42
0.127446
  0
VERTEX
  8
0
 10
140.102557
 20
89.144981
 42
0.114489
  0
VERTEX
  8
0
 10
138.568479
 20
91.250302
 42
0.060413
  0
VERTEX
  8
0
 10
135.871546
 20
93.065532
 42
-0.019328
  0
VERTEX
  8
0
 10
134.388653
 20
93.895770
 42
-0.026996
  0
VERTEX
  8
0
 10
133.137267
 20
94.757457
 42
-0.025914
  0
VERTEX
  8
0
 10
132.216371
 20
95.547104
 42
-0.205356
  0
VERTEX
  8
0
 10
132.000000
 20
96.051709
 42
-0.216431
  0
VERTEX
  8
0
 10
132.437426
 20
97.014915
 42
-0.116467
  0
VERTEX
  8
0
 10
133.613570
 20
97.636725
 42
-0.101663
  0
VERTEX
  8
0
 10
135.084092
 20
97.712983
 42
-0.136311
  0
VERTEX
  8
0
 10
136.296273
 20
97.169078
 42
0.078540
  0
VERTEX
  8
0
 10
136.907255
 20
96.806180
 42
0.077393
  0
VERTEX
  8
0
 10
137.603492
 20
96.647026
 42
0.077448
  0
VERTEX
  8
0
 10
138.314717
 20
96.707150
 42
0.078825
  0
VERTEX
  8
0
 10
138.969236
 20
96.980987
 42
0.262284
  0
VERTEX
  8
0
 10
139.627570
 20
98.174096
 42
0.213275
  0
VERTEX
  8
0
 10
139.010756
 20
99.522377
 42
0.109282
  0
VERTEX
  8
0
 10
137.012623
 20
100.623802
 42
0.071643
  0
VERTEX
  8
0
 10
134.400608
 20
101.000000
 42
0.040685
  0
VERTEX
  8
0
 10
132.739903
 20
100.864645
 42
0.073705
  0
VERTEX
  8
0
 10
131.444153
 20
100.449876
 42
0.079272
  0
VERTEX
  8
0
 10
130.387015
 20
99.702889
 42
0.054402
  0
SEQEND
  0
POLYLINE
  8
0
 66
1
 70
1
  0
VERTEX
  8
0
 10
151.000000
 20
89.000000
 42
0.094959
  0
VERTEX
  8
0
 10
151.195784
 20
87.978414
 42
0.184152
  0
VERTEX
  8
0
 10
151.750000
 20
87.375000
 42
0.098846
  0
VERTEX
  8
0
 10
152.849164
 20
87.074821
 42
0.017388
  0
VERTEX
  8
0
 10
155.000000
 20
87.000000
 42
0.017388
  0
VERTEX
  8
0
 10
157.150836
 20
87.074821
 42
0.098846
  0
VERTEX
  8
0
 10
158.250000
 20
87.375000
 42
0.184152
  0
VERTEX
  8
0
 10
158.804216
 20
87.978414
 42
0.094959
  0
VERTEX
  8
0
 10
159.000000
 20
89.000000
 42
0.094959
  0
VERTEX
  8
0
 10
158.804216
 20
90.021586
 42
0.184152
  0
VERTEX
  8
0
 10
158.250000
 20
90.625000
 42
0.098846
  0
VERTEX
  8
0
 10
157.150836
 20
90.925179
 42
0.017388
  0
VERTEX
  8
0
 10
155.000000
 20
91.000000
 42
0.017388
  0
VERTEX
  8
0
 10
152.849164
 20
90.925179
 42
0.098846
  0
VERTEX
  8
0
 10
151.750000
 20
90.625000
 42
0.184152
  0
VERTEX
  8
0
 10
151.195784
 20
90.021586
 42
0.094959
  0
SEQEND
  0
POLYLINE
  8
0
 66
1
 70
1
  0
VERTEX
  8
0
 10
300.407385
 20
85.487014
 42
0.094276
  0
VERTEX
  8
0
 10
300.289623
 20
83.455728
 42
0.112881
  0
VERTEX
  8
0
 10
300.953953
 20
81.663087
 42
0.122956
  0
VERTEX
  8
0
 10
302.273795
 20
80.442356
 42
0.126093
  0
VERTEX
  8
0
 10
304.000000
 20
80.000000
 42
0.126093
  0
VERTEX
  8
0
 10
305.726205
 20
80.442356
 42
0.122956
  0
VERTEX
  8
0
 10
307.046047
 20
81.663087
 42
0.112881
  0
VERTEX
  8
0
 10
307.710377
 20
83.455728
 42
0.094276
  0
VERTEX
  8
0
 10
307.592615
 20
85.487014
 42
0.054244
  0
VERTEX
  8
0
 10
307.131594
 20
86.733378
 42
0.125083
  0
VERTEX
  8
0
 10
306.483834
 20
87.484654
 42
0.113163
  0
VERTEX
  8
0
 10
305.510240
 20
87.879191
 42
0.039933
  0
VERTEX
  8
0
 10
304.000000
 20
88.000000
 42
0.039933
  0
VERTEX
  8
0
 10
302.489760
 20
87.879191
 42
0.113163
  0
VERTEX
  8
0
 10
301.516166
 20
87.484654
 42
0.125083
  0
VERTEX
  8
0
 10
300.868406
 20
86.733378
 42
0.054244
  0
SEQEND
  0
ENDSEC
  0
EOF
