  0
SECTION
  2
HEADER
  9
$ACADVER
  1
AC1006
  9
$EXTMIN
 10
0.000000
 20
0.000000
 30
0.000000
  9
$EXTMAX
 10
318.000000
 20
318.000000
 30
0.000000
  0
ENDSEC
  0
SECTION
  2
ENTITIES
  0
POLYLINE
  8
0
 66
1
 70
1
  0
VERTEX
  8
0
 10
129.299073
 20
296.914931
 42
0.095347
  0
VERTEX
  8
0
 10
127.377041
 20
295.751195
 42
0.060196
  0
VERTEX
  8
0
 10
125.650578
 20
293.766776
 42
0.053919
  0
VERTEX
  8
0
 10
124.273582
 20
291.172792
 42
0.045754
  0
VERTEX
  8
0
 10
123.389545
 20
288.197726
 42
0.019388
  0
VERTEX
  8
0
 10
123.124945
 20
286.543657
 42
0.105083
  0
VERTEX
  8
0
 10
123.205757
 20
285.643566
 42
0.209485
  0
VERTEX
  8
0
 10
123.611792
 20
285.173019
 42
0.111930
  0
VERTEX
  8
0
 10
124.375000
 20
285.000000
 42
0.125242
  0
VERTEX
  8
0
 10
125.092644
 20
285.182622
 42
0.137850
  0
VERTEX
  8
0
 10
125.605369
 20
285.682134
 42
0.094527
  0
VERTEX
  8
0
 10
125.906605
 20
286.544717
 42
0.036889
  0
VERTEX
  8
0
 10
126.000000
 20
287.808870
 42
-0.070049
  0
VERTEX
  8
0
 10
126.338731
 20
290.214812
 42
-0.077425
  0
VERTEX
  8
0
 10
127.326866
 20
292.345272
 42
-0.108479
  0
VERTEX
  8
0
 10
128.620684
 20
293.589498
 42
-0.283046
  0
VERTEX
  8
0
 10
129.859020
 20
293.587130
 42
-0.117910
  0
VERTEX
  8
0
 10
130.313773
 20
293.129721
 42
-0.163432
  0
VERTEX
  8
0
 10
130.441118
 20
292.570105
 42
-0.099819
  0
VERTEX
  8
0
 10
130.214232
 20
291.834643
 42
-0.028208
  0
VERTEX
  8
0
 10
129.579704
 20
290.810332
 42
0.043012
  0
VERTEX
  8
0
 10
128.937447
 20
289.701606
 42
0.088865
  0
VERTEX
  8
0
 10
128.679106
 20
288.737488
 42
0.091630
  0
VERTEX
  8
0
 10
128.775108
 20
287.763091
 42
0.047972
  0
VERTEX
  8
0
 10
129.225108
 20
286.625977
 42
-0.005693
  0
VERTEX
  8
0
 10
130.807419
 20
283.442781
 42
-0.038804
  0
VERTEX
  8
0
 10
131.445108
 20
281.810092
 42
-0.080694
  0
VERTEX
  8
0
 10
131.600016
 20
280.658808
 42
-0.084983
  0
VERTEX
  8
0
 10
131.376797
 20
279.539533
 42
-0.078607
  0
VERTEX
  8
0
 10
130.726938
 20
278.413163
 42
-0.257694
  0
VERTEX
  8
0
 10
129.958356
 20
278.100649
 42
-0.153313
  0
VERTEX
  8
0
 10
128.966231
 20
278.546657
 42
-0.027131
  0
VERTEX
  8
0
 10
127.500000
 20
280.000000
 42
0.021385
  0
VERTEX
  8
0
 10
126.745071
 20
280.765682
 42
0.026030
  0
VERTEX
  8
0
 10
125.973483
 20
281.412500
 42
0.026046
  0
VERTEX
  8
0
 10
125.282783
 20
281.878502
 42
0.136196
  0
VERTEX
  8
0
 10
124.845012
 20
282.000000
 42
0.294949
  0
VERTEX
  8
0
 10
124.176837
 20
281.568289
 42
0.197013
  0
VERTEX
  8
0
 10
124.144411
 20
280.628471
 42
0.077877
  0
VERTEX
  8
0
 10
124.983432
 20
279.128485
 42
0.029999
  0
VERTEX
  8
0
 10
126.570751
 20
277.338340
 42
-0.037335
  0
VERTEX
  8
0
 10
128.078323
 20
275.587095
 42
-0.123580
  0
VERTEX
  8
0
 10
128.652678
 20
274.190677
 42
-0.070915
  0
VERTEX
  8
0
 10
128.657832
 20
272.287789
 42
-0.007054
  0
VERTEX
  8
0
 10
127.961171
 20
267.769798
 42
0.042306
  0
VERTEX
  8
0
 10
127.367443
 20
260.592644
 42
0.040670
  0
VERTEX
  8
0
 10
127.974777
 20
253.320415
 42
0.041300
  0
VERTEX
  8
0
 10
129.435647
 20
247.530862
 42
0.320624
  0
VERTEX
  8
0
 10
131.577552
 20
246.000000
 42
-0.093465
  0
VERTEX
  8
0
 10
132.120535
 20
245.897606
 42
-0.096460
  0
VERTEX
  8
0
 10
132.582156
 20
245.604903
 42
-0.099142
  0
VERTEX
  8
0
 10
132.891126
 20
245.168188
 42
-0.104906
  0
VERTEX
  8
0
 10
133.000000
 20
244.654988
 42
0.148143
  0
VERTEX
  8
0
 10
133.484496
 20
243.055640
 42
0.084786
  0
VERTEX
  8
0
 10
134.882081
 20
241.577693
 42
0.097750
  0
VERTEX
  8
0
 10
136.517819
 20
240.788973
 42
0.265970
  0
VERTEX
  8
0
 10
137.714317
 20
241.114317
 42
-0.089218
  0
VERTEX
  8
0
 10
138.253895
 20
241.489381
 42
-0.243107
  0
VERTEX
  8
0
 10
138.704743
 20
241.467953
 42
-0.152327
  0
VERTEX
  8
0
 10
139.098830
 20
241.039817
 42
-0.033600
  0
VERTEX
  8
0
 10
139.468388
 20
240.099602
 42
0.097801
  0
VERTEX
  8
0
 10
140.510865
 20
238.201806
 42
0.104239
  0
VERTEX
  8
0
 10
142.176665
 20
236.893490
 42
0.121520
  0
VERTEX
  8
0
 10
144.021867
 20
236.488240
 42
0.168329
  0
VERTEX
  8
0
 10
145.595178
 20
237.078991
 42
-0.048652
  0
VERTEX
  8
0
 10
146.395385
 20
237.621167
 42
-0.161595
  0
VERTEX
  8
0
 10
147.012758
 20
237.732138
 42
-0.153300
  0
VERTEX
  8
0
 10
147.594401
 20
237.453462
 42
-0.042479
  0
VERTEX
  8
0
 10
148.281256
 20
236.693412
 42
0.058998
  0
VERTEX
  8
0
 10
148.946597
 20
236.004240
 42
0.026048
  0
VERTEX
  8
0
 10
149.968929
 20
235.254065
 42
0.025341
  0
VERTEX
  8
0
 10
151.147944
 20
234.562802
 42
0.031051
  0
VERTEX
  8
0
 10
152.315100
 20
234.045028
 42
0.071595
  0
VERTEX
  8
0
 10
156.759090
 20
233.086161
 42
0.057472
  0
VERTEX
  8
0
 10
161.651465
 20
233.307707
 42
0.060992
  0
VERTEX
  8
0
 10
165.987223
 20
234.563411
 42
0.130003
  0
VERTEX
  8
0
 10
168.718744
 20
236.693412
 42
-0.042479
  0
VERTEX
  8
0
 10
169.405599
 20
237.453462
 42
-0.153300
  0
VERTEX
  8
0
 10
169.987242
 20
237.732138
 42
-0.161595
  0
VERTEX
  8
0
 10
170.604615
 20
237.621167
 42
-0.048652
  0
VERTEX
  8
0
 10
171.404822
 20
237.078991
 42
0.168329
  0
VERTEX
  8
0
 10
172.978133
 20
236.488240
 42
0.121520
  0
VERTEX
  8
0
 10
174.823335
 20
236.893490
 42
0.104239
  0
VERTEX
  8
0
 10
176.489135
 20
238.201806
 42
0.097801
  0
VERTEX
  8
0
 10
177.531612
 20
240.099602
 42
-0.033600
  0
VERTEX
  8
0
 10
177.901170
 20
241.039817
 42
-0.152327
  0
VERTEX
  8
0
 10
178.295257
 20
241.467953
 42
-0.243107
  0
VERTEX
  8
0
 10
178.746105
 20
241.489381
 42
-0.089218
  0
VERTEX
  8
0
 10
179.285683
 20
241.114317
 42
0.265970
  0
VERTEX
  8
0
 10
180.482181
 20
240.788973
 42
0.097750
  0
VERTEX
  8
0
 10
182.117919
 20
241.577693
 42
0.084786
  0
VERTEX
  8
0
 10
183.515504
 20
243.055640
 42
0.148143
  0
VERTEX
  8
0
 10
184.000000
 20
244.654988
 42
-0.104906
  0
VERTEX
  8
0
 10
184.108874
 20
245.168188
 42
-0.099142
  0
VERTEX
  8
0
 10
184.417844
 20
245.604903
 42
-0.096460
  0
VERTEX
  8
0
 10
184.879465
 20
245.897606
 42
-0.093465
  0
VERTEX
  8
0
 10
185.422448
 20
246.000000
 42
0.320624
  0
VERTEX
  8
0
 10
187.564353
 20
247.530862
 42
0.041300
  0
VERTEX
  8
0
 10
189.025223
 20
253.320415
 42
0.040670
  0
VERTEX
  8
0
 10
189.632557
 20
260.592644
 42
0.042306
  0
VERTEX
  8
0
 10
189.038829
 20
267.769798
 42
-0.007051
  0
VERTEX
  8
0
 10
188.344400
 20
272.273175
 42
-0.070019
  0
VERTEX
  8
0
 10
188.346148
 20
274.180410
 42
-0.123191
  0
VERTEX
  8
0
 10
188.912182
 20
275.573756
 42
-0.038613
  0
VERTEX
  8
0
 10
190.388582
 20
277.297673
 42
0.100052
  0
VERTEX
  8
0
 10
192.935474
 20
281.134984
 42
0.093538
  0
VERTEX
  8
0
 10
193.871842
 20
285.754574
 42
0.091361
  0
VERTEX
  8
0
 10
193.064998
 20
290.490000
 42
0.090089
  0
VERTEX
  8
0
 10
190.622076
 20
294.652974
 42
0.106721
  0
VERTEX
  8
0
 10
188.108663
 20
296.554948
 42
0.113799
  0
VERTEX
  8
0
 10
185.093029
 20
297.193086
 42
0.092285
  0
VERTEX
  8
0
 10
181.600219
 20
296.477280
 42
0.049645
  0
VERTEX
  8
0
 10
177.698476
 20
294.419158
 42
-0.016027
  0
VERTEX
  8
0
 10
175.278065
 20
292.926680
 42
-0.077940
  0
VERTEX
  8
0
 10
173.776872
 20
292.353156
 42
-0.104689
  0
VERTEX
  8
0
 10
172.392522
 20
292.352120
 42
-0.041004
  0
VERTEX
  8
0
 10
170.552691
 20
292.900816
 42
0.037099
  0
VERTEX
  8
0
 10
168.924365
 20
293.400297
 42
0.011045
  0
VERTEX
  8
0
 10
166.374123
 20
293.920921
 42
0.011014
  0
VERTEX
  8
0
 10
163.474564
 20
294.380713
 42
0.011690
  0
VERTEX
  8
0
 10
160.614535
 20
294.701972
 42
0.006547
  0
VERTEX
  8
0
 10
156.930107
 20
294.980249
 42
0.046426
  0
VERTEX
  8
0
 10
155.139783
 20
294.925634
 42
0.158867
  0
VERTEX
  8
0
 10
154.360193
 20
294.560159
 42
0.292036
  0
VERTEX
  8
0
 10
154.193924
 20
293.906394
 42
0.207958
  0
VERTEX
  8
0
 10
154.788242
 20
293.241348
 42
0.044303
  0
VERTEX
  8
0
 10
156.283031
 20
292.707734
 42
0.031938
  0
VERTEX
  8
0
 10
158.543905
 20
292.271795
 42
0.012012
  0
VERTEX
  8
0
 10
161.752571
 20
291.941413
 42
-0.047831
  0
VERTEX
  8
0
 10
167.962312
 20
290.848792
 42
-0.061541
  0
VERTEX
  8
0
 10
173.312595
 20
288.632715
 42
-0.062877
  0
VERTEX
  8
0
 10
177.875435
 20
285.226954
 42
-0.053072
  0
VERTEX
  8
0
 10
181.750000
 20
280.607845
 42
-0.041820
  0
VERTEX
  8
0
 10
184.245375
 20
276.129141
 42
-0.121067
  0
VERTEX
  8
0
 10
184.889300
 20
272.664786
 42
-0.125746
  0
VERTEX
  8
0
 10
183.845481
 20
269.376388
 42
-0.046826
  0
VERTEX
  8
0
 10
180.884548
 20
265.490575
 42
0.008227
  0
VERTEX
  8
0
 10
178.657332
 20
262.993098
 42
0.068099
  0
VERTEX
  8
0
 10
177.831580
 20
261.721157
 42
0.231540
  0
VERTEX
  8
0
 10
177.843470
 20
260.940558
 42
0.185613
  0
VERTEX
  8
0
 10
178.475442
 20
260.371050
 42
0.104363
  0
VERTEX
  8
0
 10
179.363695
 20
260.229131
 42
0.034521
  0
VERTEX
  8
0
 10
180.681973
 20
260.386154
 42
0.032634
  0
VERTEX
  8
0
 10
182.160437
 20
260.768099
 42
0.031739
  0
VERTEX
  8
0
 10
183.590894
 20
261.341953
 42
-0.007125
  0
VERTEX
  8
0
 10
185.754782
 20
262.336246
 42
-0.123797
  0
VERTEX
  8
0
 10
186.513598
 20
262.466604
 42
-0.333682
  0
VERTEX
  8
0
 10
186.890894
 20
262.135465
 42
-0.051629
  0
VERTEX
  8
0
 10
187.000000
 20
261.081647
 42
-0.218141
  0
VERTEX
  8
0
 10
186.334495
 20
259.628829
 42
-0.067796
  0
VERTEX
  8
0
 10
184.271075
 20
258.287804
 42
-0.057522
  0
VERTEX
  8
0
 10
181.425192
 20
257.325699
 42
-0.052822
  0
VERTEX
  8
0
 10
178.350777
 20
257.000000
 42
0.054724
  0
VERTEX
  8
0
 10
177.449247
 20
256.901033
 42
0.074951
  0
VERTEX
  8
0
 10
176.688746
 20
256.607549
 42
0.094771
  0
VERTEX
  8
0
 10
176.179746
 20
256.172785
 42
0.170349
  0
VERTEX
  8
0
 10
176.000000
 20
255.660515
 42
0.227844
  0
VERTEX
  8
0
 10
176.590700
 20
254.431526
 42
0.056916
  0
VERTEX
  8
0
 10
178.529317
 20
253.213386
 42
0.052273
  0
VERTEX
  8
0
 10
181.069361
 20
252.306727
 42
0.059670
  0
VERTEX
  8
0
 10
183.630386
 20
252.000000
 42
-0.037925
  0
VERTEX
  8
0
 10
184.668113
 20
251.921174
 42
-0.095143
  0
VERTEX
  8
0
 10
185.380396
 20
251.668137
 42
-0.162009
  0
VERTEX
  8
0
 10
185.732078
 20
251.265958
 42
-0.181721
  0
VERTEX
  8
0
 10
185.751414
 20
250.754241
 42
-0.121323
  0
VERTEX
  8
0
 10
185.450318
 20
250.277401
 42
-0.068684
  0
VERTEX
  8
0
 10
184.894705
 20
249.873178
 42
-0.062089
  0
VERTEX
  8
0
 10
184.182442
 20
249.598727
 42
-0.060463
  0
VERTEX
  8
0
 10
183.418080
 20
249.504241
 42
0.094952
  0
VERTEX
  8
0
 10
182.532902
 20
249.332582
 42
0.127861
  0
VERTEX
  8
0
 10
181.878622
 20
248.850279
 42
0.099844
  0
VERTEX
  8
0
 10
181.437062
 20
248.006654
 42
0.042181
  0
VERTEX
  8
0
 10
181.183353
 20
246.747675
 42
-0.030721
  0
VERTEX
  8
0
 10
180.927854
 20
245.310706
 42
-0.154696
  0
VERTEX
  8
0
 10
180.510587
 20
244.621413
 42
-0.192009
  0
VERTEX
  8
0
 10
179.828849
 20
244.380190
 42
-0.051694
  0
VERTEX
  8
0
 10
178.670997
 20
244.546438
 42
0.070420
  0
VERTEX
  8
0
 10
177.511033
 20
244.669033
 42
0.154404
  0
VERTEX
  8
0
 10
176.678851
 20
244.373068
 42
0.112424
  0
VERTEX
  8
0
 10
176.002679
 20
243.568333
 42
0.028500
  0
VERTEX
  8
0
 10
175.305349
 20
241.998007
 42
-0.017719
  0
VERTEX
  8
0
 10
174.563321
 20
240.224972
 42
-0.155864
  0
VERTEX
  8
0
 10
173.996491
 20
239.605477
 42
-0.230834
  0
VERTEX
  8
0
 10
173.293796
 20
239.558467
 42
-0.042858
  0
VERTEX
  8
0
 10
172.107595
 20
240.164879
 42
-0.035527
  0
VERTEX
  8
0
 10
171.387824
 20
240.688871
 42
-0.069117
  0
VERTEX
  8
0
 10
170.913506
 20
241.216238
 42
-0.119309
  0
VERTEX
  8
0
 10
170.748207
 20
241.659450
 42
-0.284131
  0
VERTEX
  8
0
 10
170.890185
 20
241.965636
 42
0.116429
  0
VERTEX
  8
0
 10
172.104987
 20
243.253941
 42
0.048365
  0
VERTEX
  8
0
 10
173.103038
 20
245.444154
 42
0.043596
  0
VERTEX
  8
0
 10
173.774431
 20
248.143459
 42
0.039181
  0
VERTEX
  8
0
 10
174.000000
 20
251.017592
 42
0.042217
  0
VERTEX
  8
0
 10
173.723450
 20
254.287065
 42
0.491247
  0
VERTEX
  8
0
 10
172.746601
 20
254.806583
 42
0.242715
  0
VERTEX
  8
0
 10
171.682850
 20
253.464226
 42
0.032093
  0
VERTEX
  8
0
 10
171.198463
 20
249.751503
 42
-0.027128
  0
VERTEX
  8
0
 10
170.976193
 20
247.905217
 42
-0.029915
  0
VERTEX
  8
0
 10
170.559112
 20
246.154419
 42
-0.031281
  0
VERTEX
  8
0
 10
170.025476
 20
244.720262
 42
-0.115336
  0
VERTEX
  8
0
 10
169.445384
 20
243.954673
 42
-0.109387
  0
VERTEX
  8
0
 10
167.745133
 20
243.080677
 42
-0.065667
  0
VERTEX
  8
0
 10
165.483468
 20
242.794738
 42
-0.065496
  0
VERTEX
  8
0
 10
163.217351
 20
243.105283
 42
-0.106836
  0
VERTEX
  8
0
 10
161.503079
 20
243.997445
 42
-0.131894
  0
VERTEX
  8
0
 10
160.317494
 20
245.672982
 42
-0.161673
  0
VERTEX
  8
0
 10
160.254639
 20
247.579784
 42
-0.096183
  0
VERTEX
  8
0
 10
161.461904
 20
249.902138
 42
-0.028564
  0
VERTEX
  8
0
 10
164.137249
 20
252.901954
 42
0.007420
  0
VERTEX
  8
0
 10
166.739293
 20
255.582401
 42
0.097727
  0
VERTEX
  8
0
 10
167.470772
 20
256.746848
 42
0.220043
  0
VERTEX
  8
0
 10
167.405266
 20
257.721069
 42
0.058879
  0
VERTEX
  8
0
 10
166.482261
 20
259.019601
 42
0.077132
  0
VERTEX
  8
0
 10
165.275817
 20
259.997749
 42
0.071151
  0
VERTEX
  8
0
 10
163.796504
 20
260.597632
 42
0.046928
  0
VERTEX
  8
0
 10
161.718031
 20
260.910492
 42
0.013905
  0
VERTEX
  8
0
 10
158.500000
 20
261.000000
 42
0.013905
  0
VERTEX
  8
0
 10
155.281969
 20
260.910492
 42
0.046928
  0
VERTEX
  8
0
 10
153.203496
 20
260.597632
 42
0.071151
  0
VERTEX
  8
0
 10
151.724183
 20
259.997749
 42
0.077132
  0
VERTEX
  8
0
 10
150.517739
 20
259.019601
 42
0.058879
  0
VERTEX
  8
0
 10
149.594734
 20
257.721069
 42
0.220043
  0
VERTEX
  8
0
 10
149.529228
 20
256.746848
 42
0.097727
  0
VERTEX
  8
0
 10
150.260707
 20
255.582401
 42
0.007420
  0
VERTEX
  8
0
 10
152.862751
 20
252.901954
 42
-0.019566
  0
VERTEX
  8
0
 10
154.446710
 20
251.188929
 42
-0.023847
  0
VERTEX
  8
0
 10
155.784683
 20
249.463050
 42
-0.023388
  0
VERTEX
  8
0
 10
156.753443
 20
247.934918
 42
-0.130291
  0
VERTEX
  8
0
 10
157.000000
 20
247.004798
 42
-0.127008
  0
VERTEX
  8
0
 10
156.578633
 20
245.372728
 42
-0.102112
  0
VERTEX
  8
0
 10
155.394587
 20
243.991947
 42
-0.090165
  0
VERTEX
  8
0
 10
153.614015
 20
243.068148
 42
-0.074826
  0
VERTEX
  8
0
 10
151.500000
 20
242.750000
 42
-0.087028
  0
VERTEX
  8
0
 10
148.773655
 20
243.228158
 42
-0.173281
  0
VERTEX
  8
0
 10
147.105593
 20
244.605969
 42
-0.109869
  0
VERTEX
  8
0
 10
146.236004
 20
247.244280
 42
-0.024887
  0
VERTEX
  8
0
 10
146.000000
 20
251.982898
 42
-0.014923
  0
VERTEX
  8
0
 10
146.109324
 20
255.645141
 42
-0.043964
  0
VERTEX
  8
0
 10
146.479443
 20
258.135209
 42
-0.054894
  0
VERTEX
  8
0
 10
147.222239
 20
260.201440
 42
-0.035377
  0
VERTEX
  8
0
 10
148.500000
 20
262.404862
 42
0.005206
  0
VERTEX
  8
0
 10
150.395554
 20
265.261682
 42
0.086275
  0
VERTEX
  8
0
 10
150.841973
 20
266.307964
 42
0.373687
  0
VERTEX
  8
0
 10
150.576391
 20
266.813064
 42
0.093139
  0
VERTEX
  8
0
 10
149.581559
 20
267.000000
 42
0.232457
  0
VERTEX
  8
0
 10
147.763694
 20
266.106571
 42
0.047034
  0
VERTEX
  8
0
 10
145.787219
 20
262.976304
 42
0.044712
  0
VERTEX
  8
0
 10
144.148501
 20
258.871467
 42
0.046940
  0
VERTEX
  8
0
 10
143.298887
 20
254.606997
 42
0.023272
  0
VERTEX
  8
0
 10
143.064767
 20
250.453684
 42
0.046253
  0
VERTEX
  8
0
 10
143.336674
 20
247.171929
 42
0.059872
  0
VERTEX
  8
0
 10
144.108064
 20
244.630666
 42
0.093039
  0
VERTEX
  8
0
 10
145.397397
 20
242.745460
 42
-0.042036
  0
VERTEX
  8
0
 10
146.074729
 20
241.943544
 42
-0.210851
  0
VERTEX
  8
0
 10
146.189739
 20
241.381205
 42
-0.174036
  0
VERTEX
  8
0
 10
145.856639
 20
240.848124
 42
-0.027365
  0
VERTEX
  8
0
 10
144.828190
 20
240.124776
 42
-0.047666
  0
VERTEX
  8
0
 10
143.694023
 20
239.558629
 42
-0.230593
  0
VERTEX
  8
0
 10
142.996677
 20
239.618424
 42
-0.150717
  0
VERTEX
  8
0
 10
142.427944
 20
240.250352
 42
-0.018179
  0
VERTEX
  8
0
 10
141.694651
 20
241.998007
 42
0.028500
  0
VERTEX
  8
0
 10
140.997321
 20
243.568333
 42
0.112424
  0
VERTEX
  8
0
 10
140.321149
 20
244.373068
 42
0.154404
  0
VERTEX
  8
0
 10
139.488967
 20
244.669033
 42
0.070420
  0
VERTEX
  8
0
 10
138.329003
 20
244.546438
 42
-0.051694
  0
VERTEX
  8
0
 10
137.171151
 20
244.380190
 42
-0.192009
  0
VERTEX
  8
0
 10
136.489413
 20
244.621413
 42
-0.154696
  0
VERTEX
  8
0
 10
136.072146
 20
245.310706
 42
-0.030721
  0
VERTEX
  8
0
 10
135.816647
 20
246.747675
 42
0.042181
  0
VERTEX
  8
0
 10
135.562938
 20
248.006654
 42
0.099844
  0
VERTEX
  8
0
 10
135.121378
 20
248.850279
 42
0.127861
  0
VERTEX
  8
0
 10
134.467098
 20
249.332582
 42
0.094952
  0
VERTEX
  8
0
 10
133.581920
 20
249.504241
 42
-0.060463
  0
VERTEX
  8
0
 10
132.817558
 20
249.598727
 42
-0.062089
  0
VERTEX
  8
0
 10
132.105295
 20
249.873178
 42
-0.068684
  0
VERTEX
  8
0
 10
131.549682
 20
250.277401
 42
-0.121323
  0
VERTEX
  8
0
 10
131.248586
 20
250.754241
 42
-0.181721
  0
VERTEX
  8
0
 10
131.267922
 20
251.265958
 42
-0.162009
  0
VERTEX
  8
0
 10
131.619604
 20
251.668137
 42
-0.095143
  0
VERTEX
  8
0
 10
132.331887
 20
251.921174
 42
-0.037925
  0
VERTEX
  8
0
 10
133.369614
 20
252.000000
 42
0.059577
  0
VERTEX
  8
0
 10
135.855370
 20
252.297243
 42
0.047448
  0
VERTEX
  8
0
 10
138.410173
 20
253.180476
 42
0.049064
  0
VERTEX
  8
0
 10
140.420351
 20
254.346762
 42
0.241280
  0
VERTEX
  8
0
 10
141.000000
 20
255.478026
 42
0.273414
  0
VERTEX
  8
0
 10
140.702361
 20
255.981636
 42
0.031123
  0
VERTEX
  8
0
 10
139.457812
 20
256.569074
 42
0.030693
  0
VERTEX
  8
0
 10
137.761687
 20
257.126282
 42
0.020068
  0
VERTEX
  8
0
 10
135.750000
 20
257.567511
 42
-0.014926
  0
VERTEX
  8
0
 10
132.962543
 20
258.148922
 42
-0.070246
  0
VERTEX
  8
0
 10
131.444979
 20
258.747578
 42
-0.125984
  0
VERTEX
  8
0
 10
130.607645
 20
259.554092
 42
-0.103441
  0
VERTEX
  8
0
 10
130.183714
 20
260.725087
 42
-0.022668
  0
VERTEX
  8
0
 10
130.054125
 20
262.072653
 42
-0.344655
  0
VERTEX
  8
0
 10
130.306947
 20
262.431880
 42
-0.187614
  0
VERTEX
  8
0
 10
130.873721
 20
262.388038
 42
-0.008162
  0
VERTEX
  8
0
 10
132.683714
 20
261.481247
 42
0.033211
  0
VERTEX
  8
0
 10
134.825931
 20
260.539031
 42
0.056008
  0
VERTEX
  8
0
 10
136.732079
 20
260.080498
 42
0.072876
  0
VERTEX
  8
0
 10
138.273211
 20
260.113368
 42
0.155889
  0
VERTEX
  8
0
 10
139.319665
 20
260.652998
 42
0.335013
  0
VERTEX
  8
0
 10
139.384612
 20
261.117654
 42
0.020609
  0
VERTEX
  8
0
 10
138.609860
 20
262.384546
 42
0.023928
  0
VERTEX
  8
0
 10
137.467359
 20
263.925733
 42
0.014738
  0
VERTEX
  8
0
 10
135.986331
 20
265.630655
 42
-0.040454
  0
VERTEX
  8
0
 10
133.299085
 20
269.065766
 42
-0.106998
  0
VERTEX
  8
0
 10
132.177301
 20
271.959720
 42
-0.111850
  0
VERTEX
  8
0
 10
132.377331
 20
274.978726
 42
-0.046571
  0
VERTEX
  8
0
 10
133.908417
 20
278.789838
 42
-0.044227
  0
VERTEX
  8
0
 10
136.121686
 20
282.292927
 42
-0.045489
  0
VERTEX
  8
0
 10
138.897913
 20
285.316425
 42
-0.043922
  0
VERTEX
  8
0
 10
142.268117
 20
287.874769
 42
-0.036309
  0
VERTEX
  8
0
 10
146.250000
 20
289.993180
 42
0.015689
  0
VERTEX
  8
0
 10
148.069880
 20
290.867161
 42
0.023067
  0
VERTEX
  8
0
 10
149.604688
 20
291.756598
 42
0.019891
  0
VERTEX
  8
0
 10
150.762785
 20
292.567947
 42
0.234117
  0
VERTEX
  8
0
 10
151.000000
 20
293.046794
 42
0.212937
  0
VERTEX
  8
0
 10
150.713362
 20
293.689333
 42
0.192199
  0
VERTEX
  8
0
 10
150.026320
 20
293.941536
 42
0.066093
  0
VERTEX
  8
0
 10
148.683152
 20
293.724849
 42
0.010872
  0
VERTEX
  8
0
 10
146.177254
 20
292.911946
 42
-0.034651
  0
VERTEX
  8
0
 10
144.388483
 20
292.424289
 42
-0.092563
  0
VERTEX
  8
0
 10
143.072099
 20
292.408125
 42
-0.085321
  0
VERTEX
  8
0
 10
141.776037
 20
292.870315
 42
-0.026505
  0
VERTEX
  8
0
 10
140.024006
 20
293.982906
 42
0.037049
  0
VERTEX
  8
0
 10
137.075525
 20
295.769255
 42
0.050991
  0
VERTEX
  8
0
 10
134.187777
 20
296.885176
 42
0.059307
  0
VERTEX
  8
0
 10
131.537918
 20
297.281292
 42
0.096353
  0
SEQEND
  0
POLYLINE
  8
0
 66
1
 70
1
  0
VERTEX
  8
0
 10
137.694236
 20
292.585072
 42
-0.018629
  0
VERTEX
  8
0
 10
140.083532
 20
290.368442
 42
-0.563175
  0
VERTEX
  8
0
 10
139.923790
 20
289.716209
 42
-0.237613
  0
VERTEX
  8
0
 10
138.753090
 20
289.907261
 42
-0.015958
  0
VERTEX
  8
0
 10
135.993606
 20
292.050038
 42
-0.016218
  0
VERTEX
  8
0
 10
134.734106
 20
293.165004
 42
-0.036823
  0
VERTEX
  8
0
 10
133.877054
 20
294.103354
 42
-0.077277
  0
VERTEX
  8
0
 10
133.526923
 20
294.725957
 42
-0.516270
  0
VERTEX
  8
0
 10
133.694236
 20
294.973099
 42
-0.117634
  0
VERTEX
  8
0
 10
134.327876
 20
294.836937
 42
-0.023093
  0
VERTEX
  8
0
 10
135.361859
 20
294.282713
 42
-0.023334
  0
VERTEX
  8
0
 10
136.532455
 20
293.507590
 42
-0.019787
  0
SEQEND
  0
POLYLINE
  8
0
 66
1
 70
1
  0
VERTEX
  8
0
 10
181.006394
 20
292.050038
 42
-0.014781
  0
VERTEX
  8
0
 10
179.630685
 20
290.976583
 42
-0.023712
  0
VERTEX
  8
0
 10
178.390282
 20
290.153889
 42
-0.020227
  0
VERTEX
  8
0
 10
177.372876
 20
289.601025
 42
-0.321549
  0
VERTEX
  8
0
 10
177.006394
 20
289.662011
 42
-0.417201
  0
VERTEX
  8
0
 10
177.011954
 20
290.478682
 42
-0.018255
  0
VERTEX
  8
0
 10
179.339882
 20
292.591469
 42
-0.022033
  0
VERTEX
  8
0
 10
181.862050
 20
294.534526
 42
-0.160068
  0
VERTEX
  8
0
 10
183.305764
 20
294.973099
 42
-0.516270
  0
VERTEX
  8
0
 10
183.473077
 20
294.725957
 42
-0.077277
  0
VERTEX
  8
0
 10
183.122946
 20
294.103354
 42
-0.036823
  0
VERTEX
  8
0
 10
182.265894
 20
293.165004
 42
-0.016218
  0
SEQEND
  0
POLYLINE
  8
0
 66
1
 70
1
  0
VERTEX
  8
0
 10
189.964816
 20
292.065741
 42
-0.112309
  0
VERTEX
  8
0
 10
191.024316
 20
288.203194
 42
-0.063847
  0
VERTEX
  8
0
 10
190.618320
 20
283.351434
 42
-0.070277
  0
VERTEX
  8
0
 10
189.136269
 20
279.308042
 42
-0.276527
  0
VERTEX
  8
0
 10
186.952001
 20
278.000000
 42
-0.258438
  0
VERTEX
  8
0
 10
186.111895
 20
278.465308
 42
-0.094172
  0
VERTEX
  8
0
 10
185.600963
 20
279.777199
 42
-0.075979
  0
VERTEX
  8
0
 10
185.546585
 20
281.479531
 42
-0.086556
  0
VERTEX
  8
0
 10
186.016215
 20
283.039533
 42
0.000336
  0
VERTEX
  8
0
 10
186.460392
 20
283.926167
 42
0.000204
  0
VERTEX
  8
0
 10
186.984500
 20
284.975181
 42
0.000205
  0
VERTEX
  8
0
 10
187.503549
 20
286.016196
 42
0.000361
  0
VERTEX
  8
0
 10
187.931020
 20
286.875977
 42
0.065137
  0
VERTEX
  8
0
 10
188.260335
 20
287.835592
 42
0.080180
  0
VERTEX
  8
0
 10
188.298587
 20
288.780210
 42
0.074735
  0
VERTEX
  8
0
 10
188.034335
 20
289.739724
 42
0.048308
  0
VERTEX
  8
0
 10
187.466325
 20
290.744615
 42
-0.055103
  0
VERTEX
  8
0
 10
186.753042
 20
292.047427
 42
-0.149186
  0
VERTEX
  8
0
 10
186.654534
 20
293.085231
 42
-0.220996
  0
VERTEX
  8
0
 10
187.144787
 20
293.748453
 42
-0.125463
  0
VERTEX
  8
0
 10
188.131483
 20
294.000000
 42
-0.164103
  0
VERTEX
  8
0
 10
188.507430
 20
293.873197
 42
-0.040414
  0
VERTEX
  8
0
 10
188.999261
 20
293.431812
 42
-0.037056
  0
VERTEX
  8
0
 10
189.509907
 20
292.806171
 42
-0.029775
  0
SEQEND
  0
POLYLINE
  8
0
 66
1
 70
1
  0
VERTEX
  8
0
 10
135.268681
 20
289.250000
 42
-0.036352
  0
VERTEX
  8
0
 10
136.039902
 20
288.258947
 42
-0.126826
  0
VERTEX
  8
0
 10
136.305230
 20
287.500000
 42
-0.135853
  0
VERTEX
  8
0
 10
136.161833
 20
286.738122
 42
-0.044247
  0
VERTEX
  8
0
 10
135.563426
 20
285.750000
 42
-0.028602
  0
VERTEX
  8
0
 10
134.338650
 20
284.266485
 42
-0.305653
  0
VERTEX
  8
0
 10
133.615809
 20
284.097094
 42
-0.344345
  0
VERTEX
  8
0
 10
133.255874
 20
284.691531
 42
-0.031787
  0
VERTEX
  8
0
 10
133.589356
 20
286.500000
 42
0.032626
  0
VERTEX
  8
0
 10
133.779363
 20
287.540175
 42
0.076525
  0
VERTEX
  8
0
 10
133.749972
 20
288.327651
 42
0.131105
  0
VERTEX
  8
0
 10
133.514634
 20
288.813870
 42
0.218190
  0
VERTEX
  8
0
 10
133.108408
 20
289.000000
 42
-0.089013
  0
VERTEX
  8
0
 10
132.685217
 20
289.075941
 42
-0.095012
  0
VERTEX
  8
0
 10
132.325595
 20
289.293750
 42
-0.099907
  0
VERTEX
  8
0
 10
132.085003
 20
289.618502
 42
-0.110058
  0
VERTEX
  8
0
 10
132.000000
 20
290.000000
 42
-0.197014
  0
VERTEX
  8
0
 10
132.299762
 20
290.731237
 42
-0.260208
  0
VERTEX
  8
0
 10
132.978290
 20
290.928983
 42
-0.113544
  0
VERTEX
  8
0
 10
134.034745
 20
290.416485
 42
-0.039782
  0
SEQEND
  0
POLYLINE
  8
0
 66
1
 70
1
  0
VERTEX
  8
0
 10
185.000000
 20
290.000000
 42
-0.110058
  0
VERTEX
  8
0
 10
184.914997
 20
289.618502
 42
-0.099907
  0
VERTEX
  8
0
 10
184.674405
 20
289.293750
 42
-0.095012
  0
VERTEX
  8
0
 10
184.314783
 20
289.075941
 42
-0.089013
  0
VERTEX
  8
0
 10
183.891592
 20
289.000000
 42
0.218190
  0
VERTEX
  8
0
 10
183.485366
 20
288.813870
 42
0.131105
  0
VERTEX
  8
0
 10
183.250028
 20
288.327651
 42
0.076525
  0
VERTEX
  8
0
 10
183.220637
 20
287.540175
 42
0.032626
  0
VERTEX
  8
0
 10
183.410644
 20
286.500000
 42
-0.063349
  0
VERTEX
  8
0
 10
183.614829
 20
284.797696
 42
-0.322238
  0
VERTEX
  8
0
 10
183.083933
 20
284.070501
 42
-0.293725
  0
VERTEX
  8
0
 10
182.164395
 20
284.309873
 42
-0.058704
  0
VERTEX
  8
0
 10
181.120382
 20
285.749373
 42
-0.066379
  0
VERTEX
  8
0
 10
180.758864
 20
286.660729
 42
-0.104459
  0
VERTEX
  8
0
 10
180.727904
 20
287.499033
 42
-0.094600
  0
VERTEX
  8
0
 10
181.042943
 20
288.336291
 42
-0.046794
  0
VERTEX
  8
0
 10
181.725679
 20
289.249373
 42
-0.039625
  0
VERTEX
  8
0
 10
182.963402
 20
290.416436
 42
-0.113347
  0
VERTEX
  8
0
 10
184.021270
 20
290.928859
 42
-0.260041
  0
VERTEX
  8
0
 10
184.700103
 20
290.731113
 42
-0.197127
  0
SEQEND
  0
POLYLINE
  8
0
 66
1
 70
1
  0
VERTEX
  8
0
 10
133.000000
 20
264.755111
 42
-0.231849
  0
VERTEX
  8
0
 10
132.867729
 20
264.485192
 42
-0.208269
  0
VERTEX
  8
0
 10
132.563778
 20
264.407958
 42
-0.095981
  0
VERTEX
  8
0
 10
132.082328
 20
264.585453
 42
-0.037052
  0
VERTEX
  8
0
 10
131.500000
 20
265.000000
 42
-0.035768
  0
VERTEX
  8
0
 10
130.926013
 20
265.550187
 42
-0.036518
  0
VERTEX
  8
0
 10
130.440625
 20
266.172953
 42
-0.039072
  0
VERTEX
  8
0
 10
130.103440
 20
266.774419
 42
-0.108636
  0
VERTEX
  8
0
 10
130.000000
 20
267.244889
 42
-0.231849
  0
VERTEX
  8
0
 10
130.132271
 20
267.514808
 42
-0.208269
  0
VERTEX
  8
0
 10
130.436222
 20
267.592042
 42
-0.095981
  0
VERTEX
  8
0
 10
130.917672
 20
267.414547
 42
-0.037052
  0
VERTEX
  8
0
 10
131.500000
 20
267.000000
 42
-0.035768
  0
VERTEX
  8
0
 10
132.073987
 20
266.449813
 42
-0.036518
  0
VERTEX
  8
0
 10
132.559375
 20
265.827047
 42
-0.039072
  0
VERTEX
  8
0
 10
132.896560
 20
265.225581
 42
-0.108636
  0
SEQEND
  0
POLYLINE
  8
0
 66
1
 70
1
  0
VERTEX
  8
0
 10
186.541119
 20
266.066531
 42
-0.064100
  0
VERTEX
  8
0
 10
186.210125
 20
265.658556
 42
-0.051744
  0
VERTEX
  8
0
 10
185.763210
 20
265.313294
 42
-0.053409
  0
VERTEX
  8
0
 10
185.274058
 20
265.078415
 42
-0.085443
  0
VERTEX
  8
0
 10
184.818538
 20
265.000000
 42
-0.176123
  0
VERTEX
  8
0
 10
184.485592
 20
265.121034
 42
-0.256649
  0
VERTEX
  8
0
 10
184.374856
 20
265.405689
 42
-0.110288
  0
VERTEX
  8
0
 10
184.548584
 20
265.879936
 42
-0.030483
  0
VERTEX
  8
0
 10
185.020056
 20
266.524166
 42
-0.055352
  0
VERTEX
  8
0
 10
185.961207
 20
267.432181
 42
-0.241841
  0
VERTEX
  8
0
 10
186.698517
 20
267.568117
 42
-0.400869
  0
VERTEX
  8
0
 10
186.972110
 20
267.085853
 42
-0.076926
  0
SEQEND
  0
POLYLINE
  8
0
 66
1
 70
1
  0
VERTEX
  8
0
 10
163.927408
 20
256.718197
 42
0.034194
  0
VERTEX
  8
0
 10
163.242253
 20
256.108181
 42
0.018343
  0
VERTEX
  8
0
 10
162.479834
 20
255.270345
 42
0.018184
  0
VERTEX
  8
0
 10
161.761494
 20
254.354755
 42
0.027053
  0
VERTEX
  8
0
 10
161.207817
 20
253.500000
 42
-0.004328
  0
VERTEX
  8
0
 10
160.429183
 20
252.169140
 42
-0.320879
  0
VERTEX
  8
0
 10
160.211659
 20
252.074137
 42
-0.345157
  0
VERTEX
  8
0
 10
160.064673
 20
252.249760
 42
-0.004660
  0
VERTEX
  8
0
 10
160.030409
 20
253.750000
 42
0.058557
  0
VERTEX
  8
0
 10
159.912399
 20
254.649191
 42
0.087680
  0
VERTEX
  8
0
 10
159.588470
 20
255.369932
 42
0.108176
  0
VERTEX
  8
0
 10
159.098770
 20
255.833490
 42
0.136454
  0
VERTEX
  8
0
 10
158.500000
 20
256.000000
 42
0.136454
  0
VERTEX
  8
0
 10
157.901230
 20
255.833490
 42
0.108176
  0
VERTEX
  8
0
 10
157.411530
 20
255.369932
 42
0.087680
  0
VERTEX
  8
0
 10
157.087601
 20
254.649191
 42
0.058557
  0
VERTEX
  8
0
 10
156.969591
 20
253.750000
 42
-0.004660
  0
VERTEX
  8
0
 10
156.935327
 20
252.249760
 42
-0.345157
  0
VERTEX
  8
0
 10
156.788341
 20
252.074137
 42
-0.320879
  0
VERTEX
  8
0
 10
156.570817
 20
252.169140
 42
-0.004328
  0
VERTEX
  8
0
 10
155.792183
 20
253.500000
 42
0.027053
  0
VERTEX
  8
0
 10
155.238506
 20
254.354755
 42
0.018184
  0
VERTEX
  8
0
 10
154.520166
 20
255.270345
 42
0.018343
  0
VERTEX
  8
0
 10
153.757747
 20
256.108181
 42
0.034194
  0
VERTEX
  8
0
 10
153.072592
 20
256.718197
 42
-0.248784
  0
VERTEX
  8
0
 10
152.816682
 20
257.285084
 42
-0.333160
  0
VERTEX
  8
0
 10
153.170211
 20
257.699050
 42
-0.049747
  0
VERTEX
  8
0
 10
154.781026
 20
257.895539
 42
-0.005492
  0
VERTEX
  8
0
 10
158.500000
 20
257.936393
 42
-0.005492
  0
VERTEX
  8
0
 10
162.218974
 20
257.895539
 42
-0.049747
  0
VERTEX
  8
0
 10
163.829789
 20
257.699050
 42
-0.333160
  0
VERTEX
  8
0
 10
164.183318
 20
257.285084
 42
-0.248784
  0
SEQEND
  0
POLYLINE
  8
0
 66
1
 70
1
  0
VERTEX
  8
0
 10
159.500000
 20
242.000000
 42
-0.146489
  0
VERTEX
  8
0
 10
159.602013
 20
241.620597
 42
-0.191582
  0
VERTEX
  8
0
 10
159.461189
 20
241.293750
 42
-0.134005
  0
VERTEX
  8
0
 10
159.074636
 20
241.072951
 42
-0.063222
  0
VERTEX
  8
0
 10
158.500000
 20
241.000000
 42
-0.063222
  0
VERTEX
  8
0
 10
157.925364
 20
241.072951
 42
-0.134005
  0
VERTEX
  8
0
 10
157.538811
 20
241.293750
 42
-0.191582
  0
VERTEX
  8
0
 10
157.397987
 20
241.620597
 42
-0.146489
  0
VERTEX
  8
0
 10
157.500000
 20
242.000000
 42
-0.025622
  0
VERTEX
  8
0
 10
157.764631
 20
242.382847
 42
-0.032351
  0
VERTEX
  8
0
 10
158.048689
 20
242.706250
 42
-0.033983
  0
VERTEX
  8
0
 10
158.313296
 20
242.937141
 42
-0.163822
  0
VERTEX
  8
0
 10
158.500000
 20
243.000000
 42
-0.163822
  0
VERTEX
  8
0
 10
158.686704
 20
242.937141
 42
-0.033983
  0
VERTEX
  8
0
 10
158.951311
 20
242.706250
 42
-0.032351
  0
VERTEX
  8
0
 10
159.235369
 20
242.382847
 42
-0.025622
  0
SEQEND
  0
POLYLINE
  8
0
 66
1
 70
1
  0
VERTEX
  8
0
 10
167.000000
 20
239.050000
 42
-0.213993
  0
VERTEX
  8
0
 10
166.421860
 20
237.761020
 42
-0.096051
  0
VERTEX
  8
0
 10
164.791444
 20
236.792482
 42
-0.060366
  0
VERTEX
  8
0
 10
162.137902
 20
236.188143
 42
-0.025842
  0
VERTEX
  8
0
 10
158.500000
 20
236.000000
 42
-0.025842
  0
VERTEX
  8
0
 10
154.862098
 20
236.188143
 42
-0.060366
  0
VERTEX
  8
0
 10
152.208556
 20
236.792482
 42
-0.096051
  0
VERTEX
  8
0
 10
150.578140
 20
237.761020
 42
-0.213993
  0
VERTEX
  8
0
 10
150.000000
 20
239.050000
 42
-0.385615
  0
VERTEX
  8
0
 10
150.236288
 20
239.310820
 42
-0.005575
  0
VERTEX
  8
0
 10
152.496875
 20
239.509062
 42
-0.011911
  0
VERTEX
  8
0
 10
155.240846
 20
239.653258
 42
-0.007170
  0
VERTEX
  8
0
 10
158.500000
 20
239.700000
 42
-0.007170
  0
VERTEX
  8
0
 10
161.759154
 20
239.653258
 42
-0.011911
  0
VERTEX
  8
0
 10
164.503125
 20
239.509062
 42
-0.005575
  0
VERTEX
  8
0
 10
166.763712
 20
239.310820
 42
-0.385615
  0
SEQEND
  0
POLYLINE
  8
0
 66
1
 70
1
  0
VERTEX
  8
0
 10
153.119616
 20
289.891046
 42
0.018881
  0
VERTEX
  8
0
 10
151.652261
 20
289.388979
 42
0.013167
  0
VERTEX
  8
0
 10
150.036145
 20
288.717551
 42
0.013304
  0
VERTEX
  8
0
 10
148.518266
 20
287.990501
 42
0.026690
  0
VERTEX
  8
0
 10
147.369616
 20
287.322612
 42
0.098839
  0
VERTEX
  8
0
 10
145.455524
 20
285.440109
 42
0.494624
  0
VERTEX
  8
0
 10
145.861073
 20
284.224455
 42
0.076617
  0
VERTEX
  8
0
 10
149.280708
 20
283.612111
 42
0.006063
  0
VERTEX
  8
0
 10
158.525179
 20
283.500000
 42
0.003584
  0
VERTEX
  8
0
 10
165.732789
 20
283.551662
 42
0.022796
  0
VERTEX
  8
0
 10
169.386447
 20
283.770849
 42
0.048786
  0
VERTEX
  8
0
 10
171.339037
 20
284.172759
 42
0.383257
  0
VERTEX
  8
0
 10
171.775179
 20
284.903131
 42
0.233384
  0
VERTEX
  8
0
 10
169.834055
 20
287.444821
 42
0.049730
  0
VERTEX
  8
0
 10
164.475993
 20
289.465505
 42
0.049701
  0
VERTEX
  8
0
 10
158.252930
 20
290.482161
 42
0.088866
  0
SEQEND
  0
POLYLINE
  8
0
 66
1
 70
1
  0
VERTEX
  8
0
 10
161.263750
 20
287.296069
 42
-0.031163
  0
VERTEX
  8
0
 10
160.209518
 20
287.160023
 42
-0.015827
  0
VERTEX
  8
0
 10
158.872547
 20
287.114038
 42
-0.015659
  0
VERTEX
  8
0
 10
157.485188
 20
287.153707
 42
-0.022548
  0
VERTEX
  8
0
 10
156.263750
 20
287.282419
 42
-0.075924
  0
VERTEX
  8
0
 10
155.761725
 20
287.438612
 42
-0.720633
  0
VERTEX
  8
0
 10
155.780601
 20
287.581582
 42
-0.040183
  0
VERTEX
  8
0
 10
156.711719
 20
287.684722
 42
-0.006817
  0
VERTEX
  8
0
 10
158.500000
 20
287.713986
 42
-0.007380
  0
VERTEX
  8
0
 10
160.297080
 20
287.692368
 42
-0.030832
  0
VERTEX
  8
0
 10
161.374351
 20
287.596853
 42
-0.490820
  0
VERTEX
  8
0
 10
161.455688
 20
287.450815
 42
-0.248898
  0
SEQEND
  0
POLYLINE
  8
0
 66
1
 70
1
  0
VERTEX
  8
0
 10
154.500000
 20
281.805055
 42
0.036276
  0
VERTEX
  8
0
 10
153.087585
 20
280.862693
 42
0.050044
  0
VERTEX
  8
0
 10
151.984150
 20
279.812046
 42
0.059070
  0
VERTEX
  8
0
 10
151.266112
 20
278.744013
 42
0.113857
  0
VERTEX
  8
0
 10
151.015313
 20
277.750000
 42
0.380363
  0
VERTEX
  8
0
 10
151.270350
 20
277.451182
 42
0.009371
  0
VERTEX
  8
0
 10
153.207623
 20
277.220312
 42
0.015587
  0
VERTEX
  8
0
 10
155.625433
 20
277.053947
 42
0.009383
  0
VERTEX
  8
0
 10
158.500000
 20
277.000000
 42
0.010866
  0
VERTEX
  8
0
 10
163.526936
 20
277.109256
 42
0.126445
  0
VERTEX
  8
0
 10
165.392929
 20
277.676302
 42
0.401490
  0
VERTEX
  8
0
 10
165.674669
 20
278.732650
 42
0.070733
  0
VERTEX
  8
0
 10
164.317674
 20
280.539469
 42
0.020120
  0
VERTEX
  8
0
 10
163.290507
 20
281.487134
 42
0.171646
  0
VERTEX
  8
0
 10
162.714145
 20
281.707340
 42
0.211780
  0
VERTEX
  8
0
 10
162.193815
 20
281.491980
 42
0.032413
  0
VERTEX
  8
0
 10
161.457432
 20
280.610897
 42
-0.081705
  0
VERTEX
  8
0
 10
160.831595
 20
279.996251
 42
-0.049117
  0
VERTEX
  8
0
 10
159.923537
 20
279.482134
 42
-0.047631
  0
VERTEX
  8
0
 10
158.891202
 20
279.137931
 42
-0.059912
  0
VERTEX
  8
0
 10
157.889757
 20
279.030409
 42
-0.006969
  0
VERTEX
  8
0
 10
156.475103
 20
279.068134
 42
-0.250778
  0
VERTEX
  8
0
 10
156.202467
 20
279.228617
 42
-0.406469
  0
VERTEX
  8
0
 10
156.257876
 20
279.470947
 42
-0.011615
  0
VERTEX
  8
0
 10
157.250000
 20
280.080099
 42
0.065597
  0
VERTEX
  8
0
 10
158.436692
 20
280.998092
 42
0.153701
  0
VERTEX
  8
0
 10
158.945362
 20
281.983905
 42
0.286648
  0
VERTEX
  8
0
 10
158.658421
 20
282.688003
 42
0.163897
  0
VERTEX
  8
0
 10
157.750000
 20
282.969591
 42
0.059119
  0
VERTEX
  8
0
 10
157.133258
 20
282.881154
 42
0.020888
  0
VERTEX
  8
0
 10
156.279687
 20
282.614965
 42
0.020396
  0
VERTEX
  8
0
 10
155.357454
 20
282.241415
 42
0.022557
  0
SEQEND
  0
POLYLINE
  8
0
 66
1
 70
1
  0
VERTEX
  8
0
 10
157.458209
 20
272.751690
 42
0.083221
  0
VERTEX
  8
0
 10
157.076011
 20
270.869615
 42
0.045369
  0
VERTEX
  8
0
 10
157.209220
 20
268.509761
 42
0.043816
  0
VERTEX
  8
0
 10
157.705745
 20
266.432634
 42
0.264167
  0
VERTEX
  8
0
 10
158.500000
 20
265.718911
 42
0.406150
  0
VERTEX
  8
0
 10
159.369226
 20
266.259139
 42
0.040859
  0
VERTEX
  8
0
 10
159.800949
 20
268.909929
 42
0.039878
  0
VERTEX
  8
0
 10
159.801129
 20
271.787911
 42
0.178291
  0
VERTEX
  8
0
 10
159.105625
 20
273.294375
 42
0.074447
  0
VERTEX
  8
0
 10
158.601498
 20
273.667201
 42
0.204371
  0
VERTEX
  8
0
 10
158.169574
 20
273.703989
 42
0.172088
  0
VERTEX
  8
0
 10
157.792436
 20
273.411859
 42
0.051168
  0
SEQEND
  0
POLYLINE
  8
0
 66
1
 70
1
  0
VERTEX
  8
0
 10
144.385948
 20
271.563382
 42
0.094405
  0
VERTEX
  8
0
 10
144.107651
 20
270.017831
 42
0.091791
  0
VERTEX
  8
0
 10
144.412039
 20
268.461707
 42
0.141222
  0
VERTEX
  8
0
 10
145.130359
 20
267.530073
 42
0.305767
  0
VERTEX
  8
0
 10
145.992937
 20
267.495635
 42
0.108322
  0
VERTEX
  8
0
 10
146.379079
 20
267.869598
 42
0.050865
  0
VERTEX
  8
0
 10
146.704175
 20
268.488032
 42
0.047061
  0
VERTEX
  8
0
 10
146.925370
 20
269.233945
 42
0.048595
  0
VERTEX
  8
0
 10
147.000000
 20
270.000000
 42
0.084782
  0
VERTEX
  8
0
 10
146.738686
 20
271.530028
 42
0.175128
  0
VERTEX
  8
0
 10
145.981319
 20
272.456968
 42
0.286794
  0
VERTEX
  8
0
 10
145.093774
 20
272.439573
 42
0.157841
  0
SEQEND
  0
POLYLINE
  8
0
 66
1
 70
1
  0
VERTEX
  8
0
 10
170.385948
 20
271.563382
 42
0.094405
  0
VERTEX
  8
0
 10
170.107651
 20
270.017831
 42
0.091791
  0
VERTEX
  8
0
 10
170.412039
 20
268.461707
 42
0.141222
  0
VERTEX
  8
0
 10
171.130359
 20
267.530073
 42
0.305767
  0
VERTEX
  8
0
 10
171.992937
 20
267.495635
 42
0.108322
  0
VERTEX
  8
0
 10
172.379079
 20
267.869598
 42
0.050865
  0
VERTEX
  8
0
 10
172.704175
 20
268.488032
 42
0.047061
  0
VERTEX
  8
0
 10
172.925370
 20
269.233945
 42
0.048595
  0
VERTEX
  8
0
 10
173.000000
 20
270.000000
 42
0.084782
  0
VERTEX
  8
0
 10
172.738686
 20
271.530028
 42
0.175128
  0
VERTEX
  8
0
 10
171.981319
 20
272.456968
 42
0.286794
  0
VERTEX
  8
0
 10
171.093774
 20
272.439573
 42
0.157841
  0
SEQEND
  0
POLYLINE
  8
0
 66
1
 70
1
  0
VERTEX
  8
0
 10
166.182531
 20
266.250000
 42
0.023398
  0
VERTEX
  8
0
 10
166.428841
 20
265.779799
 42
0.002042
  0
VERTEX
  8
0
 10
167.114445
 20
264.618750
 42
0.002678
  0
VERTEX
  8
0
 10
167.945697
 20
263.240924
 42
0.002079
  0
VERTEX
  8
0
 10
168.864640
 20
261.750000
 42
0.024441
  0
VERTEX
  8
0
 10
170.470214
 20
259.430076
 42
0.088263
  0
VERTEX
  8
0
 10
171.791659
 20
258.222359
 42
0.324566
  0
VERTEX
  8
0
 10
172.595855
 20
258.273321
 42
0.223575
  0
VERTEX
  8
0
 10
173.000000
 20
259.131966
 42
0.126437
  0
VERTEX
  8
0
 10
172.507104
 20
261.049978
 42
0.030243
  0
VERTEX
  8
0
 10
170.735087
 20
263.854236
 42
0.027030
  0
VERTEX
  8
0
 10
168.686555
 20
266.397543
 42
0.212800
  0
VERTEX
  8
0
 10
167.335107
 20
267.000000
 42
0.049183
  0
VERTEX
  8
0
 10
166.784812
 20
266.945739
 42
0.095364
  0
VERTEX
  8
0
 10
166.377056
 20
266.779688
 42
0.153909
  0
VERTEX
  8
0
 10
166.175045
 20
266.534174
 42
0.207614
  0
SEQEND
  0
POLYLINE
  8
0
 66
1
 70
1
  0
VERTEX
  8
0
 10
151.000000
 20
248.940983
 42
0.108972
  0
VERTEX
  8
0
 10
151.078288
 20
248.586039
 42
0.182303
  0
VERTEX
  8
0
 10
151.293750
 20
248.374600
 42
0.161196
  0
VERTEX
  8
0
 10
151.617900
 20
248.343488
 42
0.082592
  0
VERTEX
  8
0
 10
152.000000
 20
248.500000
 42
0.029505
  0
VERTEX
  8
0
 10
152.382774
 20
248.768994
 42
0.035638
  0
VERTEX
  8
0
 10
152.706250
 20
249.066025
 42
0.038439
  0
VERTEX
  8
0
 10
152.934461
 20
249.348290
 42
0.151918
  0
VERTEX
  8
0
 10
153.000000
 20
249.559017
 42
0.210953
  0
VERTEX
  8
0
 10
152.925540
 20
249.727648
 42
0.081139
  0
VERTEX
  8
0
 10
152.706250
 20
249.870461
 42
0.061769
  0
VERTEX
  8
0
 10
152.382849
 20
249.967655
 42
0.042167
  0
VERTEX
  8
0
 10
152.000000
 20
250.000000
 42
0.105053
  0
VERTEX
  8
0
 10
151.618444
 20
249.918938
 42
0.099167
  0
VERTEX
  8
0
 10
151.293750
 20
249.688914
 42
0.096420
  0
VERTEX
  8
0
 10
151.076123
 20
249.345238
 42
0.093332
  0
SEQEND
  0
POLYLINE
  8
0
 66
1
 70
1
  0
VERTEX
  8
0
 10
164.500000
 20
249.000000
 42
0.029505
  0
VERTEX
  8
0
 10
164.768994
 20
248.617226
 42
0.035638
  0
VERTEX
  8
0
 10
165.066025
 20
248.293750
 42
0.038439
  0
VERTEX
  8
0
 10
165.348290
 20
248.065539
 42
0.151918
  0
VERTEX
  8
0
 10
165.559017
 20
248.000000
 42
0.210953
  0
VERTEX
  8
0
 10
165.727648
 20
248.074460
 42
0.081139
  0
VERTEX
  8
0
 10
165.870461
 20
248.293750
 42
0.061769
  0
VERTEX
  8
0
 10
165.967655
 20
248.617151
 42
0.042167
  0
VERTEX
  8
0
 10
166.000000
 20
249.000000
 42
0.105053
  0
VERTEX
  8
0
 10
165.918938
 20
249.381556
 42
0.099167
  0
VERTEX
  8
0
 10
165.688914
 20
249.706250
 42
0.096420
  0
VERTEX
  8
0
 10
165.345238
 20
249.923877
 42
0.093332
  0
VERTEX
  8
0
 10
164.940983
 20
250.000000
 42
0.108972
  0
VERTEX
  8
0
 10
164.586039
 20
249.921712
 42
0.182303
  0
VERTEX
  8
0
 10
164.374600
 20
249.706250
 42
0.161196
  0
VERTEX
  8
0
 10
164.343488
 20
249.382100
 42
0.082592
  0
SEQEND
  0
POLYLINE
  8
0
 66
1
 70
1
  0
VERTEX
  8
0
 10
147.552786
 20
248.085410
 42
0.099038
  0
VERTEX
  8
0
 10
147.401684
 20
247.679226
 42
0.097945
  0
VERTEX
  8
0
 10
147.417584
 20
247.244476
 42
0.097945
  0
VERTEX
  8
0
 10
147.597789
 20
246.848514
 42
0.099038
  0
VERTEX
  8
0
 10
147.914590
 20
246.552786
 42
0.099038
  0
VERTEX
  8
0
 10
148.320774
 20
246.401684
 42
0.097945
  0
VERTEX
  8
0
 10
148.755524
 20
246.417584
 42
0.097945
  0
VERTEX
  8
0
 10
149.151486
 20
246.597789
 42
0.099038
  0
VERTEX
  8
0
 10
149.447214
 20
246.914590
 42
0.099038
  0
VERTEX
  8
0
 10
149.598316
 20
247.320774
 42
0.097945
  0
VERTEX
  8
0
 10
149.582416
 20
247.755524
 42
0.097945
  0
VERTEX
  8
0
 10
149.402211
 20
248.151486
 42
0.099038
  0
VERTEX
  8
0
 10
149.085410
 20
248.447214
 42
0.099038
  0
VERTEX
  8
0
 10
148.679226
 20
248.598316
 42
0.097945
  0
VERTEX
  8
0
 10
148.244476
 20
248.582416
 42
0.097945
  0
VERTEX
  8
0
 10
147.848514
 20
248.402211
 42
0.099038
  0
SEQEND
  0
POLYLINE
  8
0
 66
1
 70
1
  0
VERTEX
  8
0
 10
167.552786
 20
248.085410
 42
0.099038
  0
VERTEX
  8
0
 10
167.401684
 20
247.679226
 42
0.097945
  0
VERTEX
  8
0
 10
167.417584
 20
247.244476
 42
0.097945
  0
VERTEX
  8
0
 10
167.597789
 20
246.848514
 42
0.099038
  0
VERTEX
  8
0
 10
167.914590
 20
246.552786
 42
0.099038
  0
VERTEX
  8
0
 10
168.320774
 20
246.401684
 42
0.097945
  0
VERTEX
  8
0
 10
168.755524
 20
246.417584
 42
0.097945
  0
VERTEX
  8
0
 10
169.151486
 20
246.597789
 42
0.099038
  0
VERTEX
  8
0
 10
169.447214
 20
246.914590
 42
0.099038
  0
VERTEX
  8
0
 10
169.598316
 20
247.320774
 42
0.097945
  0
VERTEX
  8
0
 10
169.582416
 20
247.755524
 42
0.097945
  0
VERTEX
  8
0
 10
169.402211
 20
248.151486
 42
0.099038
  0
VERTEX
  8
0
 10
169.085410
 20
248.447214
 42
0.099038
  0
VERTEX
  8
0
 10
168.679226
 20
248.598316
 42
0.097945
  0
VERTEX
  8
0
 10
168.244476
 20
248.582416
 42
0.097945
  0
VERTEX
  8
0
 10
167.848514
 20
248.402211
 42
0.099038
  0
SEQEND
  0
POLYLINE
  8
0
 66
1
 70
1
  0
VERTEX
  8
0
 10
65.000000
 20
193.500000
 42
0.000000
  0
VERTEX
  8
0
 10
65.000000
 20
172.000000
 42
0.000000
  0
VERTEX
  8
0
 10
68.500000
 20
172.000000
 42
0.000000
  0
VERTEX
  8
0
 10
72.000000
 20
172.000000
 42
0.000000
  0
VERTEX
  8
0
 10
72.000000
 20
180.443296
 42
-0.006908
  0
VERTEX
  8
0
 10
72.067494
 20
185.328079
 42
-0.046425
  0
VERTEX
  8
0
 10
72.358481
 20
187.732895
 42
-0.096183
  0
VERTEX
  8
0
 10
72.996305
 20
189.220801
 42
-0.091007
  0
VERTEX
  8
0
 10
74.154606
 20
190.395737
 42
-0.041243
  0
VERTEX
  8
0
 10
75.258269
 20
191.040279
 42
-0.079287
  0
VERTEX
  8
0
 10
76.238068
 20
191.330416
 42
-0.089538
  0
VERTEX
  8
0
 10
77.177688
 20
191.284385
 42
-0.066058
  0
VERTEX
  8
0
 10
78.154606
 20
190.917257
 42
-0.138424
  0
VERTEX
  8
0
 10
79.120189
 20
189.987502
 42
-0.086681
  0
VERTEX
  8
0
 10
79.670996
 20
188.507428
 42
-0.039548
  0
VERTEX
  8
0
 10
79.936892
 20
185.966977
 42
-0.006308
  0
VERTEX
  8
0
 10
80.000000
 20
180.964816
 42
0.000000
  0
VERTEX
  8
0
 10
80.000000
 20
172.000000
 42
0.000000
  0
VERTEX
  8
0
 10
83.500000
 20
172.000000
 42
0.000000
  0
VERTEX
  8
0
 10
87.000000
 20
172.000000
 42
0.000000
  0
VERTEX
  8
0
 10
87.000000
 20
181.452947
 42
0.010717
  0
VERTEX
  8
0
 10
86.918592
 20
185.250763
 42
0.012562
  0
VERTEX
  8
0
 10
86.673858
 20
188.844895
 42
0.011536
  0
VERTEX
  8
0
 10
86.322270
 20
191.857442
 42
0.072193
  0
VERTEX
  8
0
 10
85.889728
 20
193.342675
 42
0.119746
  0
VERTEX
  8
0
 10
83.897645
 20
195.878502
 42
0.093364
  0
VERTEX
  8
0
 10
80.779926
 20
197.503076
 42
0.090998
  0
VERTEX
  8
0
 10
77.209792
 20
197.907081
 42
0.106041
  0
VERTEX
  8
0
 10
73.934259
 20
196.964816
 42
-0.177634
  0
VERTEX
  8
0
 10
72.887941
 20
196.817584
 42
-0.291685
  0
VERTEX
  8
0
 10
72.273573
 20
197.424656
 42
-0.052850
  0
VERTEX
  8
0
 10
72.037985
 20
199.409377
 42
-0.003136
  0
VERTEX
  8
0
 10
72.000000
 20
205.464816
 42
0.000000
  0
VERTEX
  8
0
 10
72.000000
 20
215.000000
 42
0.000000
  0
VERTEX
  8
0
 10
68.500000
 20
215.000000
 42
0.000000
  0
VERTEX
  8
0
 10
65.000000
 20
215.000000
 42
0.000000
  0
SEQEND
  0
POLYLINE
  8
0
 66
1
 70
1
  0
VERTEX
  8
0
 10
171.173796
 20
205.455542
 42
0.000000
  0
VERTEX
  8
0
 10
168.101042
 20
197.911084
 42
0.000000
  0
VERTEX
  8
0
 10
170.554747
 20
196.793102
 42
0.018468
  0
VERTEX
  8
0
 10
171.522243
 20
196.394735
 42
0.027361
  0
VERTEX
  8
0
 10
172.398495
 20
196.124681
 42
0.025944
  0
VERTEX
  8
0
 10
173.105536
 20
195.986964
 42
0.247479
  0
VERTEX
  8
0
 10
173.385707
 20
196.087559
 42
0.072450
  0
VERTEX
  8
0
 10
174.516503
 20
197.753906
 42
0.004368
  0
VERTEX
  8
0
 10
177.115311
 20
203.233666
 42
0.003349
  0
VERTEX
  8
0
 10
179.683312
 20
208.871620
 42
0.105566
  0
VERTEX
  8
0
 10
180.000000
 20
210.354852
 42
0.215698
  0
VERTEX
  8
0
 10
179.602739
 20
211.232883
 42
0.061779
  0
VERTEX
  8
0
 10
178.337784
 20
212.093880
 42
0.055073
  0
VERTEX
  8
0
 10
176.640105
 20
212.741020
 42
0.058158
  0
VERTEX
  8
0
 10
174.873274
 20
212.986345
 42
0.286655
  0
VERTEX
  8
0
 10
174.538234
 20
212.787079
 42
0.004821
  0
VERTEX
  8
0
 10
173.528028
 20
210.779804
 42
0.010734
  0
VERTEX
  8
0
 10
172.396907
 20
208.346623
 42
0.006729
  0
SEQEND
  0
POLYLINE
  8
0
 66
1
 70
1
  0
VERTEX
  8
0
 10
38.000000
 20
208.530779
 42
0.023422
  0
VERTEX
  8
0
 10
38.104739
 20
206.296125
 42
0.205792
  0
VERTEX
  8
0
 10
38.568627
 20
205.446154
 42
0.155539
  0
VERTEX
  8
0
 10
39.577363
 20
205.070275
 42
0.012021
  0
VERTEX
  8
0
 10
42.500000
 20
205.000000
 42
0.000000
  0
VERTEX
  8
0
 10
47.000000
 20
205.000000
 42
0.000000
  0
VERTEX
  8
0
 10
47.000000
 20
188.500000
 42
0.000000
  0
VERTEX
  8
0
 10
47.000000
 20
172.000000
 42
0.000000
  0
VERTEX
  8
0
 10
50.500000
 20
172.000000
 42
0.000000
  0
VERTEX
  8
0
 10
54.000000
 20
172.000000
 42
0.000000
  0
VERTEX
  8
0
 10
54.000000
 20
188.500000
 42
0.000000
  0
VERTEX
  8
0
 10
54.000000
 20
205.000000
 42
0.000000
  0
VERTEX
  8
0
 10
58.563358
 20
205.000000
 42
0.010297
  0
VERTEX
  8
0
 10
61.543780
 20
205.061383
 42
0.154118
  0
VERTEX
  8
0
 10
62.510178
 20
205.410882
 42
0.231403
  0
VERTEX
  8
0
 10
62.903453
 20
206.198415
 42
0.026123
  0
VERTEX
  8
0
 10
62.813358
 20
208.250000
 42
0.000000
  0
VERTEX
  8
0
 10
62.500000
 20
211.500000
 42
0.000000
  0
VERTEX
  8
0
 10
50.250000
 20
211.780779
 42
0.000000
  0
VERTEX
  8
0
 10
38.000000
 20
212.061558
 42
0.000000
  0
SEQEND
  0
POLYLINE
  8
0
 66
1
 70
1
  0
VERTEX
  8
0
 10
97.762571
 20
196.492004
 42
0.081924
  0
VERTEX
  8
0
 10
95.322617
 20
194.532283
 42
0.071164
  0
VERTEX
  8
0
 10
93.500012
 20
191.801608
 42
0.064034
  0
VERTEX
  8
0
 10
92.377007
 20
188.396483
 42
0.047704
  0
VERTEX
  8
0
 10
92.000000
 20
184.453952
 42
0.054190
  0
VERTEX
  8
0
 10
92.430466
 20
180.493780
 42
0.072365
  0
VERTEX
  8
0
 10
93.706223
 20
177.114948
 42
0.078153
  0
VERTEX
  8
0
 10
95.793728
 20
174.433491
 42
0.077719
  0
VERTEX
  8
0
 10
98.607192
 20
172.516158
 42
0.082822
  0
VERTEX
  8
0
 10
103.277507
 20
171.184314
 42
0.090391
  0
VERTEX
  8
0
 10
107.980129
 20
171.503457
 42
0.091415
  0
VERTEX
  8
0
 10
112.226102
 20
173.452682
 42
0.086990
  0
VERTEX
  8
0
 10
115.583488
 20
176.815733
 42
0.031893
  0
VERTEX
  8
0
 10
116.361988
 20
178.093373
 42
0.212918
  0
VERTEX
  8
0
 10
116.408418
 20
178.818829
 42
0.167571
  0
VERTEX
  8
0
 10
115.897185
 20
179.441148
 42
0.018447
  0
VERTEX
  8
0
 10
114.266067
 20
180.362411
 42
0.030500
  0
VERTEX
  8
0
 10
112.558165
 20
181.117481
 42
0.133403
  0
VERTEX
  8
0
 10
111.468481
 20
181.215869
 42
0.114527
  0
VERTEX
  8
0
 10
110.390458
 20
180.755947
 42
0.019765
  0
VERTEX
  8
0
 10
108.639685
 20
179.366493
 42
-0.031417
  0
VERTEX
  8
0
 10
107.234498
 20
178.303684
 42
-0.059588
  0
VERTEX
  8
0
 10
105.968514
 20
177.667438
 42
-0.073900
  0
VERTEX
  8
0
 10
104.789993
 20
177.429603
 42
-0.085079
  0
VERTEX
  8
0
 10
103.652039
 20
177.564679
 42
-0.072928
  0
VERTEX
  8
0
 10
102.057557
 20
178.302701
 42
-0.050930
  0
VERTEX
  8
0
 10
100.515537
 20
179.551887
 42
-0.052746
  0
VERTEX
  8
0
 10
99.362871
 20
180.969262
 42
-0.145353
  0
VERTEX
  8
0
 10
99.000000
 20
182.191130
 42
-0.376983
  0
VERTEX
  8
0
 10
99.283652
 20
182.513877
 42
-0.008472
  0
VERTEX
  8
0
 10
101.496875
 20
182.762394
 42
-0.014794
  0
VERTEX
  8
0
 10
104.240944
 20
182.941811
 42
-0.008927
  0
VERTEX
  8
0
 10
107.500000
 20
183.000000
 42
0.000000
  0
VERTEX
  8
0
 10
116.000000
 20
183.000000
 42
0.000000
  0
VERTEX
  8
0
 10
116.000000
 20
186.787774
 42
0.042685
  0
VERTEX
  8
0
 10
115.835387
 20
188.712497
 42
0.050588
  0
VERTEX
  8
0
 10
115.345691
 20
190.470093
 42
0.047940
  0
VERTEX
  8
0
 10
114.486431
 20
192.167451
 42
0.032811
  0
VERTEX
  8
0
 10
113.212841
 20
193.914115
 42
0.032423
  0
VERTEX
  8
0
 10
111.534890
 20
195.677959
 42
0.074387
  0
VERTEX
  8
0
 10
110.022297
 20
196.706188
 42
0.068431
  0
VERTEX
  8
0
 10
108.196360
 20
197.294864
 42
0.024155
  0
VERTEX
  8
0
 10
105.462841
 20
197.643696
 42
0.023785
  0
VERTEX
  8
0
 10
103.139636
 20
197.715891
 42
0.033005
  0
VERTEX
  8
0
 10
101.064347
 20
197.544333
 42
0.037304
  0
VERTEX
  8
0
 10
99.262097
 20
197.135563
 42
0.053948
  0
SEQEND
  0
POLYLINE
  8
0
 66
1
 70
1
  0
VERTEX
  8
0
 10
106.434900
 20
191.024751
 42
-0.051542
  0
VERTEX
  8
0
 10
108.607559
 20
189.931169
 42
-0.414150
  0
VERTEX
  8
0
 10
108.824505
 20
188.943392
 42
-0.224571
  0
VERTEX
  8
0
 10
107.612969
 20
188.184003
 42
-0.029528
  0
VERTEX
  8
0
 10
104.500000
 20
188.000000
 42
-0.026592
  0
VERTEX
  8
0
 10
101.537272
 20
188.157679
 42
-0.179133
  0
VERTEX
  8
0
 10
100.241611
 20
188.800981
 42
-0.398635
  0
VERTEX
  8
0
 10
100.244605
 20
189.731730
 42
-0.070494
  0
VERTEX
  8
0
 10
101.750000
 20
190.919901
 42
-0.009077
  0
VERTEX
  8
0
 10
103.185971
 20
191.721728
 42
-0.117722
  0
VERTEX
  8
0
 10
103.774301
 20
191.876185
 42
-0.092157
  0
VERTEX
  8
0
 10
104.415004
 20
191.771855
 42
-0.004527
  0
SEQEND
  0
POLYLINE
  8
0
 66
1
 70
1
  0
VERTEX
  8
0
 10
126.750000
 20
197.264961
 42
0.000000
  0
VERTEX
  8
0
 10
122.000000
 20
196.890418
 42
0.000000
  0
VERTEX
  8
0
 10
122.000000
 20
184.445209
 42
0.000000
  0
VERTEX
  8
0
 10
122.000000
 20
172.000000
 42
0.000000
  0
VERTEX
  8
0
 10
125.500000
 20
172.000000
 42
0.000000
  0
VERTEX
  8
0
 10
129.000000
 20
172.000000
 42
0.000000
  0
VERTEX
  8
0
 10
129.000000
 20
180.377555
 42
-0.018259
  0
VERTEX
  8
0
 10
129.217075
 20
186.319978
 42
-0.102805
  0
VERTEX
  8
0
 10
130.083838
 20
189.358050
 42
-0.217998
  0
VERTEX
  8
0
 10
131.744693
 20
190.643617
 42
-0.119396
  0
VERTEX
  8
0
 10
134.369970
 20
190.621991
 42
0.057783
  0
VERTEX
  8
0
 10
135.668241
 20
190.451644
 42
0.153462
  0
VERTEX
  8
0
 10
136.554694
 20
190.715710
 42
0.118544
  0
VERTEX
  8
0
 10
137.269736
 20
191.497651
 42
0.028020
  0
VERTEX
  8
0
 10
138.042533
 20
193.102683
 42
0.017514
  0
VERTEX
  8
0
 10
138.672488
 20
194.788179
 42
0.089259
  0
VERTEX
  8
0
 10
138.816144
 20
195.774680
 42
0.154976
  0
VERTEX
  8
0
 10
138.569202
 20
196.470680
 42
0.089734
  0
VERTEX
  8
0
 10
137.909577
 20
197.077046
 42
0.083611
  0
VERTEX
  8
0
 10
136.703662
 20
197.583392
 42
0.053516
  0
VERTEX
  8
0
 10
135.192505
 20
197.771383
 42
0.021630
  0
VERTEX
  8
0
 10
132.666396
 20
197.704638
 42
0.002255
  0
SEQEND
  0
POLYLINE
  8
0
 66
1
 70
1
  0
VERTEX
  8
0
 10
145.762571
 20
196.492004
 42
0.081924
  0
VERTEX
  8
0
 10
143.322617
 20
194.532283
 42
0.071164
  0
VERTEX
  8
0
 10
141.500012
 20
191.801608
 42
0.064034
  0
VERTEX
  8
0
 10
140.377007
 20
188.396483
 42
0.047704
  0
VERTEX
  8
0
 10
140.000000
 20
184.453952
 42
0.054190
  0
VERTEX
  8
0
 10
140.430466
 20
180.493780
 42
0.072365
  0
VERTEX
  8
0
 10
141.706223
 20
177.114948
 42
0.078153
  0
VERTEX
  8
0
 10
143.793728
 20
174.433491
 42
0.077719
  0
VERTEX
  8
0
 10
146.607192
 20
172.516158
 42
0.082822
  0
VERTEX
  8
0
 10
151.277507
 20
171.184314
 42
0.090391
  0
VERTEX
  8
0
 10
155.980129
 20
171.503457
 42
0.091415
  0
VERTEX
  8
0
 10
160.226102
 20
173.452682
 42
0.086990
  0
VERTEX
  8
0
 10
163.583488
 20
176.815733
 42
0.031893
  0
VERTEX
  8
0
 10
164.361988
 20
178.093373
 42
0.212918
  0
VERTEX
  8
0
 10
164.408418
 20
178.818829
 42
0.167571
  0
VERTEX
  8
0
 10
163.897185
 20
179.441148
 42
0.018447
  0
VERTEX
  8
0
 10
162.266067
 20
180.362411
 42
0.030500
  0
VERTEX
  8
0
 10
160.558165
 20
181.117481
 42
0.133403
  0
VERTEX
  8
0
 10
159.468481
 20
181.215869
 42
0.114527
  0
VERTEX
  8
0
 10
158.390458
 20
180.755947
 42
0.019765
  0
VERTEX
  8
0
 10
156.639685
 20
179.366493
 42
-0.031417
  0
VERTEX
  8
0
 10
155.234498
 20
178.303684
 42
-0.059588
  0
VERTEX
  8
0
 10
153.968514
 20
177.667438
 42
-0.073900
  0
VERTEX
  8
0
 10
152.789993
 20
177.429603
 42
-0.085079
  0
VERTEX
  8
0
 10
151.652039
 20
177.564679
 42
-0.072928
  0
VERTEX
  8
0
 10
150.057557
 20
178.302701
 42
-0.050930
  0
VERTEX
  8
0
 10
148.515537
 20
179.551887
 42
-0.052746
  0
VERTEX
  8
0
 10
147.362871
 20
180.969262
 42
-0.145353
  0
VERTEX
  8
0
 10
147.000000
 20
182.191130
 42
-0.376983
  0
VERTEX
  8
0
 10
147.283652
 20
182.513877
 42
-0.008472
  0
VERTEX
  8
0
 10
149.496875
 20
182.762394
 42
-0.014794
  0
VERTEX
  8
0
 10
152.240944
 20
182.941811
 42
-0.008927
  0
VERTEX
  8
0
 10
155.500000
 20
183.000000
 42
0.000000
  0
VERTEX
  8
0
 10
164.000000
 20
183.000000
 42
0.000000
  0
VERTEX
  8
0
 10
164.000000
 20
186.787774
 42
0.042685
  0
VERTEX
  8
0
 10
163.835387
 20
188.712497
 42
0.050588
  0
VERTEX
  8
0
 10
163.345691
 20
190.470093
 42
0.047940
  0
VERTEX
  8
0
 10
162.486431
 20
192.167451
 42
0.032811
  0
VERTEX
  8
0
 10
161.212841
 20
193.914115
 42
0.032423
  0
VERTEX
  8
0
 10
159.534890
 20
195.677959
 42
0.074387
  0
VERTEX
  8
0
 10
158.022297
 20
196.706188
 42
0.068431
  0
VERTEX
  8
0
 10
156.196360
 20
197.294864
 42
0.024155
  0
VERTEX
  8
0
 10
153.462841
 20
197.643696
 42
0.023785
  0
VERTEX
  8
0
 10
151.139636
 20
197.715891
 42
0.033005
  0
VERTEX
  8
0
 10
149.064347
 20
197.544333
 42
0.037304
  0
VERTEX
  8
0
 10
147.262097
 20
197.135563
 42
0.053948
  0
SEQEND
  0
POLYLINE
  8
0
 66
1
 70
1
  0
VERTEX
  8
0
 10
154.434900
 20
191.024751
 42
-0.051542
  0
VERTEX
  8
0
 10
156.607559
 20
189.931169
 42
-0.414150
  0
VERTEX
  8
0
 10
156.824505
 20
188.943392
 42
-0.224571
  0
VERTEX
  8
0
 10
155.612969
 20
188.184003
 42
-0.029528
  0
VERTEX
  8
0
 10
152.500000
 20
188.000000
 42
-0.026592
  0
VERTEX
  8
0
 10
149.537272
 20
188.157679
 42
-0.179133
  0
VERTEX
  8
0
 10
148.241611
 20
188.800981
 42
-0.398635
  0
VERTEX
  8
0
 10
148.244605
 20
189.731730
 42
-0.070494
  0
VERTEX
  8
0
 10
149.750000
 20
190.919901
 42
-0.009077
  0
VERTEX
  8
0
 10
151.185971
 20
191.721728
 42
-0.117722
  0
VERTEX
  8
0
 10
151.774301
 20
191.876185
 42
-0.092157
  0
VERTEX
  8
0
 10
152.415004
 20
191.771855
 42
-0.004527
  0
SEQEND
  0
POLYLINE
  8
0
 66
1
 70
1
  0
VERTEX
  8
0
 10
188.582904
 20
195.886552
 42
0.039606
  0
VERTEX
  8
0
 10
187.189338
 20
194.599491
 42
0.094841
  0
VERTEX
  8
0
 10
186.448797
 20
193.409922
 42
0.084073
  0
VERTEX
  8
0
 10
186.151193
 20
191.941448
 42
0.026537
  0
VERTEX
  8
0
 10
186.198046
 20
189.695739
 42
0.033747
  0
VERTEX
  8
0
 10
186.533380
 20
187.339874
 42
0.102459
  0
VERTEX
  8
0
 10
187.179696
 20
185.865207
 42
0.086656
  0
VERTEX
  8
0
 10
188.423633
 20
184.633038
 42
0.019926
  0
VERTEX
  8
0
 10
190.923776
 20
183.037859
 42
-0.013879
  0
VERTEX
  8
0
 10
192.644797
 20
181.968845
 42
-0.018018
  0
VERTEX
  8
0
 10
194.156311
 20
180.890641
 42
-0.015847
  0
VERTEX
  8
0
 10
195.337768
 20
179.920820
 42
-0.133285
  0
VERTEX
  8
0
 10
195.716040
 20
179.351880
 42
-0.256301
  0
VERTEX
  8
0
 10
195.527041
 20
178.313544
 42
-0.175459
  0
VERTEX
  8
0
 10
194.477212
 20
177.682011
 42
-0.121210
  0
VERTEX
  8
0
 10
192.923194
 20
177.755199
 42
-0.124917
  0
VERTEX
  8
0
 10
191.600367
 20
178.542490
 42
0.075726
  0
VERTEX
  8
0
 10
190.208032
 20
179.566721
 42
0.118153
  0
VERTEX
  8
0
 10
188.771573
 20
179.930230
 42
0.107005
  0
VERTEX
  8
0
 10
187.223552
 20
179.615529
 42
0.054457
  0
VERTEX
  8
0
 10
185.494540
 20
178.619666
 42
0.050649
  0
VERTEX
  8
0
 10
184.481344
 20
177.708213
 42
0.256466
  0
VERTEX
  8
0
 10
184.310632
 20
176.994861
 42
0.121178
  0
VERTEX
  8
0
 10
184.800347
 20
176.116068
 42
0.008955
  0
VERTEX
  8
0
 10
186.726488
 20
174.119666
 42
0.078813
  0
VERTEX
  8
0
 10
189.998269
 20
171.743679
 42
0.114515
  0
VERTEX
  8
0
 10
193.447824
 20
170.889413
 42
0.116710
  0
VERTEX
  8
0
 10
196.873062
 20
171.646894
 42
0.084044
  0
VERTEX
  8
0
 10
200.076923
 20
173.923077
 42
0.101669
  0
VERTEX
  8
0
 10
202.609961
 20
177.766172
 42
0.177263
  0
VERTEX
  8
0
 10
202.720142
 20
181.534320
 42
0.140078
  0
VERTEX
  8
0
 10
200.266965
 20
185.120165
 42
0.056178
  0
VERTEX
  8
0
 10
195.250000
 20
188.408707
 42
-0.014531
  0
VERTEX
  8
0
 10
192.775884
 20
189.750841
 42
-0.182269
  0
VERTEX
  8
0
 10
192.114819
 20
190.561479
 42
-0.554354
  0
VERTEX
  8
0
 10
192.457021
 20
190.977093
 42
-0.028887
  0
VERTEX
  8
0
 10
194.520519
 20
190.584206
 42
0.085814
  0
VERTEX
  8
0
 10
196.567161
 20
190.431043
 42
0.066378
  0
VERTEX
  8
0
 10
198.748641
 20
190.939686
 42
0.075083
  0
VERTEX
  8
0
 10
200.439644
 20
191.888936
 42
0.231348
  0
VERTEX
  8
0
 10
201.000000
 20
193.035184
 42
0.179207
  0
VERTEX
  8
0
 10
200.424770
 20
194.588571
 42
0.058911
  0
VERTEX
  8
0
 10
198.601947
 20
196.265747
 42
0.057211
  0
VERTEX
  8
0
 10
196.286101
 20
197.566690
 42
0.099710
  0
VERTEX
  8
0
 10
194.134859
 20
198.000000
 42
0.058634
  0
VERTEX
  8
0
 10
192.843045
 20
197.847989
 42
0.032377
  0
VERTEX
  8
0
 10
191.322101
 20
197.379175
 42
0.031815
  0
VERTEX
  8
0
 10
189.821483
 20
196.695787
 42
0.043921
  0
SEQEND
  0
POLYLINE
  8
0
 66
1
 70
1
  0
VERTEX
  8
0
 10
232.647466
 20
197.314133
 42
-0.158247
  0
VERTEX
  8
0
 10
232.144784
 20
197.057834
 42
-0.017498
  0
VERTEX
  8
0
 10
230.846837
 20
196.897872
 42
-0.019952
  0
VERTEX
  8
0
 10
229.246961
 20
196.821449
 42
-0.014889
  0
VERTEX
  8
0
 10
227.480799
 20
196.860209
 42
0.000000
  0
VERTEX
  8
0
 10
223.000000
 20
197.092154
 42
0.000000
  0
VERTEX
  8
0
 10
223.000000
 20
184.546077
 42
0.000000
  0
VERTEX
  8
0
 10
223.000000
 20
172.000000
 42
0.000000
  0
VERTEX
  8
0
 10
226.500000
 20
172.000000
 42
0.000000
  0
VERTEX
  8
0
 10
230.000000
 20
172.000000
 42
0.000000
  0
VERTEX
  8
0
 10
230.015313
 20
180.250000
 42
-0.008235
  0
VERTEX
  8
0
 10
230.074702
 20
183.490296
 42
-0.011312
  0
VERTEX
  8
0
 10
230.241942
 20
186.399704
 42
-0.008174
  0
VERTEX
  8
0
 10
230.474554
 20
188.805457
 42
-0.119588
  0
VERTEX
  8
0
 10
230.765313
 20
189.600056
 42
-0.100765
  0
VERTEX
  8
0
 10
231.803415
 20
190.629300
 42
-0.090172
  0
VERTEX
  8
0
 10
233.202050
 20
191.221299
 42
-0.087369
  0
VERTEX
  8
0
 10
234.759181
 20
191.293370
 42
-0.086966
  0
VERTEX
  8
0
 10
236.250000
 20
190.829689
 42
-0.151925
  0
VERTEX
  8
0
 10
237.153726
 20
189.941761
 42
-0.079442
  0
VERTEX
  8
0
 10
237.676098
 20
188.436953
 42
-0.037423
  0
VERTEX
  8
0
 10
237.936463
 20
185.861681
 42
-0.006487
  0
VERTEX
  8
0
 10
238.000000
 20
180.964816
 42
0.000000
  0
VERTEX
  8
0
 10
238.000000
 20
172.000000
 42
0.000000
  0
VERTEX
  8
0
 10
241.500000
 20
172.000000
 42
0.000000
  0
VERTEX
  8
0
 10
245.000000
 20
172.000000
 42
0.000000
  0
VERTEX
  8
0
 10
245.000000
 20
181.452947
 42
0.015342
  0
VERTEX
  8
0
 10
244.790869
 20
188.266825
 42
0.057978
  0
VERTEX
  8
0
 10
244.039926
 20
192.460405
 42
0.098263
  0
VERTEX
  8
0
 10
242.615821
 20
195.137316
 42
0.115119
  0
VERTEX
  8
0
 10
240.342675
 20
196.889728
 42
0.049313
  0
VERTEX
  8
0
 10
238.194978
 20
197.622922
 42
0.043863
  0
VERTEX
  8
0
 10
235.858523
 20
197.958771
 42
0.045911
  0
VERTEX
  8
0
 10
233.805590
 20
197.883472
 42
0.165738
  0
SEQEND
  0
POLYLINE
  8
0
 66
1
 70
1
  0
VERTEX
  8
0
 10
256.298549
 20
196.040484
 42
0.168417
  0
VERTEX
  8
0
 10
250.968958
 20
189.577041
 42
0.155405
  0
VERTEX
  8
0
 10
250.559334
 20
180.960027
 42
0.157523
  0
VERTEX
  8
0
 10
255.198103
 20
173.775523
 42
0.172944
  0
VERTEX
  8
0
 10
262.982459
 20
171.000000
 42
0.091490
  0
VERTEX
  8
0
 10
268.436161
 20
172.006347
 42
0.100818
  0
VERTEX
  8
0
 10
272.963634
 20
174.882210
 42
0.102803
  0
VERTEX
  8
0
 10
275.943624
 20
179.246935
 42
0.098861
  0
VERTEX
  8
0
 10
276.992524
 20
184.500000
 42
0.135463
  0
VERTEX
  8
0
 10
275.117964
 20
191.292124
 42
0.131629
  0
VERTEX
  8
0
 10
270.010155
 20
196.249658
 42
0.131256
  0
VERTEX
  8
0
 10
263.095692
 20
197.998244
 42
0.134355
  0
SEQEND
  0
POLYLINE
  8
0
 66
1
 70
1
  0
VERTEX
  8
0
 10
268.530591
 20
188.652863
 42
-0.164054
  0
VERTEX
  8
0
 10
269.904981
 20
183.975622
 42
-0.178561
  0
VERTEX
  8
0
 10
268.096343
 20
179.610510
 42
-0.193489
  0
VERTEX
  8
0
 10
264.033082
 20
177.685986
 42
-0.183675
  0
VERTEX
  8
0
 10
259.657128
 20
179.055063
 42
-0.134883
  0
VERTEX
  8
0
 10
257.409415
 20
182.098481
 42
-0.140527
  0
VERTEX
  8
0
 10
257.078888
 20
185.812523
 42
-0.139328
  0
VERTEX
  8
0
 10
258.768502
 20
189.160795
 42
-0.131835
  0
VERTEX
  8
0
 10
262.000000
 20
191.206756
 42
-0.086635
  0
VERTEX
  8
0
 10
263.772238
 20
191.437421
 42
-0.082529
  0
VERTEX
  8
0
 10
265.550104
 20
191.062019
 42
-0.078561
  0
VERTEX
  8
0
 10
267.182705
 20
190.106368
 42
-0.068457
  0
SEQEND
  0
POLYLINE
  8
0
 66
1
 70
1
  0
VERTEX
  8
0
 10
261.000000
 20
125.500000
 42
0.000000
  0
VERTEX
  8
0
 10
261.000000
 20
104.000000
 42
0.000000
  0
VERTEX
  8
0
 10
264.500000
 20
104.000000
 42
0.000000
  0
VERTEX
  8
0
 10
268.000000
 20
104.000000
 42
0.000000
  0
VERTEX
  8
0
 10
268.000000
 20
112.443296
 42
-0.006908
  0
VERTEX
  8
0
 10
268.067494
 20
117.328079
 42
-0.046425
  0
VERTEX
  8
0
 10
268.358481
 20
119.732895
 42
-0.096183
  0
VERTEX
  8
0
 10
268.996305
 20
121.220801
 42
-0.091007
  0
VERTEX
  8
0
 10
270.154606
 20
122.395737
 42
-0.041243
  0
VERTEX
  8
0
 10
271.258269
 20
123.040279
 42
-0.079287
  0
VERTEX
  8
0
 10
272.238068
 20
123.330416
 42
-0.089538
  0
VERTEX
  8
0
 10
273.177688
 20
123.284385
 42
-0.066058
  0
VERTEX
  8
0
 10
274.154606
 20
122.917257
 42
-0.138424
  0
VERTEX
  8
0
 10
275.120189
 20
121.987502
 42
-0.086681
  0
VERTEX
  8
0
 10
275.670996
 20
120.507428
 42
-0.039548
  0
VERTEX
  8
0
 10
275.936892
 20
117.966977
 42
-0.006308
  0
VERTEX
  8
0
 10
276.000000
 20
112.964816
 42
0.000000
  0
VERTEX
  8
0
 10
276.000000
 20
104.000000
 42
0.000000
  0
VERTEX
  8
0
 10
279.500000
 20
104.000000
 42
0.000000
  0
VERTEX
  8
0
 10
283.000000
 20
104.000000
 42
0.000000
  0
VERTEX
  8
0
 10
283.000000
 20
113.452947
 42
0.010717
  0
VERTEX
  8
0
 10
282.918592
 20
117.250763
 42
0.012562
  0
VERTEX
  8
0
 10
282.673858
 20
120.844895
 42
0.011536
  0
VERTEX
  8
0
 10
282.322270
 20
123.857442
 42
0.072193
  0
VERTEX
  8
0
 10
281.889728
 20
125.342675
 42
0.119746
  0
VERTEX
  8
0
 10
279.897645
 20
127.878502
 42
0.093364
  0
VERTEX
  8
0
 10
276.779926
 20
129.503076
 42
0.090998
  0
VERTEX
  8
0
 10
273.209792
 20
129.907081
 42
0.106041
  0
VERTEX
  8
0
 10
269.934259
 20
128.964816
 42
-0.177634
  0
VERTEX
  8
0
 10
268.887941
 20
128.817584
 42
-0.291685
  0
VERTEX
  8
0
 10
268.273573
 20
129.424656
 42
-0.052850
  0
VERTEX
  8
0
 10
268.037985
 20
131.409377
 42
-0.003136
  0
VERTEX
  8
0
 10
268.000000
 20
137.464816
 42
0.000000
  0
VERTEX
  8
0
 10
268.000000
 20
147.000000
 42
0.000000
  0
VERTEX
  8
0
 10
264.500000
 20
147.000000
 42
0.000000
  0
VERTEX
  8
0
 10
261.000000
 20
147.000000
 42
0.000000
  0
SEQEND
  0
POLYLINE
  8
0
 66
1
 70
1
  0
VERTEX
  8
0
 10
45.500000
 20
142.592142
 42
0.079943
  0
VERTEX
  8
0
 10
40.676754
 20
139.454633
 42
0.064201
  0
VERTEX
  8
0
 10
36.653450
 20
134.738611
 42
0.064268
  0
VERTEX
  8
0
 10
33.961584
 20
129.161960
 42
0.080512
  0
VERTEX
  8
0
 10
33.043924
 20
123.500000
 42
0.082383
  0
VERTEX
  8
0
 10
33.993476
 20
117.776080
 42
0.069808
  0
VERTEX
  8
0
 10
36.763532
 20
112.298174
 42
0.068484
  0
VERTEX
  8
0
 10
40.996980
 20
107.701841
 42
0.073640
  0
VERTEX
  8
0
 10
46.217881
 20
104.553048
 42
0.129512
  0
VERTEX
  8
0
 10
56.138461
 20
103.174231
 42
0.122353
  0
VERTEX
  8
0
 10
65.690954
 20
106.802424
 42
0.120481
  0
VERTEX
  8
0
 10
72.539020
 20
114.539699
 42
0.123158
  0
VERTEX
  8
0
 10
74.972461
 20
124.500000
 42
0.093839
  0
VERTEX
  8
0
 10
73.976332
 20
129.608138
 42
0.057744
  0
VERTEX
  8
0
 10
71.056337
 20
135.016203
 42
0.057044
  0
VERTEX
  8
0
 10
66.916280
 20
139.694783
 42
0.083331
  0
VERTEX
  8
0
 10
62.282119
 20
142.640000
 42
0.068462
  0
VERTEX
  8
0
 10
58.669027
 20
143.613387
 42
0.032336
  0
VERTEX
  8
0
 10
53.839689
 20
143.912210
 42
0.032319
  0
VERTEX
  8
0
 10
49.032343
 20
143.587378
 42
0.071395
  0
SEQEND
  0
POLYLINE
  8
0
 66
1
 70
1
  0
VERTEX
  8
0
 10
61.337637
 20
135.288661
 42
-0.066235
  0
VERTEX
  8
0
 10
62.631460
 20
134.404919
 42
-0.038315
  0
VERTEX
  8
0
 10
63.935270
 20
133.040455
 42
-0.035298
  0
VERTEX
  8
0
 10
65.138734
 20
131.338613
 42
-0.032129
  0
VERTEX
  8
0
 10
66.133391
 20
129.431353
 42
-0.061760
  0
VERTEX
  8
0
 10
67.387694
 20
125.275285
 42
-0.086169
  0
VERTEX
  8
0
 10
67.379284
 20
121.399868
 42
-0.084666
  0
VERTEX
  8
0
 10
66.059443
 20
117.704178
 42
-0.057533
  0
VERTEX
  8
0
 10
63.433438
 20
114.078837
 42
-0.024894
  0
VERTEX
  8
0
 10
61.337149
 20
112.008382
 42
-0.090546
  0
VERTEX
  8
0
 10
59.746864
 20
111.035952
 42
-0.077163
  0
VERTEX
  8
0
 10
57.785030
 20
110.609184
 42
-0.015046
  0
VERTEX
  8
0
 10
54.157403
 20
110.500000
 42
-0.015798
  0
VERTEX
  8
0
 10
50.874856
 20
110.603743
 42
-0.054167
  0
VERTEX
  8
0
 10
48.775365
 20
110.967195
 42
-0.071856
  0
VERTEX
  8
0
 10
47.131078
 20
111.707627
 42
-0.044690
  0
VERTEX
  8
0
 10
45.451685
 20
113.000000
 42
-0.115711
  0
VERTEX
  8
0
 10
41.254762
 20
119.198470
 42
-0.134703
  0
VERTEX
  8
0
 10
40.567571
 20
126.261100
 42
-0.139682
  0
VERTEX
  8
0
 10
43.568614
 20
132.499720
 42
-0.128114
  0
VERTEX
  8
0
 10
49.500000
 20
136.471288
 42
-0.044028
  0
VERTEX
  8
0
 10
52.517408
 20
137.232706
 42
-0.064779
  0
VERTEX
  8
0
 10
55.246952
 20
137.314083
 42
-0.059968
  0
VERTEX
  8
0
 10
58.057008
 20
136.687571
 42
-0.031967
  0
SEQEND
  0
POLYLINE
  8
0
 66
1
 70
1
  0
VERTEX
  8
0
 10
80.000000
 20
124.034983
 42
0.000000
  0
VERTEX
  8
0
 10
80.000000
 20
104.000000
 42
0.000000
  0
VERTEX
  8
0
 10
83.500000
 20
104.000000
 42
0.000000
  0
VERTEX
  8
0
 10
87.000000
 20
104.000000
 42
0.000000
  0
VERTEX
  8
0
 10
87.000000
 20
113.000000
 42
0.000000
  0
VERTEX
  8
0
 10
87.000000
 20
122.000000
 42
0.000000
  0
VERTEX
  8
0
 10
93.500000
 20
122.000000
 42
0.000000
  0
VERTEX
  8
0
 10
100.000000
 20
122.000000
 42
0.000000
  0
VERTEX
  8
0
 10
100.000000
 20
125.500000
 42
0.000000
  0
VERTEX
  8
0
 10
100.000000
 20
129.000000
 42
0.000000
  0
VERTEX
  8
0
 10
93.500000
 20
129.000000
 42
0.000000
  0
VERTEX
  8
0
 10
87.000000
 20
129.000000
 42
0.000000
  0
VERTEX
  8
0
 10
87.000000
 20
133.000000
 42
0.000000
  0
VERTEX
  8
0
 10
87.000000
 20
137.000000
 42
0.000000
  0
VERTEX
  8
0
 10
94.063358
 20
137.000000
 42
0.000000
  0
VERTEX
  8
0
 10
101.126717
 20
137.000000
 42
0.000000
  0
VERTEX
  8
0
 10
100.813358
 20
140.250000
 42
0.000000
  0
VERTEX
  8
0
 10
100.500000
 20
143.500000
 42
0.000000
  0
VERTEX
  8
0
 10
90.250000
 20
143.784983
 42
0.000000
  0
VERTEX
  8
0
 10
80.000000
 20
144.069966
 42
0.000000
  0
SEQEND
  0
POLYLINE
  8
0
 66
1
 70
1
  0
VERTEX
  8
0
 10
107.000000
 20
124.034983
 42
0.000000
  0
VERTEX
  8
0
 10
107.000000
 20
104.000000
 42
0.000000
  0
VERTEX
  8
0
 10
110.500000
 20
104.000000
 42
0.000000
  0
VERTEX
  8
0
 10
114.000000
 20
104.000000
 42
0.000000
  0
VERTEX
  8
0
 10
114.000000
 20
113.000000
 42
0.000000
  0
VERTEX
  8
0
 10
114.000000
 20
122.000000
 42
0.000000
  0
VERTEX
  8
0
 10
120.500000
 20
122.000000
 42
0.000000
  0
VERTEX
  8
0
 10
127.000000
 20
122.000000
 42
0.000000
  0
VERTEX
  8
0
 10
127.000000
 20
125.500000
 42
0.000000
  0
VERTEX
  8
0
 10
127.000000
 20
129.000000
 42
0.000000
  0
VERTEX
  8
0
 10
120.500000
 20
129.000000
 42
0.000000
  0
VERTEX
  8
0
 10
114.000000
 20
129.000000
 42
0.000000
  0
VERTEX
  8
0
 10
114.000000
 20
133.000000
 42
0.000000
  0
VERTEX
  8
0
 10
114.000000
 20
137.000000
 42
0.000000
  0
VERTEX
  8
0
 10
121.063358
 20
137.000000
 42
0.000000
  0
VERTEX
  8
0
 10
128.126717
 20
137.000000
 42
0.000000
  0
VERTEX
  8
0
 10
127.813358
 20
140.250000
 42
0.000000
  0
VERTEX
  8
0
 10
127.500000
 20
143.500000
 42
0.000000
  0
VERTEX
  8
0
 10
117.250000
 20
143.784983
 42
0.000000
  0
VERTEX
  8
0
 10
107.000000
 20
144.069966
 42
0.000000
  0
SEQEND
  0
POLYLINE
  8
0
 66
1
 70
1
  0
VERTEX
  8
0
 10
208.200000
 20
141.800000
 42
0.150168
  0
VERTEX
  8
0
 10
207.076255
 20
139.679369
 42
0.166623
  0
VERTEX
  8
0
 10
207.401099
 20
137.391322
 42
0.152704
  0
VERTEX
  8
0
 10
209.110899
 20
135.643179
 42
0.123984
  0
VERTEX
  8
0
 10
211.664816
 20
135.000000
 42
0.135897
  0
VERTEX
  8
0
 10
213.586271
 20
135.532064
 42
0.131547
  0
VERTEX
  8
0
 10
214.988727
 20
136.981499
 42
0.127419
  0
VERTEX
  8
0
 10
215.506682
 20
138.977775
 42
0.123570
  0
VERTEX
  8
0
 10
215.000000
 20
141.000000
 42
0.138956
  0
VERTEX
  8
0
 10
213.750010
 20
142.295448
 42
0.102861
  0
VERTEX
  8
0
 10
211.852157
 20
142.928823
 42
0.100503
  0
VERTEX
  8
0
 10
209.820690
 20
142.759364
 42
0.126123
  0
SEQEND
  0
POLYLINE
  8
0
 66
1
 70
1
  0
VERTEX
  8
0
 10
221.000000
 20
133.500000
 42
-0.020945
  0
VERTEX
  8
0
 10
220.927717
 20
131.775243
 42
-0.033738
  0
VERTEX
  8
0
 10
220.706250
 20
130.321875
 42
-0.036969
  0
VERTEX
  8
0
 10
220.388512
 20
129.267028
 42
-0.310520
  0
VERTEX
  8
0
 10
220.000000
 20
129.000000
 42
0.254951
  0
VERTEX
  8
0
 10
219.615738
 20
128.790443
 42
0.062710
  0
VERTEX
  8
0
 10
219.293750
 20
128.118750
 42
0.048861
  0
VERTEX
  8
0
 10
219.072766
 20
127.149251
 42
0.031626
  0
VERTEX
  8
0
 10
219.000000
 20
126.000000
 42
0.031626
  0
VERTEX
  8
0
 10
219.072766
 20
124.850749
 42
0.048861
  0
VERTEX
  8
0
 10
219.293750
 20
123.881250
 42
0.062710
  0
VERTEX
  8
0
 10
219.615738
 20
123.209557
 42
0.254951
  0
VERTEX
  8
0
 10
220.000000
 20
123.000000
 42
-0.368504
  0
VERTEX
  8
0
 10
220.423816
 20
122.638562
 42
-0.013417
  0
VERTEX
  8
0
 10
220.723684
 20
120.375000
 42
-0.017647
  0
VERTEX
  8
0
 10
220.933788
 20
117.360608
 42
-0.008575
  0
VERTEX
  8
0
 10
221.000000
 20
113.500000
 42
0.000000
  0
VERTEX
  8
0
 10
221.000000
 20
104.000000
 42
0.000000
  0
VERTEX
  8
0
 10
224.500000
 20
104.000000
 42
0.000000
  0
VERTEX
  8
0
 10
228.000000
 20
104.000000
 42
0.000000
  0
VERTEX
  8
0
 10
228.000000
 20
113.500000
 42
-0.004147
  0
VERTEX
  8
0
 10
228.048109
 20
119.300346
 42
-0.047763
  0
VERTEX
  8
0
 10
228.302632
 20
121.562500
 42
-0.164310
  0
VERTEX
  8
0
 10
228.912441
 20
122.595672
 42
-0.179874
  0
VERTEX
  8
0
 10
230.000000
 20
123.000000
 42
0.081208
  0
VERTEX
  8
0
 10
230.975317
 20
123.159458
 42
0.166173
  0
VERTEX
  8
0
 10
231.583333
 20
123.625000
 42
0.116834
  0
VERTEX
  8
0
 10
231.907747
 20
124.499083
 42
0.030703
  0
VERTEX
  8
0
 10
232.000000
 20
126.000000
 42
0.030703
  0
VERTEX
  8
0
 10
231.907747
 20
127.500917
 42
0.116834
  0
VERTEX
  8
0
 10
231.583333
 20
128.375000
 42
0.166173
  0
VERTEX
  8
0
 10
230.975317
 20
128.840542
 42
0.081208
  0
VERTEX
  8
0
 10
230.000000
 20
129.000000
 42
-0.102588
  0
VERTEX
  8
0
 10
228.964475
 20
129.214724
 42
-0.188085
  0
VERTEX
  8
0
 10
228.361111
 20
129.812500
 42
-0.090841
  0
VERTEX
  8
0
 10
228.069261
 20
131.020585
 42
-0.013964
  0
VERTEX
  8
0
 10
228.000000
 20
133.500000
 42
0.012019
  0
VERTEX
  8
0
 10
227.929858
 20
136.417500
 42
0.154453
  0
VERTEX
  8
0
 10
227.555556
 20
137.428571
 42
0.206324
  0
VERTEX
  8
0
 10
226.709242
 20
137.894012
 42
0.023974
  0
VERTEX
  8
0
 10
224.500000
 20
138.000000
 42
0.023974
  0
VERTEX
  8
0
 10
222.290758
 20
137.894012
 42
0.206324
  0
VERTEX
  8
0
 10
221.444444
 20
137.428571
 42
0.154453
  0
VERTEX
  8
0
 10
221.070142
 20
136.417500
 42
0.012019
  0
SEQEND
  0
POLYLINE
  8
0
 66
1
 70
1
  0
VERTEX
  8
0
 10
181.462500
 20
124.500000
 42
-0.007824
  0
VERTEX
  8
0
 10
180.357266
 20
122.008521
 42
-0.012319
  0
VERTEX
  8
0
 10
179.322969
 20
119.909375
 42
-0.006362
  0
VERTEX
  8
0
 10
178.400443
 20
118.201136
 42
-0.272162
  0
VERTEX
  8
0
 10
178.058299
 20
118.000000
 42
-0.253681
  0
VERTEX
  8
0
 10
177.709856
 20
118.188946
 42
-0.007851
  0
VERTEX
  8
0
 10
176.812748
 20
119.615625
 42
-0.013620
  0
VERTEX
  8
0
 10
175.799427
 20
121.392038
 42
-0.008795
  0
VERTEX
  8
0
 10
174.719183
 20
123.500000
 42
0.012118
  0
VERTEX
  8
0
 10
173.015100
 20
126.771562
 42
0.085552
  0
VERTEX
  8
0
 10
171.898429
 20
128.166280
 42
0.135086
  0
VERTEX
  8
0
 10
170.601649
 20
128.803010
 42
0.047005
  0
VERTEX
  8
0
 10
168.510865
 20
129.000000
 42
0.013274
  0
VERTEX
  8
0
 10
167.164870
 20
128.964261
 42
0.021827
  0
VERTEX
  8
0
 10
166.031317
 20
128.854258
 42
0.017538
  0
VERTEX
  8
0
 10
165.158233
 20
128.699476
 42
0.353812
  0
VERTEX
  8
0
 10
165.000000
 20
128.503856
 42
0.113588
  0
VERTEX
  8
0
 10
165.388426
 20
126.816121
 42
0.000973
  0
VERTEX
  8
0
 10
171.270280
 20
114.774122
 42
0.000486
  0
VERTEX
  8
0
 10
177.355994
 20
102.406411
 42
0.285538
  0
VERTEX
  8
0
 10
178.009631
 20
102.000000
 42
0.273282
  0
VERTEX
  8
0
 10
178.387999
 20
102.223494
 42
0.006353
  0
VERTEX
  8
0
 10
179.404635
 20
104.124822
 42
0.012320
  0
VERTEX
  8
0
 10
180.543660
 20
106.460818
 42
0.007820
  0
VERTEX
  8
0
 10
181.759947
 20
109.233436
 42
0.000000
  0
VERTEX
  8
0
 10
184.799115
 20
116.466873
 42
0.000000
  0
VERTEX
  8
0
 10
188.033445
 20
109.233436
 42
0.006906
  0
VERTEX
  8
0
 10
189.317738
 20
106.464452
 42
0.011046
  0
VERTEX
  8
0
 10
190.498673
 20
104.140689
 42
0.005044
  0
VERTEX
  8
0
 10
191.547568
 20
102.231441
 42
0.294548
  0
VERTEX
  8
0
 10
191.883887
 20
102.054014
 42
0.260740
  0
VERTEX
  8
0
 10
192.405750
 20
102.409179
 42
0.000346
  0
VERTEX
  8
0
 10
198.072541
 20
113.777777
 42
0.002143
  0
VERTEX
  8
0
 10
203.136209
 20
124.064368
 42
0.026562
  0
VERTEX
  8
0
 10
204.833333
 20
128.078035
 42
0.373208
  0
VERTEX
  8
0
 10
204.696804
 20
128.432696
 42
0.058148
  0
VERTEX
  8
0
 10
203.938636
 20
128.729173
 42
0.041465
  0
VERTEX
  8
0
 10
202.771285
 20
128.934021
 42
0.022711
  0
VERTEX
  8
0
 10
201.319471
 20
129.000000
 42
0.039449
  0
VERTEX
  8
0
 10
198.936435
 20
128.811689
 42
0.150414
  0
VERTEX
  8
0
 10
197.613161
 20
128.162154
 42
0.089918
  0
VERTEX
  8
0
 10
196.527332
 20
126.693219
 42
0.009127
  0
VERTEX
  8
0
 10
194.676033
 20
122.750000
 42
0.000000
  0
VERTEX
  8
0
 10
191.879791
 20
116.500000
 42
0.000000
  0
VERTEX
  8
0
 10
188.800285
 20
123.750000
 42
0.008177
  0
VERTEX
  8
0
 10
187.565894
 20
126.528906
 42
0.012839
  0
VERTEX
  8
0
 10
186.405697
 20
128.870313
 42
0.006881
  0
VERTEX
  8
0
 10
185.370358
 20
130.767783
 42
0.270723
  0
VERTEX
  8
0
 10
184.972908
 20
131.000000
 42
0.266634
  0
VERTEX
  8
0
 10
184.578771
 20
130.773733
 42
0.008332
  0
VERTEX
  8
0
 10
183.633229
 20
129.090625
 42
0.014210
  0
VERTEX
  8
0
 10
182.575380
 20
126.991308
 42
0.009118
  0
SEQEND
  0
POLYLINE
  8
0
 66
1
 70
1
  0
VERTEX
  8
0
 10
150.582904
 20
127.886552
 42
0.039606
  0
VERTEX
  8
0
 10
149.189338
 20
126.599491
 42
0.094841
  0
VERTEX
  8
0
 10
148.448797
 20
125.409922
 42
0.084073
  0
VERTEX
  8
0
 10
148.151193
 20
123.941448
 42
0.026537
  0
VERTEX
  8
0
 10
148.198046
 20
121.695739
 42
0.033747
  0
VERTEX
  8
0
 10
148.533380
 20
119.339874
 42
0.102459
  0
VERTEX
  8
0
 10
149.179696
 20
117.865207
 42
0.086656
  0
VERTEX
  8
0
 10
150.423633
 20
116.633038
 42
0.019926
  0
VERTEX
  8
0
 10
152.923776
 20
115.037859
 42
-0.013879
  0
VERTEX
  8
0
 10
154.644797
 20
113.968845
 42
-0.018018
  0
VERTEX
  8
0
 10
156.156311
 20
112.890641
 42
-0.015847
  0
VERTEX
  8
0
 10
157.337768
 20
111.920820
 42
-0.133285
  0
VERTEX
  8
0
 10
157.716040
 20
111.351880
 42
-0.256301
  0
VERTEX
  8
0
 10
157.527041
 20
110.313544
 42
-0.175459
  0
VERTEX
  8
0
 10
156.477212
 20
109.682011
 42
-0.121210
  0
VERTEX
  8
0
 10
154.923194
 20
109.755199
 42
-0.124917
  0
VERTEX
  8
0
 10
153.600367
 20
110.542490
 42
0.075726
  0
VERTEX
  8
0
 10
152.208032
 20
111.566721
 42
0.118153
  0
VERTEX
  8
0
 10
150.771573
 20
111.930230
 42
0.107005
  0
VERTEX
  8
0
 10
149.223552
 20
111.615529
 42
0.054457
  0
VERTEX
  8
0
 10
147.494540
 20
110.619666
 42
0.050649
  0
VERTEX
  8
0
 10
146.481344
 20
109.708213
 42
0.256466
  0
VERTEX
  8
0
 10
146.310632
 20
108.994861
 42
0.121178
  0
VERTEX
  8
0
 10
146.800347
 20
108.116068
 42
0.008955
  0
VERTEX
  8
0
 10
148.726488
 20
106.119666
 42
0.078813
  0
VERTEX
  8
0
 10
151.998269
 20
103.743679
 42
0.114515
  0
VERTEX
  8
0
 10
155.447824
 20
102.889413
 42
0.116710
  0
VERTEX
  8
0
 10
158.873062
 20
103.646894
 42
0.084044
  0
VERTEX
  8
0
 10
162.076923
 20
105.923077
 42
0.101669
  0
VERTEX
  8
0
 10
164.609961
 20
109.766172
 42
0.177263
  0
VERTEX
  8
0
 10
164.720142
 20
113.534320
 42
0.140078
  0
VERTEX
  8
0
 10
162.266965
 20
117.120165
 42
0.056178
  0
VERTEX
  8
0
 10
157.250000
 20
120.408707
 42
-0.014531
  0
VERTEX
  8
0
 10
154.775884
 20
121.750841
 42
-0.182269
  0
VERTEX
  8
0
 10
154.114819
 20
122.561479
 42
-0.554354
  0
VERTEX
  8
0
 10
154.457021
 20
122.977093
 42
-0.028887
  0
VERTEX
  8
0
 10
156.520519
 20
122.584206
 42
0.085814
  0
VERTEX
  8
0
 10
158.567161
 20
122.431043
 42
0.066378
  0
VERTEX
  8
0
 10
160.748641
 20
122.939686
 42
0.075083
  0
VERTEX
  8
0
 10
162.439644
 20
123.888936
 42
0.231348
  0
VERTEX
  8
0
 10
163.000000
 20
125.035184
 42
0.179207
  0
VERTEX
  8
0
 10
162.424770
 20
126.588571
 42
0.058911
  0
VERTEX
  8
0
 10
160.601947
 20
128.265747
 42
0.057211
  0
VERTEX
  8
0
 10
158.286101
 20
129.566690
 42
0.099710
  0
VERTEX
  8
0
 10
156.134859
 20
130.000000
 42
0.058634
  0
VERTEX
  8
0
 10
154.843045
 20
129.847989
 42
0.032377
  0
VERTEX
  8
0
 10
153.322101
 20
129.379175
 42
0.031815
  0
VERTEX
  8
0
 10
151.821483
 20
128.695787
 42
0.043921
  0
SEQEND
  0
POLYLINE
  8
0
 66
1
 70
1
  0
VERTEX
  8
0
 10
241.269695
 20
128.517413
 42
0.124575
  0
VERTEX
  8
0
 10
237.130633
 20
125.318617
 42
0.100341
  0
VERTEX
  8
0
 10
234.601481
 20
120.276846
 42
0.096858
  0
VERTEX
  8
0
 10
234.184915
 20
114.487730
 42
0.106962
  0
VERTEX
  8
0
 10
236.025635
 20
109.189824
 42
0.107266
  0
VERTEX
  8
0
 10
239.181648
 20
105.877415
 42
0.075671
  0
VERTEX
  8
0
 10
243.838710
 20
103.657575
 42
0.076973
  0
VERTEX
  8
0
 10
248.858004
 20
102.949706
 42
0.120036
  0
VERTEX
  8
0
 10
253.065741
 20
104.035184
 42
0.089585
  0
VERTEX
  8
0
 10
253.964879
 20
104.747661
 42
0.088453
  0
VERTEX
  8
0
 10
254.562763
 20
105.732608
 42
0.065607
  0
VERTEX
  8
0
 10
254.896778
 20
107.108866
 42
0.026773
  0
VERTEX
  8
0
 10
255.000000
 20
109.035184
 42
0.013929
  0
VERTEX
  8
0
 10
254.917473
 20
111.997043
 42
0.264969
  0
VERTEX
  8
0
 10
254.433389
 20
112.746092
 42
0.278194
  0
VERTEX
  8
0
 10
253.561964
 20
112.690552
 42
0.015052
  0
VERTEX
  8
0
 10
251.250601
 20
110.982483
 42
-0.143529
  0
VERTEX
  8
0
 10
247.956791
 20
109.661522
 42
-0.148600
  0
VERTEX
  8
0
 10
244.520865
 20
110.353536
 42
-0.142262
  0
VERTEX
  8
0
 10
241.946487
 20
112.882076
 42
-0.128641
  0
VERTEX
  8
0
 10
241.000000
 20
116.500000
 42
-0.128641
  0
VERTEX
  8
0
 10
241.946487
 20
120.117924
 42
-0.142262
  0
VERTEX
  8
0
 10
244.520865
 20
122.646464
 42
-0.148600
  0
VERTEX
  8
0
 10
247.956791
 20
123.338478
 42
-0.143529
  0
VERTEX
  8
0
 10
251.250601
 20
122.017517
 42
0.015052
  0
VERTEX
  8
0
 10
253.561964
 20
120.309448
 42
0.278194
  0
VERTEX
  8
0
 10
254.433389
 20
120.253908
 42
0.264969
  0
VERTEX
  8
0
 10
254.917473
 20
121.002957
 42
0.013929
  0
VERTEX
  8
0
 10
255.000000
 20
123.964816
 42
0.026773
  0
VERTEX
  8
0
 10
254.896778
 20
125.891134
 42
0.065607
  0
VERTEX
  8
0
 10
254.562763
 20
127.267392
 42
0.088453
  0
VERTEX
  8
0
 10
253.964879
 20
128.252339
 42
0.089585
  0
VERTEX
  8
0
 10
253.065741
 20
128.964816
 42
0.086938
  0
VERTEX
  8
0
 10
250.706572
 20
129.741277
 42
0.045639
  0
VERTEX
  8
0
 10
247.612876
 20
129.906341
 42
0.043397
  0
VERTEX
  8
0
 10
244.303490
 20
129.491679
 42
0.049714
  0
SEQEND
  0
POLYLINE
  8
0
 66
1
 70
1
  0
VERTEX
  8
0
 10
208.000000
 20
116.500000
 42
0.000000
  0
VERTEX
  8
0
 10
208.000000
 20
104.000000
 42
0.000000
  0
VERTEX
  8
0
 10
211.500000
 20
104.000000
 42
0.000000
  0
VERTEX
  8
0
 10
215.000000
 20
104.000000
 42
0.000000
  0
VERTEX
  8
0
 10
215.000000
 20
116.500000
 42
0.000000
  0
VERTEX
  8
0
 10
215.000000
 20
129.000000
 42
0.000000
  0
VERTEX
  8
0
 10
211.500000
 20
129.000000
 42
0.000000
  0
VERTEX
  8
0
 10
208.000000
 20
129.000000
 42
0.000000
  0
SEQEND
  0
POLYLINE
  8
0
 66
1
 70
1
  0
VERTEX
  8
0
 10
147.000000
 20
72.530779
 42
0.023422
  0
VERTEX
  8
0
 10
147.104739
 20
70.296125
 42
0.205792
  0
VERTEX
  8
0
 10
147.568627
 20
69.446154
 42
0.155539
  0
VERTEX
  8
0
 10
148.577363
 20
69.070275
 42
0.012021
  0
VERTEX
  8
0
 10
151.500000
 20
69.000000
 42
0.000000
  0
VERTEX
  8
0
 10
156.000000
 20
69.000000
 42
0.000000
  0
VERTEX
  8
0
 10
156.000000
 20
52.500000
 42
0.000000
  0
VERTEX
  8
0
 10
156.000000
 20
36.000000
 42
0.000000
  0
VERTEX
  8
0
 10
159.500000
 20
36.000000
 42
0.000000
  0
VERTEX
  8
0
 10
163.000000
 20
36.000000
 42
0.000000
  0
VERTEX
  8
0
 10
163.000000
 20
52.500000
 42
0.000000
  0
VERTEX
  8
0
 10
163.000000
 20
69.000000
 42
0.000000
  0
VERTEX
  8
0
 10
167.563358
 20
69.000000
 42
0.010297
  0
VERTEX
  8
0
 10
170.543780
 20
69.061383
 42
0.154118
  0
VERTEX
  8
0
 10
171.510178
 20
69.410882
 42
0.231403
  0
VERTEX
  8
0
 10
171.903453
 20
70.198415
 42
0.026123
  0
VERTEX
  8
0
 10
171.813358
 20
72.250000
 42
0.000000
  0
VERTEX
  8
0
 10
171.500000
 20
75.500000
 42
0.000000
  0
VERTEX
  8
0
 10
159.250000
 20
75.780779
 42
0.000000
  0
VERTEX
  8
0
 10
147.000000
 20
76.061558
 42
0.000000
  0
SEQEND
  0
POLYLINE
  8
0
 66
1
 70
1
  0
VERTEX
  8
0
 10
176.000000
 20
56.000000
 42
0.000000
  0
VERTEX
  8
0
 10
176.000000
 20
36.000000
 42
0.000000
  0
VERTEX
  8
0
 10
179.500000
 20
36.000000
 42
0.000000
  0
VERTEX
  8
0
 10
183.000000
 20
36.000000
 42
0.000000
  0
VERTEX
  8
0
 10
183.000000
 20
56.000000
 42
0.000000
  0
VERTEX
  8
0
 10
183.000000
 20
76.000000
 42
0.000000
  0
VERTEX
  8
0
 10
179.500000
 20
76.000000
 42
0.000000
  0
VERTEX
  8
0
 10
176.000000
 20
76.000000
 42
0.000000
  0
SEQEND
  0
POLYLINE
  8
0
 66
1
 70
1
  0
VERTEX
  8
0
 10
199.907284
 20
73.672361
 42
0.071668
  0
VERTEX
  8
0
 10
196.118522
 20
70.915760
 42
0.053856
  0
VERTEX
  8
0
 10
192.828585
 20
66.938528
 42
0.053161
  0
VERTEX
  8
0
 10
190.422777
 20
62.286460
 42
0.064793
  0
VERTEX
  8
0
 10
189.250488
 20
57.529967
 42
0.123913
  0
VERTEX
  8
0
 10
190.477640
 20
48.449519
 42
0.112470
  0
VERTEX
  8
0
 10
195.867939
 20
40.652727
 42
0.111767
  0
VERTEX
  8
0
 10
204.135895
 20
35.926571
 42
0.121119
  0
VERTEX
  8
0
 10
213.381573
 20
35.411805
 42
0.096478
  0
VERTEX
  8
0
 10
218.889332
 20
37.597676
 42
0.078425
  0
VERTEX
  8
0
 10
223.643659
 20
41.824215
 42
0.078098
  0
VERTEX
  8
0
 10
226.881315
 20
47.328667
 42
0.094230
  0
VERTEX
  8
0
 10
228.000000
 20
53.211890
 42
0.000000
  0
VERTEX
  8
0
 10
228.000000
 20
57.000000
 42
0.000000
  0
VERTEX
  8
0
 10
219.500000
 20
57.000000
 42
0.000000
  0
VERTEX
  8
0
 10
211.000000
 20
57.000000
 42
0.000000
  0
VERTEX
  8
0
 10
211.000000
 20
53.500000
 42
0.023974
  0
VERTEX
  8
0
 10
211.105988
 20
51.290758
 42
0.206324
  0
VERTEX
  8
0
 10
211.571429
 20
50.444444
 42
0.154453
  0
VERTEX
  8
0
 10
212.582500
 20
50.070142
 42
0.012019
  0
VERTEX
  8
0
 10
215.500000
 20
50.000000
 42
-0.030478
  0
VERTEX
  8
0
 10
218.797590
 20
49.798807
 42
-0.304413
  0
VERTEX
  8
0
 10
219.791684
 20
48.939373
 42
-0.253361
  0
VERTEX
  8
0
 10
219.464653
 20
47.538605
 42
-0.023454
  0
VERTEX
  8
0
 10
216.894245
 20
44.901210
 42
-0.141054
  0
VERTEX
  8
0
 10
211.705862
 20
42.258500
 42
-0.128353
  0
VERTEX
  8
0
 10
205.697575
 20
42.646380
 42
-0.120019
  0
VERTEX
  8
0
 10
200.342054
 20
45.994124
 42
-0.114105
  0
VERTEX
  8
0
 10
197.004058
 20
51.487703
 42
-0.167576
  0
VERTEX
  8
0
 10
197.120164
 20
60.222046
 42
-0.165932
  0
VERTEX
  8
0
 10
202.593193
 20
67.070549
 42
-0.166830
  0
VERTEX
  8
0
 10
211.085588
 20
69.122574
 42
-0.169201
  0
VERTEX
  8
0
 10
218.990477
 20
65.509123
 42
0.000000
  0
VERTEX
  8
0
 10
221.631508
 20
62.978856
 42
0.000000
  0
VERTEX
  8
0
 10
223.990068
 20
65.489428
 42
0.000000
  0
VERTEX
  8
0
 10
226.348628
 20
68.000000
 42
0.000000
  0
VERTEX
  8
0
 10
224.052929
 20
70.443659
 42
0.094882
  0
VERTEX
  8
0
 10
219.124525
 20
74.017514
 42
0.076469
  0
VERTEX
  8
0
 10
212.835687
 20
75.863885
 42
0.074303
  0
VERTEX
  8
0
 10
206.107406
 20
75.760232
 42
0.080715
  0
SEQEND
  0
POLYLINE
  8
0
 66
1
 70
1
  0
VERTEX
  8
0
 10
234.000000
 20
56.032751
 42
0.000000
  0
VERTEX
  8
0
 10
234.000000
 20
36.000000
 42
0.000000
  0
VERTEX
  8
0
 10
245.500000
 20
36.000000
 42
0.000000
  0
VERTEX
  8
0
 10
257.000000
 20
36.000000
 42
0.000000
  0
VERTEX
  8
0
 10
257.000000
 20
39.000000
 42
0.000000
  0
VERTEX
  8
0
 10
257.000000
 20
42.000000
 42
0.000000
  0
VERTEX
  8
0
 10
249.000000
 20
42.000000
 42
0.000000
  0
VERTEX
  8
0
 10
241.000000
 20
42.000000
 42
0.000000
  0
VERTEX
  8
0
 10
241.000000
 20
48.000000
 42
0.000000
  0
VERTEX
  8
0
 10
241.000000
 20
54.000000
 42
0.000000
  0
VERTEX
  8
0
 10
248.500000
 20
54.000000
 42
0.000000
  0
VERTEX
  8
0
 10
256.000000
 20
54.000000
 42
0.000000
  0
VERTEX
  8
0
 10
256.000000
 20
57.500000
 42
0.000000
  0
VERTEX
  8
0
 10
256.000000
 20
61.000000
 42
0.000000
  0
VERTEX
  8
0
 10
248.500000
 20
61.000000
 42
0.000000
  0
VERTEX
  8
0
 10
241.000000
 20
61.000000
 42
0.000000
  0
VERTEX
  8
0
 10
241.000000
 20
65.000000
 42
0.000000
  0
VERTEX
  8
0
 10
241.000000
 20
69.000000
 42
0.000000
  0
VERTEX
  8
0
 10
249.063358
 20
69.000000
 42
0.000000
  0
VERTEX
  8
0
 10
257.126717
 20
69.000000
 42
0.000000
  0
VERTEX
  8
0
 10
256.813358
 20
72.250000
 42
0.000000
  0
VERTEX
  8
0
 10
256.500000
 20
75.500000
 42
0.000000
  0
VERTEX
  8
0
 10
245.250000
 20
75.782751
 42
0.000000
  0
VERTEX
  8
0
 10
234.000000
 20
76.065502
 42
0.000000
  0
SEQEND
  0
POLYLINE
  8
0
 66
1
 70
1
  0
VERTEX
  8
0
 10
263.000000
 20
56.000000
 42
0.000000
  0
VERTEX
  8
0
 10
263.000000
 20
36.000000
 42
0.000000
  0
VERTEX
  8
0
 10
266.457936
 20
36.000000
 42
0.000000
  0
VERTEX
  8
0
 10
269.915871
 20
36.000000
 42
0.000000
  0
VERTEX
  8
0
 10
270.207936
 20
43.573596
 42
0.000000
  0
VERTEX
  8
0
 10
270.500000
 20
51.147191
 42
0.000000
  0
VERTEX
  8
0
 10
275.759215
 20
43.573596
 42
0.006729
  0
VERTEX
  8
0
 10
279.126142
 20
38.861658
 42
0.062790
  0
VERTEX
  8
0
 10
280.841922
 20
37.053903
 42
0.121051
  0
VERTEX
  8
0
 10
282.515338
 20
36.255538
 42
0.051099
  0
VERTEX
  8
0
 10
285.009215
 20
36.000000
 42
0.013986
  0
VERTEX
  8
0
 10
286.539171
 20
36.042805
 42
0.022963
  0
VERTEX
  8
0
 10
287.827707
 20
36.174509
 42
0.019219
  0
VERTEX
  8
0
 10
288.813568
 20
36.360237
 42
0.349847
  0
VERTEX
  8
0
 10
289.000000
 20
36.594073
 42
0.147903
  0
VERTEX
  8
0
 10
288.876287
 20
37.003146
 42
0.001952
  0
VERTEX
  8
0
 10
287.379089
 20
39.233176
 42
0.005403
  0
VERTEX
  8
0
 10
285.596904
 20
41.805108
 42
0.003498
  0
VERTEX
  8
0
 10
283.482005
 20
44.744022
 42
0.000000
  0
VERTEX
  8
0
 10
277.964010
 20
52.299898
 42
0.000000
  0
VERTEX
  8
0
 10
280.811696
 20
54.031679
 42
0.127893
  0
VERTEX
  8
0
 10
284.152943
 20
57.477362
 42
0.103583
  0
VERTEX
  8
0
 10
285.724952
 20
62.398780
 42
0.102155
  0
VERTEX
  8
0
 10
285.199014
 20
67.595925
 42
0.120818
  0
VERTEX
  8
0
 10
282.644834
 20
71.809711
 42
0.087143
  0
VERTEX
  8
0
 10
280.213843
 20
73.514395
 42
0.043675
  0
VERTEX
  8
0
 10
276.678152
 20
74.806661
 42
0.037345
  0
VERTEX
  8
0
 10
272.291140
 20
75.643366
 42
0.025895
  0
VERTEX
  8
0
 10
267.250000
 20
75.956449
 42
0.000000
  0
VERTEX
  8
0
 10
263.000000
 20
76.000000
 42
0.000000
  0
SEQEND
  0
POLYLINE
  8
0
 66
1
 70
1
  0
VERTEX
  8
0
 10
276.777494
 20
67.443296
 42
-0.174020
  0
VERTEX
  8
0
 10
278.663532
 20
64.774420
 42
-0.180756
  0
VERTEX
  8
0
 10
278.383408
 20
61.564386
 42
-0.154601
  0
VERTEX
  8
0
 10
275.952932
 20
58.963113
 42
-0.128845
  0
VERTEX
  8
0
 10
272.277494
 20
58.000000
 42
-0.086405
  0
VERTEX
  8
0
 10
271.019301
 20
58.219063
 42
-0.211429
  0
VERTEX
  8
0
 10
270.353522
 20
58.853734
 42
-0.089338
  0
VERTEX
  8
0
 10
270.059655
 20
60.203377
 42
-0.009047
  0
VERTEX
  8
0
 10
270.000000
 20
63.500000
 42
-0.009047
  0
VERTEX
  8
0
 10
270.059655
 20
66.796623
 42
-0.089338
  0
VERTEX
  8
0
 10
270.353522
 20
68.146266
 42
-0.211429
  0
VERTEX
  8
0
 10
271.019301
 20
68.780937
 42
-0.086405
  0
VERTEX
  8
0
 10
272.277494
 20
69.000000
 42
-0.053908
  0
VERTEX
  8
0
 10
273.310356
 20
68.888317
 42
-0.029415
  0
VERTEX
  8
0
 10
274.538835
 20
68.542718
 42
-0.028960
  0
VERTEX
  8
0
 10
275.759900
 20
68.039433
 42
-0.040561
  0
SEQEND
  0
POLYLINE
  8
0
 66
1
 70
1
  0
VERTEX
  8
0
 10
34.298549
 20
60.040484
 42
0.168417
  0
VERTEX
  8
0
 10
28.968958
 20
53.577041
 42
0.155405
  0
VERTEX
  8
0
 10
28.559334
 20
44.960027
 42
0.157523
  0
VERTEX
  8
0
 10
33.198103
 20
37.775523
 42
0.172944
  0
VERTEX
  8
0
 10
40.982459
 20
35.000000
 42
0.091490
  0
VERTEX
  8
0
 10
46.436161
 20
36.006347
 42
0.100818
  0
VERTEX
  8
0
 10
50.963634
 20
38.882210
 42
0.102803
  0
VERTEX
  8
0
 10
53.943624
 20
43.246935
 42
0.098861
  0
VERTEX
  8
0
 10
54.992524
 20
48.500000
 42
0.135463
  0
VERTEX
  8
0
 10
53.117964
 20
55.292124
 42
0.131629
  0
VERTEX
  8
0
 10
48.010155
 20
60.249658
 42
0.131256
  0
VERTEX
  8
0
 10
41.095692
 20
61.998244
 42
0.134355
  0
SEQEND
  0
POLYLINE
  8
0
 66
1
 70
1
  0
VERTEX
  8
0
 10
46.530591
 20
52.652863
 42
-0.164054
  0
VERTEX
  8
0
 10
47.904981
 20
47.975622
 42
-0.178561
  0
VERTEX
  8
0
 10
46.096343
 20
43.610510
 42
-0.193489
  0
VERTEX
  8
0
 10
42.033082
 20
41.685986
 42
-0.183675
  0
VERTEX
  8
0
 10
37.657128
 20
43.055063
 42
-0.134883
  0
VERTEX
  8
0
 10
35.409415
 20
46.098481
 42
-0.140527
  0
VERTEX
  8
0
 10
35.078888
 20
49.812523
 42
-0.139328
  0
VERTEX
  8
0
 10
36.768502
 20
53.160795
 42
-0.131835
  0
VERTEX
  8
0
 10
40.000000
 20
55.206756
 42
-0.086635
  0
VERTEX
  8
0
 10
41.772238
 20
55.437421
 42
-0.082529
  0
VERTEX
  8
0
 10
43.550104
 20
55.062019
 42
-0.078561
  0
VERTEX
  8
0
 10
45.182705
 20
54.106368
 42
-0.068457
  0
SEQEND
  0
POLYLINE
  8
0
 66
1
 70
1
  0
VERTEX
  8
0
 10
68.647466
 20
61.314133
 42
-0.158247
  0
VERTEX
  8
0
 10
68.144784
 20
61.057834
 42
-0.017498
  0
VERTEX
  8
0
 10
66.846837
 20
60.897872
 42
-0.019952
  0
VERTEX
  8
0
 10
65.246961
 20
60.821449
 42
-0.014889
  0
VERTEX
  8
0
 10
63.480799
 20
60.860209
 42
0.000000
  0
VERTEX
  8
0
 10
59.000000
 20
61.092154
 42
0.000000
  0
VERTEX
  8
0
 10
59.000000
 20
48.546077
 42
0.000000
  0
VERTEX
  8
0
 10
59.000000
 20
36.000000
 42
0.000000
  0
VERTEX
  8
0
 10
62.500000
 20
36.000000
 42
0.000000
  0
VERTEX
  8
0
 10
66.000000
 20
36.000000
 42
0.000000
  0
VERTEX
  8
0
 10
66.015313
 20
44.250000
 42
-0.008235
  0
VERTEX
  8
0
 10
66.074702
 20
47.490296
 42
-0.011312
  0
VERTEX
  8
0
 10
66.241942
 20
50.399704
 42
-0.008174
  0
VERTEX
  8
0
 10
66.474554
 20
52.805457
 42
-0.119588
  0
VERTEX
  8
0
 10
66.765313
 20
53.600056
 42
-0.100765
  0
VERTEX
  8
0
 10
67.803415
 20
54.629300
 42
-0.090172
  0
VERTEX
  8
0
 10
69.202050
 20
55.221299
 42
-0.087369
  0
VERTEX
  8
0
 10
70.759181
 20
55.293370
 42
-0.086966
  0
VERTEX
  8
0
 10
72.250000
 20
54.829689
 42
-0.151925
  0
VERTEX
  8
0
 10
73.153726
 20
53.941761
 42
-0.079442
  0
VERTEX
  8
0
 10
73.676098
 20
52.436953
 42
-0.037423
  0
VERTEX
  8
0
 10
73.936463
 20
49.861681
 42
-0.006487
  0
VERTEX
  8
0
 10
74.000000
 20
44.964816
 42
0.000000
  0
VERTEX
  8
0
 10
74.000000
 20
36.000000
 42
0.000000
  0
VERTEX
  8
0
 10
77.500000
 20
36.000000
 42
0.000000
  0
VERTEX
  8
0
 10
81.000000
 20
36.000000
 42
0.000000
  0
VERTEX
  8
0
 10
81.000000
 20
45.452947
 42
0.015342
  0
VERTEX
  8
0
 10
80.790869
 20
52.266825
 42
0.057978
  0
VERTEX
  8
0
 10
80.039926
 20
56.460405
 42
0.098263
  0
VERTEX
  8
0
 10
78.615821
 20
59.137316
 42
0.115119
  0
VERTEX
  8
0
 10
76.342675
 20
60.889728
 42
0.049313
  0
VERTEX
  8
0
 10
74.194978
 20
61.622922
 42
0.043863
  0
VERTEX
  8
0
 10
71.858523
 20
61.958771
 42
0.045911
  0
VERTEX
  8
0
 10
69.805590
 20
61.883472
 42
0.165738
  0
SEQEND
  0
POLYLINE
  8
0
 66
1
 70
1
  0
VERTEX
  8
0
 10
107.872804
 20
60.362876
 42
0.065961
  0
VERTEX
  8
0
 10
105.390091
 20
58.272237
 42
0.065662
  0
VERTEX
  8
0
 10
103.533061
 20
55.604178
 42
0.063605
  0
VERTEX
  8
0
 10
102.388211
 20
52.466652
 42
0.055767
  0
VERTEX
  8
0
 10
102.000000
 20
48.996837
 42
0.080687
  0
VERTEX
  8
0
 10
102.978089
 20
42.975300
 42
0.114438
  0
VERTEX
  8
0
 10
105.803727
 20
38.365905
 42
0.126741
  0
VERTEX
  8
0
 10
110.121254
 20
35.772939
 42
0.112985
  0
VERTEX
  8
0
 10
115.353654
 20
35.439274
 42
-0.014724
  0
VERTEX
  8
0
 10
117.248684
 20
35.690662
 42
-0.008614
  0
VERTEX
  8
0
 10
119.530448
 20
35.885566
 42
-0.008610
  0
VERTEX
  8
0
 10
121.822383
 20
36.002013
 42
-0.014452
  0
VERTEX
  8
0
 10
123.750000
 20
36.010964
 42
0.000000
  0
VERTEX
  8
0
 10
128.000000
 20
35.907846
 42
0.000000
  0
VERTEX
  8
0
 10
128.000000
 20
48.504394
 42
0.000000
  0
VERTEX
  8
0
 10
128.000000
 20
61.100941
 42
0.000000
  0
VERTEX
  8
0
 10
123.250000
 20
61.030737
 42
-0.010279
  0
VERTEX
  8
0
 10
121.139971
 20
61.042929
 42
-0.006818
  0
VERTEX
  8
0
 10
118.720313
 20
61.139696
 42
-0.006864
  0
VERTEX
  8
0
 10
116.372043
 20
61.298054
 42
-0.013265
  0
VERTEX
  8
0
 10
114.500000
 20
61.500247
 42
0.030310
  0
VERTEX
  8
0
 10
112.536430
 20
61.644865
 42
0.045753
  0
VERTEX
  8
0
 10
110.827925
 20
61.510429
 42
0.050318
  0
VERTEX
  8
0
 10
109.298142
 20
61.086196
 42
0.049309
  0
SEQEND
  0
POLYLINE
  8
0
 66
1
 70
1
  0
VERTEX
  8
0
 10
117.315741
 20
54.850296
 42
-0.042932
  0
VERTEX
  8
0
 10
119.160768
 20
53.666850
 42
-0.098458
  0
VERTEX
  8
0
 10
120.242749
 20
52.429174
 42
-0.094017
  0
VERTEX
  8
0
 10
120.797360
 20
50.834035
 42
-0.036799
  0
VERTEX
  8
0
 10
120.969374
 20
48.500000
 42
-0.037408
  0
VERTEX
  8
0
 10
120.792495
 20
46.139089
 42
-0.097245
  0
VERTEX
  8
0
 10
120.221020
 20
44.541062
 42
-0.098465
  0
VERTEX
  8
0
 10
119.092750
 20
43.289455
 42
-0.038973
  0
VERTEX
  8
0
 10
117.125122
 20
42.047688
 42
-0.042105
  0
VERTEX
  8
0
 10
115.751458
 20
41.465445
 42
-0.114438
  0
VERTEX
  8
0
 10
114.705223
 20
41.372231
 42
-0.098737
  0
VERTEX
  8
0
 10
113.632944
 20
41.746550
 42
-0.026638
  0
VERTEX
  8
0
 10
112.125122
 20
42.747325
 42
-0.106493
  0
VERTEX
  8
0
 10
109.943911
 20
45.237345
 42
-0.115108
  0
VERTEX
  8
0
 10
109.059719
 20
48.335623
 42
-0.119228
  0
VERTEX
  8
0
 10
109.648415
 20
51.420747
 42
-0.120172
  0
VERTEX
  8
0
 10
111.581331
 20
53.885315
 42
-0.009258
  0
VERTEX
  8
0
 10
113.671166
 20
55.467438
 42
-0.116211
  0
VERTEX
  8
0
 10
114.578180
 20
55.848890
 42
-0.146447
  0
VERTEX
  8
0
 10
115.480127
 20
55.736372
 42
-0.017396
  0
SEQEND
  0
ENDSEC
  0
EOF
