  0
SECTION
  2
HEADER
  9
$ACADVER
  1
AC1006
  9
$EXTMIN
 10
0.000000
 20
0.000000
 30
0.000000
  9
$EXTMAX
 10
318.000000
 20
318.000000
 30
0.000000
  0
ENDSEC
  0
SECTION
  2
ENTITIES
  0
POLYLINE
  8
0
 66
1
 70
1
  0
VERTEX
  8
0
 10
0.000000
 20
159.000000
 42
0.000000
  0
VERTEX
  8
0
 10
0.000000
 20
0.000000
 42
0.000000
  0
VERTEX
  8
0
 10
159.000000
 20
0.000000
 42
0.000000
  0
VERTEX
  8
0
 10
318.000000
 20
0.000000
 42
0.000000
  0
VERTEX
  8
0
 10
318.000000
 20
159.000000
 42
0.000000
  0
VERTEX
  8
0
 10
318.000000
 20
318.000000
 42
0.000000
  0
VERTEX
  8
0
 10
159.000000
 20
318.000000
 42
0.000000
  0
VERTEX
  8
0
 10
0.000000
 20
318.000000
 42
0.000000
  0
SEQEND
  0
POLYLINE
  8
0
 66
1
 70
1
  0
VERTEX
  8
0
 10
29.750000
 20
234.753224
 42
-0.144828
  0
VERTEX
  8
0
 10
31.222796
 20
233.410569
 42
-0.102147
  0
VERTEX
  8
0
 10
31.975136
 20
231.286073
 42
-0.099879
  0
VERTEX
  8
0
 10
31.832143
 20
228.995263
 42
-0.131744
  0
VERTEX
  8
0
 10
30.790729
 20
227.190729
 42
0.086186
  0
VERTEX
  8
0
 10
30.316535
 20
226.517223
 42
0.199977
  0
VERTEX
  8
0
 10
30.288195
 20
225.911548
 42
0.126255
  0
VERTEX
  8
0
 10
30.726418
 20
225.269857
 42
0.027365
  0
VERTEX
  8
0
 10
31.790729
 20
224.434025
 42
-0.126479
  0
VERTEX
  8
0
 10
33.360191
 20
222.601261
 42
-0.109784
  0
VERTEX
  8
0
 10
33.957552
 20
220.137258
 42
-0.105565
  0
VERTEX
  8
0
 10
33.461083
 20
217.572336
 42
-0.108848
  0
VERTEX
  8
0
 10
31.962526
 20
215.466087
 42
-0.076308
  0
VERTEX
  8
0
 10
30.709071
 20
214.639042
 42
-0.038479
  0
VERTEX
  8
0
 10
28.928299
 20
213.980923
 42
-0.031899
  0
VERTEX
  8
0
 10
26.675132
 20
213.492887
 42
-0.019332
  0
VERTEX
  8
0
 10
23.962526
 20
213.190908
 42
0.000000
  0
VERTEX
  8
0
 10
18.000000
 20
212.759618
 42
0.000000
  0
VERTEX
  8
0
 10
18.000000
 20
222.798022
 42
0.005333
  0
VERTEX
  8
0
 10
17.957816
 20
226.752926
 42
0.007184
  0
VERTEX
  8
0
 10
17.830039
 20
230.330555
 42
0.005102
  0
VERTEX
  8
0
 10
17.649966
 20
233.314599
 42
0.074118
  0
VERTEX
  8
0
 10
17.421410
 20
234.344207
 42
-0.416983
  0
VERTEX
  8
0
 10
18.090779
 20
235.828284
 42
-0.081127
  0
VERTEX
  8
0
 10
21.290756
 20
236.460521
 42
-0.056905
  0
VERTEX
  8
0
 10
25.714207
 20
236.103559
 42
-0.064424
  0
SEQEND
  0
POLYLINE
  8
0
 66
1
 70
1
  0
VERTEX
  8
0
 10
247.814675
 20
235.276199
 42
-0.146675
  0
VERTEX
  8
0
 10
247.392276
 20
234.467861
 42
-0.079194
  0
VERTEX
  8
0
 10
246.483455
 20
233.791290
 42
-0.054651
  0
VERTEX
  8
0
 10
245.065617
 20
233.236974
 42
-0.023608
  0
VERTEX
  8
0
 10
243.082430
 20
232.801215
 42
0.131487
  0
VERTEX
  8
0
 10
236.627003
 20
229.836261
 42
0.213086
  0
VERTEX
  8
0
 10
233.996689
 20
224.512218
 42
0.225578
  0
VERTEX
  8
0
 10
236.255539
 20
219.239476
 42
0.141290
  0
VERTEX
  8
0
 10
242.439516
 20
216.316102
 42
0.000000
  0
VERTEX
  8
0
 10
246.165823
 20
215.711406
 42
0.000000
  0
VERTEX
  8
0
 10
245.469368
 20
220.355703
 42
-0.009343
  0
VERTEX
  8
0
 10
245.102533
 20
223.158009
 42
-0.102262
  0
VERTEX
  8
0
 10
245.206710
 20
224.283031
 42
-0.245961
  0
VERTEX
  8
0
 10
245.736691
 20
224.820375
 42
-0.077643
  0
VERTEX
  8
0
 10
246.886456
 20
225.000000
 42
-0.111184
  0
VERTEX
  8
0
 10
248.029156
 20
224.742720
 42
-0.199899
  0
VERTEX
  8
0
 10
248.661936
 20
224.040291
 42
-0.076683
  0
VERTEX
  8
0
 10
248.942254
 20
222.547493
 42
-0.008138
  0
VERTEX
  8
0
 10
249.000000
 20
219.000000
 42
0.000000
  0
VERTEX
  8
0
 10
249.000000
 20
213.000000
 42
0.000000
  0
VERTEX
  8
0
 10
244.401129
 20
213.000000
 42
-0.092861
  0
VERTEX
  8
0
 10
237.403083
 20
214.310994
 42
-0.131279
  0
VERTEX
  8
0
 10
232.310378
 20
218.035446
 42
-0.148172
  0
VERTEX
  8
0
 10
230.129992
 20
223.430375
 42
-0.130078
  0
VERTEX
  8
0
 10
231.154126
 20
229.438924
 42
-0.078156
  0
VERTEX
  8
0
 10
232.640183
 20
231.689797
 42
-0.065338
  0
VERTEX
  8
0
 10
234.831003
 20
233.538057
 42
-0.056614
  0
VERTEX
  8
0
 10
237.726941
 20
234.962730
 42
-0.037261
  0
VERTEX
  8
0
 10
241.310045
 20
235.952831
 42
-0.005435
  0
VERTEX
  8
0
 10
245.484170
 20
236.730699
 42
-0.069367
  0
VERTEX
  8
0
 10
247.072341
 20
236.786086
 42
-0.277002
  0
VERTEX
  8
0
 10
247.713579
 20
236.304553
 42
-0.145129
  0
SEQEND
  0
POLYLINE
  8
0
 66
1
 70
1
  0
VERTEX
  8
0
 10
212.000000
 20
234.500000
 42
-0.211442
  0
VERTEX
  8
0
 10
211.683247
 20
233.784456
 42
-0.118311
  0
VERTEX
  8
0
 10
210.833333
 20
233.318182
 42
-0.054498
  0
VERTEX
  8
0
 10
209.247932
 20
233.066617
 42
-0.012120
  0
VERTEX
  8
0
 10
206.500000
 20
233.000000
 42
0.000000
  0
VERTEX
  8
0
 10
201.000000
 20
233.000000
 42
0.000000
  0
VERTEX
  8
0
 10
201.000000
 20
229.500000
 42
0.000000
  0
VERTEX
  8
0
 10
201.000000
 20
226.000000
 42
0.000000
  0
VERTEX
  8
0
 10
206.500000
 20
226.000000
 42
-0.012120
  0
VERTEX
  8
0
 10
209.247932
 20
225.933383
 42
-0.054498
  0
VERTEX
  8
0
 10
210.833333
 20
225.681818
 42
-0.118311
  0
VERTEX
  8
0
 10
211.683247
 20
225.215544
 42
-0.211442
  0
VERTEX
  8
0
 10
212.000000
 20
224.500000
 42
-0.211442
  0
VERTEX
  8
0
 10
211.683247
 20
223.784456
 42
-0.118311
  0
VERTEX
  8
0
 10
210.833333
 20
223.318182
 42
-0.054498
  0
VERTEX
  8
0
 10
209.247932
 20
223.066617
 42
-0.012120
  0
VERTEX
  8
0
 10
206.500000
 20
223.000000
 42
0.000000
  0
VERTEX
  8
0
 10
201.000000
 20
223.000000
 42
0.000000
  0
VERTEX
  8
0
 10
201.000000
 20
218.000000
 42
-0.014554
  0
VERTEX
  8
0
 10
200.930052
 20
215.597411
 42
-0.055406
  0
VERTEX
  8
0
 10
200.678217
 20
214.120679
 42
-0.110850
  0
VERTEX
  8
0
 10
200.230060
 20
213.301129
 42
-0.215650
  0
VERTEX
  8
0
 10
199.564338
 20
213.000000
 42
-0.305739
  0
VERTEX
  8
0
 10
198.824531
 20
213.499023
 42
-0.055568
  0
VERTEX
  8
0
 10
198.354665
 20
215.177699
 42
-0.027797
  0
VERTEX
  8
0
 10
198.032100
 20
218.200224
 42
-0.005243
  0
VERTEX
  8
0
 10
197.808584
 20
223.750000
 42
-0.002922
  0
VERTEX
  8
0
 10
197.708713
 20
227.923964
 42
-0.004404
  0
VERTEX
  8
0
 10
197.674982
 20
231.562500
 42
-0.001827
  0
VERTEX
  8
0
 10
197.684906
 20
234.672380
 42
-0.097943
  0
VERTEX
  8
0
 10
197.803262
 20
235.250000
 42
-0.263517
  0
VERTEX
  8
0
 10
198.188735
 20
235.548000
 42
-0.009947
  0
VERTEX
  8
0
 10
200.064484
 20
235.779687
 42
-0.015643
  0
VERTEX
  8
0
 10
202.376051
 20
235.945751
 42
-0.010109
  0
VERTEX
  8
0
 10
205.059017
 20
236.000000
 42
-0.008559
  0
VERTEX
  8
0
 10
208.638084
 20
235.938730
 42
-0.044680
  0
VERTEX
  8
0
 10
210.593169
 20
235.695973
 42
-0.103972
  0
VERTEX
  8
0
 10
211.624899
 20
235.235190
 42
-0.240366
  0
SEQEND
  0
POLYLINE
  8
0
 66
1
 70
1
  0
VERTEX
  8
0
 10
222.000000
 20
224.500000
 42
-0.004301
  0
VERTEX
  8
0
 10
221.946491
 20
218.280025
 42
-0.028132
  0
VERTEX
  8
0
 10
221.717391
 20
215.166667
 42
-0.065619
  0
VERTEX
  8
0
 10
221.278130
 20
213.520434
 42
-0.303591
  0
VERTEX
  8
0
 10
220.500000
 20
213.000000
 42
-0.285809
  0
VERTEX
  8
0
 10
219.734921
 20
213.476235
 42
-0.076939
  0
VERTEX
  8
0
 10
219.287809
 20
214.903035
 42
-0.032317
  0
VERTEX
  8
0
 10
219.055352
 20
217.615581
 42
-0.005219
  0
VERTEX
  8
0
 10
219.000000
 20
222.918213
 42
0.005656
  0
VERTEX
  8
0
 10
218.955718
 20
226.832367
 42
0.007527
  0
VERTEX
  8
0
 10
218.821697
 20
230.387600
 42
0.005529
  0
VERTEX
  8
0
 10
218.632420
 20
233.350751
 42
0.073019
  0
VERTEX
  8
0
 10
218.393011
 20
234.418213
 42
-0.076984
  0
VERTEX
  8
0
 10
218.235583
 20
235.147008
 42
-0.207384
  0
VERTEX
  8
0
 10
218.413414
 20
235.634337
 42
-0.160830
  0
VERTEX
  8
0
 10
218.939105
 20
235.916765
 42
-0.043546
  0
VERTEX
  8
0
 10
219.893011
 20
236.000000
 42
-0.187779
  0
VERTEX
  8
0
 10
221.064038
 20
235.544136
 42
-0.163206
  0
VERTEX
  8
0
 10
221.704196
 20
234.385493
 42
-0.042321
  0
VERTEX
  8
0
 10
221.956198
 20
231.785316
 42
-0.003006
  0
SEQEND
  0
POLYLINE
  8
0
 66
1
 70
1
  0
VERTEX
  8
0
 10
260.000000
 20
230.883369
 42
0.007929
  0
VERTEX
  8
0
 10
260.050201
 20
227.717996
 42
0.108098
  0
VERTEX
  8
0
 10
260.330474
 20
226.606818
 42
0.281318
  0
VERTEX
  8
0
 10
260.966468
 20
226.208172
 42
0.068425
  0
VERTEX
  8
0
 10
262.250000
 20
226.369714
 42
-0.031053
  0
VERTEX
  8
0
 10
263.402303
 20
226.603000
 42
-0.010771
  0
VERTEX
  8
0
 10
265.087500
 20
226.799577
 42
-0.010653
  0
VERTEX
  8
0
 10
266.957851
 20
226.936881
 42
-0.012191
  0
VERTEX
  8
0
 10
268.750000
 20
226.986345
 42
0.000000
  0
VERTEX
  8
0
 10
273.000000
 20
227.000000
 42
0.000000
  0
VERTEX
  8
0
 10
273.000000
 20
231.573324
 42
-0.012901
  0
VERTEX
  8
0
 10
273.062556
 20
233.997381
 42
-0.081333
  0
VERTEX
  8
0
 10
273.324102
 20
235.201372
 42
-0.201457
  0
VERTEX
  8
0
 10
273.846434
 20
235.735955
 42
-0.148489
  0
VERTEX
  8
0
 10
274.678887
 20
235.823324
 42
-0.043218
  0
VERTEX
  8
0
 10
275.308557
 20
235.644551
 42
-0.064607
  0
VERTEX
  8
0
 10
275.812053
 20
235.374664
 42
-0.086525
  0
VERTEX
  8
0
 10
276.120654
 20
235.060893
 42
-0.212780
  0
VERTEX
  8
0
 10
276.178887
 20
234.750000
 42
0.053652
  0
VERTEX
  8
0
 10
276.106902
 20
234.185970
 42
0.000960
  0
VERTEX
  8
0
 10
276.052548
 20
231.135938
 42
0.002386
  0
VERTEX
  8
0
 10
276.012958
 20
227.578113
 42
0.001589
  0
VERTEX
  8
0
 10
276.000000
 20
223.500000
 42
-0.004841
  0
VERTEX
  8
0
 10
275.945394
 20
217.860051
 42
-0.030643
  0
VERTEX
  8
0
 10
275.714286
 20
215.000000
 42
-0.072528
  0
VERTEX
  8
0
 10
275.270046
 20
213.493192
 42
-0.292784
  0
VERTEX
  8
0
 10
274.500000
 20
213.000000
 42
-0.211442
  0
VERTEX
  8
0
 10
273.784456
 20
213.316753
 42
-0.118311
  0
VERTEX
  8
0
 10
273.318182
 20
214.166667
 42
-0.054498
  0
VERTEX
  8
0
 10
273.066617
 20
215.752068
 42
-0.012120
  0
VERTEX
  8
0
 10
273.000000
 20
218.500000
 42
0.000000
  0
VERTEX
  8
0
 10
273.000000
 20
224.000000
 42
0.000000
  0
VERTEX
  8
0
 10
266.500000
 20
224.000000
 42
0.000000
  0
VERTEX
  8
0
 10
260.000000
 20
224.000000
 42
0.000000
  0
VERTEX
  8
0
 10
260.000000
 20
218.426676
 42
-0.010190
  0
VERTEX
  8
0
 10
259.940677
 20
215.516091
 42
-0.060999
  0
VERTEX
  8
0
 10
259.695648
 20
214.022503
 42
-0.165938
  0
VERTEX
  8
0
 10
259.212733
 20
213.336437
 42
-0.212145
  0
VERTEX
  8
0
 10
258.464992
 20
213.176676
 42
-0.251001
  0
VERTEX
  8
0
 10
257.664482
 20
213.850171
 42
-0.057426
  0
VERTEX
  8
0
 10
257.185617
 20
215.616181
 42
-0.027894
  0
VERTEX
  8
0
 10
256.887354
 20
218.770044
 42
-0.004853
  0
VERTEX
  8
0
 10
256.714992
 20
224.750703
 42
-0.003591
  0
VERTEX
  8
0
 10
256.635923
 20
231.380915
 42
-0.035102
  0
VERTEX
  8
0
 10
256.818998
 20
234.174847
 42
-0.113533
  0
VERTEX
  8
0
 10
257.321938
 20
235.504140
 42
-0.250924
  0
VERTEX
  8
0
 10
258.250000
 20
236.000703
 42
-0.151116
  0
VERTEX
  8
0
 10
259.124048
 20
235.729980
 42
-0.161627
  0
VERTEX
  8
0
 10
259.664460
 20
235.019087
 42
-0.070383
  0
VERTEX
  8
0
 10
259.933946
 20
233.610059
 42
-0.012111
  0
SEQEND
  0
POLYLINE
  8
0
 66
1
 70
1
  0
VERTEX
  8
0
 10
302.000000
 20
234.500000
 42
-0.175694
  0
VERTEX
  8
0
 10
301.752049
 20
233.816147
 42
-0.129047
  0
VERTEX
  8
0
 10
301.089369
 20
233.344606
 42
-0.069973
  0
VERTEX
  8
0
 10
299.903752
 20
233.076924
 42
-0.020586
  0
VERTEX
  8
0
 10
298.036212
 20
233.000000
 42
0.000000
  0
VERTEX
  8
0
 10
294.072424
 20
233.000000
 42
0.000000
  0
VERTEX
  8
0
 10
293.786212
 20
223.261584
 42
-0.005312
  0
VERTEX
  8
0
 10
293.568851
 20
217.831210
 42
-0.037223
  0
VERTEX
  8
0
 10
293.238502
 20
215.203058
 42
-0.092867
  0
VERTEX
  8
0
 10
292.676818
 20
213.815570
 42
-0.205796
  0
VERTEX
  8
0
 10
291.750000
 20
213.188260
 42
-0.254478
  0
VERTEX
  8
0
 10
290.827237
 20
213.483122
 42
-0.147386
  0
VERTEX
  8
0
 10
290.285120
 20
214.549119
 42
-0.040492
  0
VERTEX
  8
0
 10
290.047213
 20
216.997525
 42
-0.003981
  0
VERTEX
  8
0
 10
290.000000
 20
222.926676
 42
0.000000
  0
VERTEX
  8
0
 10
290.000000
 20
233.000000
 42
0.000000
  0
VERTEX
  8
0
 10
286.000000
 20
233.000000
 42
-0.020272
  0
VERTEX
  8
0
 10
284.111825
 20
233.076585
 42
-0.069535
  0
VERTEX
  8
0
 10
282.916667
 20
233.343750
 42
-0.128937
  0
VERTEX
  8
0
 10
282.249641
 20
233.815157
 42
-0.176579
  0
VERTEX
  8
0
 10
282.000000
 20
234.500000
 42
-0.286822
  0
VERTEX
  8
0
 10
282.478670
 20
235.265790
 42
-0.076301
  0
VERTEX
  8
0
 10
283.916667
 20
235.712500
 42
-0.032071
  0
VERTEX
  8
0
 10
286.649956
 20
235.944758
 42
-0.005163
  0
VERTEX
  8
0
 10
292.000000
 20
236.000000
 42
-0.005163
  0
VERTEX
  8
0
 10
297.350044
 20
235.944758
 42
-0.032071
  0
VERTEX
  8
0
 10
300.083333
 20
235.712500
 42
-0.076301
  0
VERTEX
  8
0
 10
301.521330
 20
235.265790
 42
-0.286822
  0
SEQEND
  0
POLYLINE
  8
0
 66
1
 70
1
  0
VERTEX
  8
0
 10
64.000000
 20
233.109406
 42
0.109919
  0
VERTEX
  8
0
 10
64.203599
 20
232.194460
 42
0.139162
  0
VERTEX
  8
0
 10
64.768822
 20
231.542771
 42
0.089331
  0
VERTEX
  8
0
 10
65.809606
 20
231.100777
 42
0.026803
  0
VERTEX
  8
0
 10
67.513361
 20
230.808647
 42
0.023592
  0
VERTEX
  8
0
 10
70.068298
 20
230.631965
 42
0.105799
  0
VERTEX
  8
0
 10
71.532665
 20
230.911992
 42
0.145675
  0
VERTEX
  8
0
 10
72.505216
 20
231.713164
 42
0.059807
  0
VERTEX
  8
0
 10
73.291557
 20
233.250000
 42
-0.129853
  0
VERTEX
  8
0
 10
74.192969
 20
234.535005
 42
-0.194427
  0
VERTEX
  8
0
 10
75.479541
 20
234.956727
 42
-0.223876
  0
VERTEX
  8
0
 10
76.564786
 20
234.352815
 42
-0.156895
  0
VERTEX
  8
0
 10
77.000000
 20
233.000000
 42
0.081208
  0
VERTEX
  8
0
 10
77.159458
 20
232.024683
 42
0.166173
  0
VERTEX
  8
0
 10
77.625000
 20
231.416667
 42
0.116834
  0
VERTEX
  8
0
 10
78.499083
 20
231.092253
 42
0.030703
  0
VERTEX
  8
0
 10
80.000000
 20
231.000000
 42
-0.033607
  0
VERTEX
  8
0
 10
81.322075
 20
230.911037
 42
-0.082504
  0
VERTEX
  8
0
 10
82.250000
 20
230.625000
 42
-0.126510
  0
VERTEX
  8
0
 10
82.797909
 20
230.148955
 42
-0.152103
  0
VERTEX
  8
0
 10
83.000000
 20
229.500000
 42
-0.153302
  0
VERTEX
  8
0
 10
82.795501
 20
228.848692
 42
-0.126987
  0
VERTEX
  8
0
 10
82.241683
 20
228.372955
 42
-0.081850
  0
VERTEX
  8
0
 10
81.300187
 20
228.088157
 42
-0.032614
  0
VERTEX
  8
0
 10
79.950096
 20
228.000000
 42
0.000000
  0
VERTEX
  8
0
 10
76.900192
 20
228.000000
 42
0.000000
  0
VERTEX
  8
0
 10
77.200096
 20
222.291007
 42
0.011075
  0
VERTEX
  8
0
 10
77.447454
 20
218.982836
 42
0.078375
  0
VERTEX
  8
0
 10
77.849827
 20
217.427871
 42
0.153084
  0
VERTEX
  8
0
 10
78.599757
 20
216.561448
 42
0.081003
  0
VERTEX
  8
0
 10
79.925861
 20
216.013424
 42
-0.058307
  0
VERTEX
  8
0
 10
82.067325
 20
215.239696
 42
-0.270146
  0
VERTEX
  8
0
 10
82.760301
 20
214.181771
 42
-0.347844
  0
VERTEX
  8
0
 10
82.129029
 20
213.292450
 42
-0.071118
  0
VERTEX
  8
0
 10
80.083333
 20
213.000000
 42
-0.095182
  0
VERTEX
  8
0
 10
76.955769
 20
213.600821
 42
-0.137429
  0
VERTEX
  8
0
 10
74.731241
 20
215.301532
 42
-0.111687
  0
VERTEX
  8
0
 10
73.421617
 20
218.214839
 42
-0.050045
  0
VERTEX
  8
0
 10
73.000000
 20
222.416667
 42
0.021664
  0
VERTEX
  8
0
 10
72.836688
 20
226.184029
 42
0.174248
  0
VERTEX
  8
0
 10
72.122587
 20
227.734226
 42
0.200314
  0
VERTEX
  8
0
 10
70.641839
 20
228.357993
 42
0.029887
  0
VERTEX
  8
0
 10
67.344210
 20
228.171606
 42
0.000000
  0
VERTEX
  8
0
 10
63.907045
 20
227.770336
 42
0.000000
  0
VERTEX
  8
0
 10
64.203522
 20
222.176175
 42
0.011518
  0
VERTEX
  8
0
 10
64.449309
 20
218.947659
 42
0.079403
  0
VERTEX
  8
0
 10
64.852926
 20
217.414957
 42
0.152427
  0
VERTEX
  8
0
 10
65.602916
 20
216.557236
 42
0.080058
  0
VERTEX
  8
0
 10
66.925861
 20
216.013424
 42
-0.058307
  0
VERTEX
  8
0
 10
69.067325
 20
215.239696
 42
-0.270146
  0
VERTEX
  8
0
 10
69.760301
 20
214.181771
 42
-0.347844
  0
VERTEX
  8
0
 10
69.129029
 20
213.292450
 42
-0.071118
  0
VERTEX
  8
0
 10
67.083333
 20
213.000000
 42
-0.095173
  0
VERTEX
  8
0
 10
63.958828
 20
213.600172
 42
-0.137131
  0
VERTEX
  8
0
 10
61.733763
 20
215.299095
 42
-0.111691
  0
VERTEX
  8
0
 10
60.422595
 20
218.206509
 42
-0.050343
  0
VERTEX
  8
0
 10
60.000000
 20
222.393011
 42
0.014241
  0
VERTEX
  8
0
 10
59.921718
 20
225.141015
 42
0.055976
  0
VERTEX
  8
0
 10
59.637428
 20
226.809232
 42
0.099505
  0
VERTEX
  8
0
 10
59.101295
 20
227.841600
 42
0.131660
  0
VERTEX
  8
0
 10
58.250000
 20
228.464431
 42
-0.022094
  0
VERTEX
  8
0
 10
57.271697
 20
228.894300
 42
-0.258460
  0
VERTEX
  8
0
 10
57.042334
 20
229.224743
 42
-0.241279
  0
VERTEX
  8
0
 10
57.193279
 20
229.610936
 42
-0.019574
  0
VERTEX
  8
0
 10
58.061971
 20
230.321420
 42
0.041994
  0
VERTEX
  8
0
 10
58.708115
 20
230.900064
 42
0.027053
  0
VERTEX
  8
0
 10
59.358003
 20
231.667855
 42
0.027157
  0
VERTEX
  8
0
 10
59.916045
 20
232.494085
 42
0.045221
  0
VERTEX
  8
0
 10
60.280586
 20
233.250000
 42
-0.130392
  0
VERTEX
  8
0
 10
61.178537
 20
234.512355
 42
-0.184804
  0
VERTEX
  8
0
 10
62.470368
 20
234.951524
 42
-0.221157
  0
VERTEX
  8
0
 10
63.557992
 20
234.394815
 42
-0.167130
  0
SEQEND
  0
POLYLINE
  8
0
 66
1
 70
1
  0
VERTEX
  8
0
 10
145.000000
 20
233.000000
 42
0.081208
  0
VERTEX
  8
0
 10
145.159458
 20
232.024683
 42
0.166173
  0
VERTEX
  8
0
 10
145.625000
 20
231.416667
 42
0.116834
  0
VERTEX
  8
0
 10
146.499083
 20
231.092253
 42
0.030703
  0
VERTEX
  8
0
 10
148.000000
 20
231.000000
 42
-0.033607
  0
VERTEX
  8
0
 10
149.322075
 20
230.911037
 42
-0.082504
  0
VERTEX
  8
0
 10
150.250000
 20
230.625000
 42
-0.126510
  0
VERTEX
  8
0
 10
150.797909
 20
230.148955
 42
-0.152103
  0
VERTEX
  8
0
 10
151.000000
 20
229.500000
 42
-0.153302
  0
VERTEX
  8
0
 10
150.795501
 20
228.848692
 42
-0.126987
  0
VERTEX
  8
0
 10
150.241683
 20
228.372955
 42
-0.081850
  0
VERTEX
  8
0
 10
149.300187
 20
228.088157
 42
-0.032614
  0
VERTEX
  8
0
 10
147.950096
 20
228.000000
 42
0.000000
  0
VERTEX
  8
0
 10
144.900192
 20
228.000000
 42
0.000000
  0
VERTEX
  8
0
 10
145.200096
 20
222.291007
 42
0.011298
  0
VERTEX
  8
0
 10
145.444749
 20
219.038548
 42
0.074579
  0
VERTEX
  8
0
 10
145.841757
 20
217.461106
 42
0.147526
  0
VERTEX
  8
0
 10
146.565621
 20
216.581151
 42
0.090074
  0
VERTEX
  8
0
 10
147.809017
 20
216.041007
 42
-0.066099
  0
VERTEX
  8
0
 10
149.522215
 20
215.391933
 42
-0.296428
  0
VERTEX
  8
0
 10
150.012333
 20
214.495374
 42
-0.286107
  0
VERTEX
  8
0
 10
149.395106
 20
213.654847
 42
-0.063840
  0
VERTEX
  8
0
 10
147.591666
 20
213.189423
 42
-0.130802
  0
VERTEX
  8
0
 10
144.858030
 20
213.560918
 42
-0.139412
  0
VERTEX
  8
0
 10
142.747754
 20
215.240489
 42
-0.104163
  0
VERTEX
  8
0
 10
141.430064
 20
218.239831
 42
-0.051637
  0
VERTEX
  8
0
 10
141.000000
 20
222.393011
 42
0.014241
  0
VERTEX
  8
0
 10
140.921718
 20
225.141015
 42
0.055976
  0
VERTEX
  8
0
 10
140.637428
 20
226.809232
 42
0.099505
  0
VERTEX
  8
0
 10
140.101295
 20
227.841600
 42
0.131660
  0
VERTEX
  8
0
 10
139.250000
 20
228.464431
 42
-0.022094
  0
VERTEX
  8
0
 10
138.271697
 20
228.894300
 42
-0.258460
  0
VERTEX
  8
0
 10
138.042334
 20
229.224743
 42
-0.241279
  0
VERTEX
  8
0
 10
138.193279
 20
229.610936
 42
-0.019574
  0
VERTEX
  8
0
 10
139.061971
 20
230.321420
 42
0.041994
  0
VERTEX
  8
0
 10
139.708115
 20
230.900064
 42
0.027053
  0
VERTEX
  8
0
 10
140.358003
 20
231.667855
 42
0.027157
  0
VERTEX
  8
0
 10
140.916045
 20
232.494085
 42
0.045221
  0
VERTEX
  8
0
 10
141.280586
 20
233.250000
 42
-0.129065
  0
VERTEX
  8
0
 10
142.189801
 20
234.535281
 42
-0.193752
  0
VERTEX
  8
0
 10
143.479625
 20
234.956492
 42
-0.223927
  0
VERTEX
  8
0
 10
144.564798
 20
234.352765
 42
-0.156897
  0
SEQEND
  0
POLYLINE
  8
0
 66
1
 70
1
  0
VERTEX
  8
0
 10
51.171259
 20
229.345012
 42
-0.070451
  0
VERTEX
  8
0
 10
51.871832
 20
228.504026
 42
-0.041998
  0
VERTEX
  8
0
 10
52.462807
 20
227.340455
 42
-0.041175
  0
VERTEX
  8
0
 10
52.865428
 20
226.055733
 42
-0.055405
  0
VERTEX
  8
0
 10
53.000000
 20
224.845012
 42
-0.047947
  0
VERTEX
  8
0
 10
52.836134
 20
223.140102
 42
-0.229345
  0
VERTEX
  8
0
 10
52.266698
 20
222.379319
 42
-0.111653
  0
VERTEX
  8
0
 10
51.032398
 20
222.057586
 42
-0.008151
  0
VERTEX
  8
0
 10
47.500000
 20
222.000000
 42
0.012511
  0
VERTEX
  8
0
 10
44.809054
 20
221.932659
 42
0.051694
  0
VERTEX
  8
0
 10
43.202681
 20
221.684396
 42
0.107614
  0
VERTEX
  8
0
 10
42.321969
 20
221.235878
 42
0.225027
  0
VERTEX
  8
0
 10
42.000000
 20
220.556704
 42
0.185349
  0
VERTEX
  8
0
 10
42.589163
 20
219.021974
 42
0.068830
  0
VERTEX
  8
0
 10
44.387586
 20
217.506336
 42
0.062771
  0
VERTEX
  8
0
 10
46.790349
 20
216.382622
 42
0.078178
  0
VERTEX
  8
0
 10
49.222506
 20
216.000000
 42
-0.038722
  0
VERTEX
  8
0
 10
50.420073
 20
215.907117
 42
-0.085297
  0
VERTEX
  8
0
 10
51.287084
 20
215.614986
 42
-0.123730
  0
VERTEX
  8
0
 10
51.808679
 20
215.137398
 42
-0.146843
  0
VERTEX
  8
0
 10
52.000000
 20
214.500000
 42
-0.331769
  0
VERTEX
  8
0
 10
51.123525
 20
213.324481
 42
-0.084306
  0
VERTEX
  8
0
 10
48.610347
 20
213.018347
 42
-0.062966
  0
VERTEX
  8
0
 10
45.340870
 20
213.588888
 42
-0.062335
  0
VERTEX
  8
0
 10
42.304261
 20
214.956042
 42
-0.095872
  0
VERTEX
  8
0
 10
39.865402
 20
217.177169
 42
-0.100201
  0
VERTEX
  8
0
 10
38.478055
 20
220.114977
 42
-0.096806
  0
VERTEX
  8
0
 10
38.316550
 20
223.446079
 42
-0.083363
  0
VERTEX
  8
0
 10
39.390459
 20
226.788172
 42
-0.023779
  0
VERTEX
  8
0
 10
40.083934
 20
227.985984
 42
-0.025796
  0
VERTEX
  8
0
 10
40.870847
 20
229.079134
 42
-0.026473
  0
VERTEX
  8
0
 10
41.636706
 20
229.937604
 42
-0.102074
  0
VERTEX
  8
0
 10
42.228960
 20
230.330706
 42
-0.073391
  0
VERTEX
  8
0
 10
44.452849
 20
230.865532
 42
-0.049860
  0
VERTEX
  8
0
 10
47.060638
 20
230.839070
 42
-0.051112
  0
VERTEX
  8
0
 10
49.495539
 20
230.315198
 42
-0.105769
  0
SEQEND
  0
POLYLINE
  8
0
 66
1
 70
1
  0
VERTEX
  8
0
 10
99.171259
 20
229.345012
 42
-0.070451
  0
VERTEX
  8
0
 10
99.871832
 20
228.504026
 42
-0.041998
  0
VERTEX
  8
0
 10
100.462807
 20
227.340455
 42
-0.041175
  0
VERTEX
  8
0
 10
100.865428
 20
226.055733
 42
-0.055405
  0
VERTEX
  8
0
 10
101.000000
 20
224.845012
 42
-0.047947
  0
VERTEX
  8
0
 10
100.836134
 20
223.140102
 42
-0.229345
  0
VERTEX
  8
0
 10
100.266698
 20
222.379319
 42
-0.111653
  0
VERTEX
  8
0
 10
99.032398
 20
222.057586
 42
-0.008151
  0
VERTEX
  8
0
 10
95.500000
 20
222.000000
 42
0.012511
  0
VERTEX
  8
0
 10
92.809054
 20
221.932659
 42
0.051694
  0
VERTEX
  8
0
 10
91.202681
 20
221.684396
 42
0.107614
  0
VERTEX
  8
0
 10
90.321969
 20
221.235878
 42
0.225027
  0
VERTEX
  8
0
 10
90.000000
 20
220.556704
 42
0.185349
  0
VERTEX
  8
0
 10
90.589163
 20
219.021974
 42
0.068830
  0
VERTEX
  8
0
 10
92.387586
 20
217.506336
 42
0.062771
  0
VERTEX
  8
0
 10
94.790349
 20
216.382622
 42
0.078178
  0
VERTEX
  8
0
 10
97.222506
 20
216.000000
 42
-0.038722
  0
VERTEX
  8
0
 10
98.420073
 20
215.907117
 42
-0.085297
  0
VERTEX
  8
0
 10
99.287084
 20
215.614986
 42
-0.123730
  0
VERTEX
  8
0
 10
99.808679
 20
215.137398
 42
-0.146843
  0
VERTEX
  8
0
 10
100.000000
 20
214.500000
 42
-0.331769
  0
VERTEX
  8
0
 10
99.123525
 20
213.324481
 42
-0.084306
  0
VERTEX
  8
0
 10
96.610347
 20
213.018347
 42
-0.062966
  0
VERTEX
  8
0
 10
93.340870
 20
213.588888
 42
-0.062335
  0
VERTEX
  8
0
 10
90.304261
 20
214.956042
 42
-0.095872
  0
VERTEX
  8
0
 10
87.865402
 20
217.177169
 42
-0.100201
  0
VERTEX
  8
0
 10
86.478055
 20
220.114977
 42
-0.096806
  0
VERTEX
  8
0
 10
86.316550
 20
223.446079
 42
-0.083363
  0
VERTEX
  8
0
 10
87.390459
 20
226.788172
 42
-0.023779
  0
VERTEX
  8
0
 10
88.083934
 20
227.985984
 42
-0.025796
  0
VERTEX
  8
0
 10
88.870847
 20
229.079134
 42
-0.026473
  0
VERTEX
  8
0
 10
89.636706
 20
229.937604
 42
-0.102074
  0
VERTEX
  8
0
 10
90.228960
 20
230.330706
 42
-0.073391
  0
VERTEX
  8
0
 10
92.452849
 20
230.865532
 42
-0.049860
  0
VERTEX
  8
0
 10
95.060638
 20
230.839070
 42
-0.051112
  0
VERTEX
  8
0
 10
97.495539
 20
230.315198
 42
-0.105769
  0
SEQEND
  0
POLYLINE
  8
0
 66
1
 70
1
  0
VERTEX
  8
0
 10
110.214466
 20
229.856602
 42
0.129867
  0
VERTEX
  8
0
 10
110.520787
 20
229.389096
 42
0.185192
  0
VERTEX
  8
0
 10
110.979395
 20
229.213204
 42
0.099357
  0
VERTEX
  8
0
 10
111.670319
 20
229.351868
 42
0.023822
  0
VERTEX
  8
0
 10
112.732058
 20
229.856602
 42
-0.029765
  0
VERTEX
  8
0
 10
114.609654
 20
230.721993
 42
-0.103494
  0
VERTEX
  8
0
 10
115.920341
 20
230.941746
 42
-0.214187
  0
VERTEX
  8
0
 10
116.687389
 20
230.559673
 42
-0.173373
  0
VERTEX
  8
0
 10
117.000000
 20
229.685212
 42
-0.177963
  0
VERTEX
  8
0
 10
116.773605
 20
229.069282
 42
-0.040113
  0
VERTEX
  8
0
 10
115.971875
 20
228.266365
 42
-0.036771
  0
VERTEX
  8
0
 10
114.839961
 20
227.436820
 42
-0.028500
  0
VERTEX
  8
0
 10
113.500000
 20
226.701391
 42
0.032168
  0
VERTEX
  8
0
 10
111.384324
 20
225.519955
 42
0.143433
  0
VERTEX
  8
0
 10
110.464797
 20
224.455060
 42
0.096649
  0
VERTEX
  8
0
 10
110.080370
 20
222.846960
 42
0.010489
  0
VERTEX
  8
0
 10
110.000000
 20
219.016179
 42
-0.010571
  0
VERTEX
  8
0
 10
109.935611
 20
215.970909
 42
-0.050559
  0
VERTEX
  8
0
 10
109.687668
 20
214.252696
 42
-0.113294
  0
VERTEX
  8
0
 10
109.223258
 20
213.338377
 42
-0.222360
  0
VERTEX
  8
0
 10
108.500000
 20
213.000000
 42
-0.273642
  0
VERTEX
  8
0
 10
107.743224
 20
213.447695
 42
-0.084509
  0
VERTEX
  8
0
 10
107.291667
 20
214.750000
 42
-0.035355
  0
VERTEX
  8
0
 10
107.056738
 20
217.229484
 42
-0.005946
  0
VERTEX
  8
0
 10
107.000000
 20
222.000000
 42
-0.006310
  0
VERTEX
  8
0
 10
107.058320
 20
226.621059
 42
-0.032733
  0
VERTEX
  8
0
 10
107.289352
 20
229.161765
 42
-0.069937
  0
VERTEX
  8
0
 10
107.712686
 20
230.551063
 42
-0.291721
  0
VERTEX
  8
0
 10
108.416667
 20
231.000000
 42
-0.074662
  0
VERTEX
  8
0
 10
108.986701
 20
230.914403
 42
-0.067194
  0
VERTEX
  8
0
 10
109.529145
 20
230.664127
 42
-0.070386
  0
VERTEX
  8
0
 10
109.962768
 20
230.293665
 42
-0.100713
  0
SEQEND
  0
POLYLINE
  8
0
 66
1
 70
1
  0
VERTEX
  8
0
 10
168.927420
 20
228.365141
 42
-0.127786
  0
VERTEX
  8
0
 10
171.005805
 20
223.613398
 42
-0.126422
  0
VERTEX
  8
0
 10
170.520355
 20
218.430039
 42
-0.139990
  0
VERTEX
  8
0
 10
167.688787
 20
214.489354
 42
-0.168970
  0
VERTEX
  8
0
 10
163.407473
 20
213.000000
 42
-0.032428
  0
VERTEX
  8
0
 10
160.350018
 20
213.198501
 42
-0.089300
  0
VERTEX
  8
0
 10
158.299144
 20
213.850462
 42
-0.101842
  0
VERTEX
  8
0
 10
156.761615
 20
215.116605
 42
-0.050458
  0
VERTEX
  8
0
 10
155.374514
 20
217.242663
 42
-0.085371
  0
VERTEX
  8
0
 10
154.433189
 20
220.212750
 42
-0.073494
  0
VERTEX
  8
0
 10
154.466410
 20
223.491436
 42
-0.074432
  0
VERTEX
  8
0
 10
155.440739
 20
226.581480
 42
-0.091942
  0
VERTEX
  8
0
 10
157.234616
 20
229.003951
 42
-0.108743
  0
VERTEX
  8
0
 10
159.977994
 20
230.623861
 42
-0.093101
  0
VERTEX
  8
0
 10
163.310571
 20
231.063245
 42
-0.094838
  0
VERTEX
  8
0
 10
166.522645
 20
230.264626
 42
-0.118419
  0
SEQEND
  0
POLYLINE
  8
0
 66
1
 70
1
  0
VERTEX
  8
0
 10
73.400000
 20
196.236305
 42
0.014805
  0
VERTEX
  8
0
 10
73.355134
 20
195.359117
 42
0.000516
  0
VERTEX
  8
0
 10
73.285313
 20
191.947666
 42
0.000961
  0
VERTEX
  8
0
 10
73.214735
 20
187.917313
 42
0.000672
  0
VERTEX
  8
0
 10
73.150000
 20
183.372771
 42
0.000000
  0
VERTEX
  8
0
 10
73.000000
 20
171.745541
 42
0.000000
  0
VERTEX
  8
0
 10
67.808842
 20
172.244346
 42
-0.063708
  0
VERTEX
  8
0
 10
63.870376
 20
173.137629
 42
-0.087245
  0
VERTEX
  8
0
 10
60.729742
 20
174.953930
 42
-0.101035
  0
VERTEX
  8
0
 10
58.714576
 20
177.492128
 42
-0.117954
  0
VERTEX
  8
0
 10
58.000000
 20
180.479038
 42
-0.124305
  0
VERTEX
  8
0
 10
58.682549
 20
183.182066
 42
-0.066192
  0
VERTEX
  8
0
 10
60.718979
 20
185.993497
 42
-0.064092
  0
VERTEX
  8
0
 10
63.523450
 20
188.278679
 42
-0.092832
  0
VERTEX
  8
0
 10
66.494358
 20
189.432964
 42
0.027020
  0
VERTEX
  8
0
 10
68.582767
 20
189.942865
 42
0.160090
  0
VERTEX
  8
0
 10
69.491603
 20
190.579403
 42
0.141833
  0
VERTEX
  8
0
 10
69.903621
 20
191.672238
 42
0.019691
  0
VERTEX
  8
0
 10
70.000000
 20
194.118637
 42
-0.015429
  0
VERTEX
  8
0
 10
70.065759
 20
196.249127
 42
-0.095545
  0
VERTEX
  8
0
 10
70.337697
 20
197.304329
 42
-0.212707
  0
VERTEX
  8
0
 10
70.876174
 20
197.766131
 42
-0.120575
  0
VERTEX
  8
0
 10
71.750000
 20
197.809629
 42
-0.066427
  0
VERTEX
  8
0
 10
72.411454
 20
197.588291
 42
-0.076661
  0
VERTEX
  8
0
 10
72.956563
 20
197.208445
 42
-0.088092
  0
VERTEX
  8
0
 10
73.305074
 20
196.733901
 42
-0.135427
  0
SEQEND
  0
POLYLINE
  8
0
 66
1
 70
1
  0
VERTEX
  8
0
 10
244.000000
 20
192.700224
 42
0.011051
  0
VERTEX
  8
0
 10
244.322251
 20
190.222597
 42
0.086590
  0
VERTEX
  8
0
 10
244.690980
 20
189.125336
 42
0.269648
  0
VERTEX
  8
0
 10
245.230884
 20
188.796476
 42
0.148113
  0
VERTEX
  8
0
 10
246.000000
 20
189.012457
 42
-0.092840
  0
VERTEX
  8
0
 10
247.823423
 20
189.746479
 42
-0.056256
  0
VERTEX
  8
0
 10
250.148488
 20
189.944965
 42
-0.057573
  0
VERTEX
  8
0
 10
252.357217
 20
189.628638
 42
-0.132805
  0
VERTEX
  8
0
 10
253.800000
 20
188.800000
 42
-0.142567
  0
VERTEX
  8
0
 10
254.303503
 20
187.883083
 42
-0.021602
  0
VERTEX
  8
0
 10
254.673077
 20
185.801923
 42
-0.020982
  0
VERTEX
  8
0
 10
254.920174
 20
183.081878
 42
-0.012160
  0
VERTEX
  8
0
 10
255.000000
 20
179.800000
 42
-0.007246
  0
VERTEX
  8
0
 10
254.940929
 20
175.724246
 42
-0.040273
  0
VERTEX
  8
0
 10
254.701923
 20
173.550000
 42
-0.095494
  0
VERTEX
  8
0
 10
254.244824
 20
172.406894
 42
-0.255339
  0
VERTEX
  8
0
 10
253.500000
 20
172.000000
 42
-0.242020
  0
VERTEX
  8
0
 10
252.763741
 20
172.378552
 42
-0.103063
  0
VERTEX
  8
0
 10
252.303332
 20
173.421897
 42
-0.044173
  0
VERTEX
  8
0
 10
252.061012
 20
175.400081
 42
-0.008400
  0
VERTEX
  8
0
 10
252.000000
 20
179.031385
 42
0.021531
  0
VERTEX
  8
0
 10
251.786029
 20
183.997904
 42
0.145284
  0
VERTEX
  8
0
 10
250.894407
 20
186.265302
 42
0.264761
  0
VERTEX
  8
0
 10
249.230429
 20
186.949173
 42
0.075096
  0
VERTEX
  8
0
 10
246.436230
 20
186.152898
 42
0.075167
  0
VERTEX
  8
0
 10
245.096867
 20
185.280018
 42
0.134339
  0
VERTEX
  8
0
 10
244.385946
 20
184.185605
 42
0.068182
  0
VERTEX
  8
0
 10
244.070835
 20
182.380834
 42
0.009176
  0
VERTEX
  8
0
 10
244.000000
 20
178.521439
 42
-0.009375
  0
VERTEX
  8
0
 10
243.937431
 20
175.184677
 42
-0.047180
  0
VERTEX
  8
0
 10
243.692497
 20
173.336906
 42
-0.108210
  0
VERTEX
  8
0
 10
243.230023
 20
172.358764
 42
-0.232445
  0
VERTEX
  8
0
 10
242.500000
 20
172.000000
 42
-0.318078
  0
VERTEX
  8
0
 10
241.710064
 20
172.559087
 42
-0.056262
  0
VERTEX
  8
0
 10
241.278662
 20
174.430556
 42
-0.024892
  0
VERTEX
  8
0
 10
241.052128
 20
177.944532
 42
-0.003651
  0
VERTEX
  8
0
 10
241.000000
 20
185.083333
 42
-0.004156
  0
VERTEX
  8
0
 10
241.054292
 20
191.614578
 42
-0.020427
  0
VERTEX
  8
0
 10
241.266034
 20
195.294730
 42
-0.034452
  0
VERTEX
  8
0
 10
241.622339
 20
197.405876
 42
-0.438292
  0
VERTEX
  8
0
 10
242.250000
 20
197.755788
 42
-0.198494
  0
VERTEX
  8
0
 10
242.765301
 20
197.313345
 42
-0.034060
  0
VERTEX
  8
0
 10
243.279687
 20
196.101229
 42
-0.032570
  0
VERTEX
  8
0
 10
243.717155
 20
194.508943
 42
-0.023947
  0
SEQEND
  0
POLYLINE
  8
0
 66
1
 70
1
  0
VERTEX
  8
0
 10
144.999759
 20
184.615055
 42
-0.006604
  0
VERTEX
  8
0
 10
146.858878
 20
180.380598
 42
-0.010235
  0
VERTEX
  8
0
 10
148.339689
 20
176.673452
 42
-0.004884
  0
VERTEX
  8
0
 10
149.487536
 20
173.526880
 42
-0.227192
  0
VERTEX
  8
0
 10
149.416599
 20
172.865055
 42
-0.187623
  0
VERTEX
  8
0
 10
148.425103
 20
172.117105
 42
-0.222530
  0
VERTEX
  8
0
 10
147.277702
 20
172.305299
 42
-0.107739
  0
VERTEX
  8
0
 10
146.033243
 20
173.626086
 42
-0.035858
  0
VERTEX
  8
0
 10
144.824262
 20
176.010171
 42
0.022396
  0
VERTEX
  8
0
 10
143.671222
 20
178.444106
 42
0.134353
  0
VERTEX
  8
0
 10
142.720346
 20
179.456027
 42
0.121525
  0
VERTEX
  8
0
 10
141.341516
 20
179.893932
 42
0.016942
  0
VERTEX
  8
0
 10
138.324262
 20
179.989829
 42
0.017055
  0
VERTEX
  8
0
 10
135.311938
 20
179.880692
 42
0.120918
  0
VERTEX
  8
0
 10
133.929770
 20
179.436440
 42
0.133633
  0
VERTEX
  8
0
 10
132.976408
 20
178.420129
 42
0.022536
  0
VERTEX
  8
0
 10
131.824262
 20
175.989829
 42
-0.030071
  0
VERTEX
  8
0
 10
131.057847
 20
174.434143
 42
-0.041445
  0
VERTEX
  8
0
 10
130.177766
 20
173.149718
 42
-0.047886
  0
VERTEX
  8
0
 10
129.303220
 20
172.264372
 42
-0.175735
  0
VERTEX
  8
0
 10
128.574262
 20
172.000000
 42
-0.045612
  0
VERTEX
  8
0
 10
127.970453
 20
172.055196
 42
-0.064612
  0
VERTEX
  8
0
 10
127.457404
 20
172.220313
 42
-0.083499
  0
VERTEX
  8
0
 10
127.107444
 20
172.463358
 42
-0.196033
  0
VERTEX
  8
0
 10
126.982858
 20
172.750000
 42
-0.106236
  0
VERTEX
  8
0
 10
127.086866
 20
173.294258
 42
-0.001304
  0
VERTEX
  8
0
 10
128.495020
 20
176.596192
 42
-0.003802
  0
VERTEX
  8
0
 10
130.167187
 20
180.408829
 42
-0.002471
  0
VERTEX
  8
0
 10
132.154716
 20
184.790227
 42
-0.007800
  0
VERTEX
  8
0
 10
134.450526
 20
189.586813
 42
-0.018621
  0
VERTEX
  8
0
 10
136.340637
 20
193.052837
 42
-0.016607
  0
VERTEX
  8
0
 10
137.888518
 20
195.469358
 42
-0.303675
  0
VERTEX
  8
0
 10
138.696000
 20
195.790227
 42
-0.206424
  0
VERTEX
  8
0
 10
139.413839
 20
195.279333
 42
-0.007883
  0
VERTEX
  8
0
 10
141.105547
 20
192.387802
 42
-0.013000
  0
VERTEX
  8
0
 10
143.004340
 20
188.807210
 42
-0.008670
  0
SEQEND
  0
POLYLINE
  8
0
 66
1
 70
1
  0
VERTEX
  8
0
 10
124.000000
 20
193.500000
 42
-0.211442
  0
VERTEX
  8
0
 10
123.683247
 20
192.784456
 42
-0.118311
  0
VERTEX
  8
0
 10
122.833333
 20
192.318182
 42
-0.054498
  0
VERTEX
  8
0
 10
121.247932
 20
192.066617
 42
-0.012120
  0
VERTEX
  8
0
 10
118.500000
 20
192.000000
 42
0.000000
  0
VERTEX
  8
0
 10
113.000000
 20
192.000000
 42
0.000000
  0
VERTEX
  8
0
 10
113.000000
 20
188.500000
 42
0.000000
  0
VERTEX
  8
0
 10
113.000000
 20
185.000000
 42
0.000000
  0
VERTEX
  8
0
 10
118.500000
 20
185.000000
 42
-0.012120
  0
VERTEX
  8
0
 10
121.247932
 20
184.933383
 42
-0.054498
  0
VERTEX
  8
0
 10
122.833333
 20
184.681818
 42
-0.118311
  0
VERTEX
  8
0
 10
123.683247
 20
184.215544
 42
-0.211442
  0
VERTEX
  8
0
 10
124.000000
 20
183.500000
 42
-0.211442
  0
VERTEX
  8
0
 10
123.683247
 20
182.784456
 42
-0.118311
  0
VERTEX
  8
0
 10
122.833333
 20
182.318182
 42
-0.054498
  0
VERTEX
  8
0
 10
121.247932
 20
182.066617
 42
-0.012120
  0
VERTEX
  8
0
 10
118.500000
 20
182.000000
 42
0.000000
  0
VERTEX
  8
0
 10
113.000000
 20
182.000000
 42
0.000000
  0
VERTEX
  8
0
 10
113.000000
 20
177.000000
 42
-0.014554
  0
VERTEX
  8
0
 10
112.930052
 20
174.597411
 42
-0.055406
  0
VERTEX
  8
0
 10
112.678217
 20
173.120679
 42
-0.110850
  0
VERTEX
  8
0
 10
112.230060
 20
172.301129
 42
-0.215650
  0
VERTEX
  8
0
 10
111.564338
 20
172.000000
 42
-0.305739
  0
VERTEX
  8
0
 10
110.824531
 20
172.499023
 42
-0.055568
  0
VERTEX
  8
0
 10
110.354665
 20
174.177699
 42
-0.027797
  0
VERTEX
  8
0
 10
110.032100
 20
177.200224
 42
-0.005243
  0
VERTEX
  8
0
 10
109.808584
 20
182.750000
 42
-0.002922
  0
VERTEX
  8
0
 10
109.708713
 20
186.923964
 42
-0.004404
  0
VERTEX
  8
0
 10
109.674982
 20
190.562500
 42
-0.001827
  0
VERTEX
  8
0
 10
109.684906
 20
193.672380
 42
-0.097943
  0
VERTEX
  8
0
 10
109.803262
 20
194.250000
 42
-0.263517
  0
VERTEX
  8
0
 10
110.188735
 20
194.548000
 42
-0.009947
  0
VERTEX
  8
0
 10
112.064484
 20
194.779687
 42
-0.015643
  0
VERTEX
  8
0
 10
114.376051
 20
194.945751
 42
-0.010109
  0
VERTEX
  8
0
 10
117.059017
 20
195.000000
 42
-0.008559
  0
VERTEX
  8
0
 10
120.638084
 20
194.938730
 42
-0.044680
  0
VERTEX
  8
0
 10
122.593169
 20
194.695973
 42
-0.103972
  0
VERTEX
  8
0
 10
123.624899
 20
194.235190
 42
-0.240366
  0
SEQEND
  0
POLYLINE
  8
0
 66
1
 70
1
  0
VERTEX
  8
0
 10
160.000000
 20
185.000000
 42
0.000000
  0
VERTEX
  8
0
 10
160.000000
 20
175.000000
 42
0.000000
  0
VERTEX
  8
0
 10
165.500000
 20
175.000000
 42
-0.012120
  0
VERTEX
  8
0
 10
168.247932
 20
174.933383
 42
-0.054498
  0
VERTEX
  8
0
 10
169.833333
 20
174.681818
 42
-0.118311
  0
VERTEX
  8
0
 10
170.683247
 20
174.215544
 42
-0.211442
  0
VERTEX
  8
0
 10
171.000000
 20
173.500000
 42
-0.241448
  0
VERTEX
  8
0
 10
170.622643
 20
172.764111
 42
-0.103378
  0
VERTEX
  8
0
 10
169.583333
 20
172.303571
 42
-0.044348
  0
VERTEX
  8
0
 10
167.613168
 20
172.061101
 42
-0.008455
  0
VERTEX
  8
0
 10
164.000000
 20
172.000000
 42
0.000000
  0
VERTEX
  8
0
 10
157.000000
 20
172.000000
 42
0.000000
  0
VERTEX
  8
0
 10
156.986345
 20
181.250000
 42
0.005925
  0
VERTEX
  8
0
 10
156.936949
 20
184.956528
 42
0.007098
  0
VERTEX
  8
0
 10
156.799577
 20
188.443750
 42
0.006189
  0
VERTEX
  8
0
 10
156.606077
 20
191.373708
 42
0.045911
  0
VERTEX
  8
0
 10
156.369714
 20
192.750000
 42
-0.036755
  0
VERTEX
  8
0
 10
156.147901
 20
193.913641
 42
-0.178633
  0
VERTEX
  8
0
 10
156.304052
 20
194.555466
 42
-0.199953
  0
VERTEX
  8
0
 10
156.824805
 20
194.899560
 42
-0.047336
  0
VERTEX
  8
0
 10
157.883369
 20
195.000000
 42
-0.167109
  0
VERTEX
  8
0
 10
159.054361
 20
194.597390
 42
-0.176782
  0
VERTEX
  8
0
 10
159.697084
 20
193.568878
 42
-0.048533
  0
VERTEX
  8
0
 10
159.954182
 20
191.274589
 42
-0.003651
  0
SEQEND
  0
POLYLINE
  8
0
 66
1
 70
1
  0
VERTEX
  8
0
 10
181.000000
 20
185.000000
 42
0.000000
  0
VERTEX
  8
0
 10
181.000000
 20
175.000000
 42
0.000000
  0
VERTEX
  8
0
 10
186.500000
 20
175.000000
 42
-0.012120
  0
VERTEX
  8
0
 10
189.247932
 20
174.933383
 42
-0.054498
  0
VERTEX
  8
0
 10
190.833333
 20
174.681818
 42
-0.118311
  0
VERTEX
  8
0
 10
191.683247
 20
174.215544
 42
-0.211442
  0
VERTEX
  8
0
 10
192.000000
 20
173.500000
 42
-0.241448
  0
VERTEX
  8
0
 10
191.622643
 20
172.764111
 42
-0.103378
  0
VERTEX
  8
0
 10
190.583333
 20
172.303571
 42
-0.044348
  0
VERTEX
  8
0
 10
188.613168
 20
172.061101
 42
-0.008455
  0
VERTEX
  8
0
 10
185.000000
 20
172.000000
 42
0.000000
  0
VERTEX
  8
0
 10
178.000000
 20
172.000000
 42
0.000000
  0
VERTEX
  8
0
 10
178.000000
 20
181.918213
 42
0.005656
  0
VERTEX
  8
0
 10
177.955718
 20
185.832367
 42
0.007527
  0
VERTEX
  8
0
 10
177.821697
 20
189.387600
 42
0.005529
  0
VERTEX
  8
0
 10
177.632420
 20
192.350751
 42
0.073019
  0
VERTEX
  8
0
 10
177.393011
 20
193.418213
 42
-0.076984
  0
VERTEX
  8
0
 10
177.235583
 20
194.147008
 42
-0.207384
  0
VERTEX
  8
0
 10
177.413414
 20
194.634337
 42
-0.160830
  0
VERTEX
  8
0
 10
177.939105
 20
194.916765
 42
-0.043546
  0
VERTEX
  8
0
 10
178.893011
 20
195.000000
 42
-0.168670
  0
VERTEX
  8
0
 10
180.057255
 20
194.595753
 42
-0.175454
  0
VERTEX
  8
0
 10
180.697325
 20
193.563473
 42
-0.048286
  0
VERTEX
  8
0
 10
180.954068
 20
191.263407
 42
-0.003667
  0
SEQEND
  0
POLYLINE
  8
0
 66
1
 70
1
  0
VERTEX
  8
0
 10
229.000000
 20
192.000000
 42
0.081208
  0
VERTEX
  8
0
 10
229.159458
 20
191.024683
 42
0.166173
  0
VERTEX
  8
0
 10
229.625000
 20
190.416667
 42
0.116834
  0
VERTEX
  8
0
 10
230.499083
 20
190.092253
 42
0.030703
  0
VERTEX
  8
0
 10
232.000000
 20
190.000000
 42
-0.033607
  0
VERTEX
  8
0
 10
233.322075
 20
189.911037
 42
-0.082504
  0
VERTEX
  8
0
 10
234.250000
 20
189.625000
 42
-0.126510
  0
VERTEX
  8
0
 10
234.797909
 20
189.148955
 42
-0.152103
  0
VERTEX
  8
0
 10
235.000000
 20
188.500000
 42
-0.153302
  0
VERTEX
  8
0
 10
234.795501
 20
187.848692
 42
-0.126987
  0
VERTEX
  8
0
 10
234.241683
 20
187.372955
 42
-0.081850
  0
VERTEX
  8
0
 10
233.300187
 20
187.088157
 42
-0.032614
  0
VERTEX
  8
0
 10
231.950096
 20
187.000000
 42
0.000000
  0
VERTEX
  8
0
 10
228.900192
 20
187.000000
 42
0.000000
  0
VERTEX
  8
0
 10
229.200096
 20
181.291007
 42
0.011075
  0
VERTEX
  8
0
 10
229.447454
 20
177.982836
 42
0.078375
  0
VERTEX
  8
0
 10
229.849827
 20
176.427871
 42
0.153084
  0
VERTEX
  8
0
 10
230.599757
 20
175.561448
 42
0.081003
  0
VERTEX
  8
0
 10
231.925861
 20
175.013424
 42
-0.058307
  0
VERTEX
  8
0
 10
234.067325
 20
174.239696
 42
-0.270146
  0
VERTEX
  8
0
 10
234.760301
 20
173.181771
 42
-0.347844
  0
VERTEX
  8
0
 10
234.129029
 20
172.292450
 42
-0.071118
  0
VERTEX
  8
0
 10
232.083333
 20
172.000000
 42
-0.095173
  0
VERTEX
  8
0
 10
228.958828
 20
172.600172
 42
-0.137131
  0
VERTEX
  8
0
 10
226.733763
 20
174.299095
 42
-0.111691
  0
VERTEX
  8
0
 10
225.422595
 20
177.206509
 42
-0.050343
  0
VERTEX
  8
0
 10
225.000000
 20
181.393011
 42
0.014241
  0
VERTEX
  8
0
 10
224.921718
 20
184.141015
 42
0.055976
  0
VERTEX
  8
0
 10
224.637428
 20
185.809232
 42
0.099505
  0
VERTEX
  8
0
 10
224.101295
 20
186.841600
 42
0.131660
  0
VERTEX
  8
0
 10
223.250000
 20
187.464431
 42
-0.022094
  0
VERTEX
  8
0
 10
222.271697
 20
187.894300
 42
-0.258460
  0
VERTEX
  8
0
 10
222.042334
 20
188.224743
 42
-0.241279
  0
VERTEX
  8
0
 10
222.193279
 20
188.610936
 42
-0.019574
  0
VERTEX
  8
0
 10
223.061971
 20
189.321420
 42
0.041994
  0
VERTEX
  8
0
 10
223.708115
 20
189.900064
 42
0.027053
  0
VERTEX
  8
0
 10
224.358003
 20
190.667855
 42
0.027157
  0
VERTEX
  8
0
 10
224.916045
 20
191.494085
 42
0.045221
  0
VERTEX
  8
0
 10
225.280586
 20
192.250000
 42
-0.129065
  0
VERTEX
  8
0
 10
226.189801
 20
193.535281
 42
-0.193752
  0
VERTEX
  8
0
 10
227.479625
 20
193.956492
 42
-0.223927
  0
VERTEX
  8
0
 10
228.564798
 20
193.352765
 42
-0.156897
  0
SEQEND
  0
POLYLINE
  8
0
 66
1
 70
1
  0
VERTEX
  8
0
 10
27.000000
 20
188.000000
 42
-0.073855
  0
VERTEX
  8
0
 10
28.004865
 20
186.644583
 42
-0.068065
  0
VERTEX
  8
0
 10
28.607143
 20
185.017857
 42
-0.043171
  0
VERTEX
  8
0
 10
28.914490
 20
182.709735
 42
-0.011523
  0
VERTEX
  8
0
 10
29.000000
 20
179.000000
 42
0.000000
  0
VERTEX
  8
0
 10
29.000000
 20
172.000000
 42
0.000000
  0
VERTEX
  8
0
 10
24.222506
 20
172.000000
 42
-0.095669
  0
VERTEX
  8
0
 10
17.591342
 20
173.280507
 42
-0.285533
  0
VERTEX
  8
0
 10
14.972836
 20
176.849175
 42
-0.275333
  0
VERTEX
  8
0
 10
16.983152
 20
180.900656
 42
-0.092701
  0
VERTEX
  8
0
 10
23.338251
 20
183.497901
 42
0.018731
  0
VERTEX
  8
0
 10
24.836445
 20
183.865417
 42
0.156294
  0
VERTEX
  8
0
 10
25.410060
 20
184.247902
 42
0.287352
  0
VERTEX
  8
0
 10
25.467873
 20
184.757349
 42
0.061602
  0
VERTEX
  8
0
 10
24.965806
 20
185.541201
 42
0.102288
  0
VERTEX
  8
0
 10
24.264400
 20
186.101711
 42
0.040649
  0
VERTEX
  8
0
 10
23.118595
 20
186.571478
 42
0.038063
  0
VERTEX
  8
0
 10
21.759369
 20
186.892237
 42
0.038934
  0
VERTEX
  8
0
 10
20.377555
 20
187.000000
 42
-0.027162
  0
VERTEX
  8
0
 10
18.842806
 20
187.083434
 42
-0.077485
  0
VERTEX
  8
0
 10
17.812926
 20
187.361027
 42
-0.129016
  0
VERTEX
  8
0
 10
17.220234
 20
187.835004
 42
-0.161283
  0
VERTEX
  8
0
 10
17.000000
 20
188.500000
 42
-0.346367
  0
VERTEX
  8
0
 10
18.009240
 20
189.782110
 42
-0.071877
  0
VERTEX
  8
0
 10
21.067171
 20
190.069016
 42
-0.061942
  0
VERTEX
  8
0
 10
24.586011
 20
189.451628
 42
-0.122606
  0
SEQEND
  0
POLYLINE
  8
0
 66
1
 70
1
  0
VERTEX
  8
0
 10
40.000000
 20
188.964816
 42
0.174147
  0
VERTEX
  8
0
 10
40.136188
 20
188.585661
 42
0.223915
  0
VERTEX
  8
0
 10
40.467129
 20
188.429632
 42
0.098707
  0
VERTEX
  8
0
 10
41.049945
 20
188.545821
 42
0.024465
  0
VERTEX
  8
0
 10
41.934259
 20
188.964816
 42
-0.068374
  0
VERTEX
  8
0
 10
43.997541
 20
189.729362
 42
-0.059891
  0
VERTEX
  8
0
 10
46.287524
 20
189.956094
 42
-0.064479
  0
VERTEX
  8
0
 10
48.369281
 20
189.642042
 42
-0.127405
  0
VERTEX
  8
0
 10
49.800000
 20
188.800000
 42
-0.142567
  0
VERTEX
  8
0
 10
50.303503
 20
187.883083
 42
-0.021602
  0
VERTEX
  8
0
 10
50.673077
 20
185.801923
 42
-0.020982
  0
VERTEX
  8
0
 10
50.920174
 20
183.081878
 42
-0.012160
  0
VERTEX
  8
0
 10
51.000000
 20
179.800000
 42
-0.007246
  0
VERTEX
  8
0
 10
50.940929
 20
175.724246
 42
-0.040273
  0
VERTEX
  8
0
 10
50.701923
 20
173.550000
 42
-0.095494
  0
VERTEX
  8
0
 10
50.244824
 20
172.406894
 42
-0.255339
  0
VERTEX
  8
0
 10
49.500000
 20
172.000000
 42
-0.242020
  0
VERTEX
  8
0
 10
48.763741
 20
172.378552
 42
-0.103063
  0
VERTEX
  8
0
 10
48.303332
 20
173.421897
 42
-0.044173
  0
VERTEX
  8
0
 10
48.061012
 20
175.400081
 42
-0.008400
  0
VERTEX
  8
0
 10
48.000000
 20
179.031385
 42
0.021531
  0
VERTEX
  8
0
 10
47.786029
 20
183.997904
 42
0.145284
  0
VERTEX
  8
0
 10
46.894407
 20
186.265302
 42
0.264761
  0
VERTEX
  8
0
 10
45.230429
 20
186.949173
 42
0.075096
  0
VERTEX
  8
0
 10
42.436230
 20
186.152898
 42
0.075167
  0
VERTEX
  8
0
 10
41.096867
 20
185.280018
 42
0.134339
  0
VERTEX
  8
0
 10
40.385946
 20
184.185605
 42
0.068182
  0
VERTEX
  8
0
 10
40.070835
 20
182.380834
 42
0.009176
  0
VERTEX
  8
0
 10
40.000000
 20
178.521439
 42
-0.009375
  0
VERTEX
  8
0
 10
39.937431
 20
175.184677
 42
-0.047180
  0
VERTEX
  8
0
 10
39.692497
 20
173.336906
 42
-0.108210
  0
VERTEX
  8
0
 10
39.230023
 20
172.358764
 42
-0.232445
  0
VERTEX
  8
0
 10
38.500000
 20
172.000000
 42
-0.273642
  0
VERTEX
  8
0
 10
37.743224
 20
172.447695
 42
-0.084509
  0
VERTEX
  8
0
 10
37.291667
 20
173.750000
 42
-0.035355
  0
VERTEX
  8
0
 10
37.056738
 20
176.229484
 42
-0.005946
  0
VERTEX
  8
0
 10
37.000000
 20
181.000000
 42
-0.005946
  0
VERTEX
  8
0
 10
37.056738
 20
185.770516
 42
-0.035355
  0
VERTEX
  8
0
 10
37.291667
 20
188.250000
 42
-0.084509
  0
VERTEX
  8
0
 10
37.743224
 20
189.552305
 42
-0.273642
  0
VERTEX
  8
0
 10
38.500000
 20
190.000000
 42
-0.067246
  0
VERTEX
  8
0
 10
39.073373
 20
189.922536
 42
-0.084069
  0
VERTEX
  8
0
 10
39.559375
 20
189.695915
 42
-0.099557
  0
VERTEX
  8
0
 10
39.884386
 20
189.359575
 42
-0.143424
  0
SEQEND
  0
POLYLINE
  8
0
 66
1
 70
1
  0
VERTEX
  8
0
 10
274.000000
 20
188.000000
 42
-0.073855
  0
VERTEX
  8
0
 10
275.004865
 20
186.644583
 42
-0.068065
  0
VERTEX
  8
0
 10
275.607143
 20
185.017857
 42
-0.043171
  0
VERTEX
  8
0
 10
275.914490
 20
182.709735
 42
-0.011523
  0
VERTEX
  8
0
 10
276.000000
 20
179.000000
 42
0.000000
  0
VERTEX
  8
0
 10
276.000000
 20
172.000000
 42
0.000000
  0
VERTEX
  8
0
 10
271.222506
 20
172.000000
 42
-0.095669
  0
VERTEX
  8
0
 10
264.591342
 20
173.280507
 42
-0.285533
  0
VERTEX
  8
0
 10
261.972836
 20
176.849175
 42
-0.275333
  0
VERTEX
  8
0
 10
263.983152
 20
180.900656
 42
-0.092701
  0
VERTEX
  8
0
 10
270.338251
 20
183.497901
 42
0.018731
  0
VERTEX
  8
0
 10
271.836445
 20
183.865417
 42
0.156294
  0
VERTEX
  8
0
 10
272.410060
 20
184.247902
 42
0.287352
  0
VERTEX
  8
0
 10
272.467873
 20
184.757349
 42
0.061602
  0
VERTEX
  8
0
 10
271.965806
 20
185.541201
 42
0.102288
  0
VERTEX
  8
0
 10
271.264400
 20
186.101711
 42
0.040649
  0
VERTEX
  8
0
 10
270.118595
 20
186.571478
 42
0.038063
  0
VERTEX
  8
0
 10
268.759369
 20
186.892237
 42
0.038934
  0
VERTEX
  8
0
 10
267.377555
 20
187.000000
 42
-0.027162
  0
VERTEX
  8
0
 10
265.842806
 20
187.083434
 42
-0.077485
  0
VERTEX
  8
0
 10
264.812926
 20
187.361027
 42
-0.129016
  0
VERTEX
  8
0
 10
264.220234
 20
187.835004
 42
-0.161283
  0
VERTEX
  8
0
 10
264.000000
 20
188.500000
 42
-0.346367
  0
VERTEX
  8
0
 10
265.009240
 20
189.782110
 42
-0.071877
  0
VERTEX
  8
0
 10
268.067171
 20
190.069016
 42
-0.061942
  0
VERTEX
  8
0
 10
271.586011
 20
189.451628
 42
-0.122606
  0
SEQEND
  0
POLYLINE
  8
0
 66
1
 70
1
  0
VERTEX
  8
0
 10
288.000000
 20
188.964816
 42
0.174147
  0
VERTEX
  8
0
 10
288.136188
 20
188.585661
 42
0.223915
  0
VERTEX
  8
0
 10
288.467129
 20
188.429632
 42
0.098707
  0
VERTEX
  8
0
 10
289.049945
 20
188.545821
 42
0.024465
  0
VERTEX
  8
0
 10
289.934259
 20
188.964816
 42
-0.068374
  0
VERTEX
  8
0
 10
291.997541
 20
189.729362
 42
-0.059891
  0
VERTEX
  8
0
 10
294.287524
 20
189.956094
 42
-0.064479
  0
VERTEX
  8
0
 10
296.369281
 20
189.642042
 42
-0.127405
  0
VERTEX
  8
0
 10
297.800000
 20
188.800000
 42
-0.142567
  0
VERTEX
  8
0
 10
298.303503
 20
187.883083
 42
-0.021602
  0
VERTEX
  8
0
 10
298.673077
 20
185.801923
 42
-0.020982
  0
VERTEX
  8
0
 10
298.920174
 20
183.081878
 42
-0.012160
  0
VERTEX
  8
0
 10
299.000000
 20
179.800000
 42
-0.007246
  0
VERTEX
  8
0
 10
298.940929
 20
175.724246
 42
-0.040273
  0
VERTEX
  8
0
 10
298.701923
 20
173.550000
 42
-0.095494
  0
VERTEX
  8
0
 10
298.244824
 20
172.406894
 42
-0.255339
  0
VERTEX
  8
0
 10
297.500000
 20
172.000000
 42
-0.242020
  0
VERTEX
  8
0
 10
296.763741
 20
172.378552
 42
-0.103063
  0
VERTEX
  8
0
 10
296.303332
 20
173.421897
 42
-0.044173
  0
VERTEX
  8
0
 10
296.061012
 20
175.400081
 42
-0.008400
  0
VERTEX
  8
0
 10
296.000000
 20
179.031385
 42
0.021531
  0
VERTEX
  8
0
 10
295.786029
 20
183.997904
 42
0.145284
  0
VERTEX
  8
0
 10
294.894407
 20
186.265302
 42
0.264761
  0
VERTEX
  8
0
 10
293.230429
 20
186.949173
 42
0.075096
  0
VERTEX
  8
0
 10
290.436230
 20
186.152898
 42
0.075167
  0
VERTEX
  8
0
 10
289.096867
 20
185.280018
 42
0.134339
  0
VERTEX
  8
0
 10
288.385946
 20
184.185605
 42
0.068182
  0
VERTEX
  8
0
 10
288.070835
 20
182.380834
 42
0.009176
  0
VERTEX
  8
0
 10
288.000000
 20
178.521439
 42
-0.009375
  0
VERTEX
  8
0
 10
287.937431
 20
175.184677
 42
-0.047180
  0
VERTEX
  8
0
 10
287.692497
 20
173.336906
 42
-0.108210
  0
VERTEX
  8
0
 10
287.230023
 20
172.358764
 42
-0.232445
  0
VERTEX
  8
0
 10
286.500000
 20
172.000000
 42
-0.273642
  0
VERTEX
  8
0
 10
285.743224
 20
172.447695
 42
-0.084509
  0
VERTEX
  8
0
 10
285.291667
 20
173.750000
 42
-0.035355
  0
VERTEX
  8
0
 10
285.056738
 20
176.229484
 42
-0.005946
  0
VERTEX
  8
0
 10
285.000000
 20
181.000000
 42
-0.005946
  0
VERTEX
  8
0
 10
285.056738
 20
185.770516
 42
-0.035355
  0
VERTEX
  8
0
 10
285.291667
 20
188.250000
 42
-0.084509
  0
VERTEX
  8
0
 10
285.743224
 20
189.552305
 42
-0.273642
  0
VERTEX
  8
0
 10
286.500000
 20
190.000000
 42
-0.067246
  0
VERTEX
  8
0
 10
287.073373
 20
189.922536
 42
-0.084069
  0
VERTEX
  8
0
 10
287.559375
 20
189.695915
 42
-0.099557
  0
VERTEX
  8
0
 10
287.884386
 20
189.359575
 42
-0.143424
  0
SEQEND
  0
POLYLINE
  8
0
 66
1
 70
1
  0
VERTEX
  8
0
 10
83.779877
 20
142.668204
 42
-0.003538
  0
VERTEX
  8
0
 10
83.885821
 20
135.611799
 42
-0.026579
  0
VERTEX
  8
0
 10
83.734838
 20
132.274399
 42
-0.066773
  0
VERTEX
  8
0
 10
83.327813
 20
130.549271
 42
-0.310911
  0
VERTEX
  8
0
 10
82.529877
 20
130.000000
 42
-0.312812
  0
VERTEX
  8
0
 10
81.721051
 20
130.560906
 42
-0.060503
  0
VERTEX
  8
0
 10
81.279233
 20
132.387972
 42
-0.025537
  0
VERTEX
  8
0
 10
81.051516
 20
135.868019
 42
-0.003570
  0
VERTEX
  8
0
 10
81.000000
 20
143.083333
 42
-0.004153
  0
VERTEX
  8
0
 10
81.054256
 20
149.615928
 42
-0.020439
  0
VERTEX
  8
0
 10
81.265953
 20
153.294702
 42
-0.034566
  0
VERTEX
  8
0
 10
81.622359
 20
155.403097
 42
-0.439060
  0
VERTEX
  8
0
 10
82.250000
 20
155.751537
 42
-0.268990
  0
VERTEX
  8
0
 10
82.866266
 20
155.055396
 42
-0.020669
  0
VERTEX
  8
0
 10
83.274532
 20
152.488644
 42
-0.018222
  0
VERTEX
  8
0
 10
83.584537
 20
148.620161
 42
-0.005359
  0
SEQEND
  0
POLYLINE
  8
0
 66
1
 70
1
  0
VERTEX
  8
0
 10
229.000000
 20
150.700224
 42
0.011051
  0
VERTEX
  8
0
 10
229.322251
 20
148.222597
 42
0.086590
  0
VERTEX
  8
0
 10
229.690980
 20
147.125336
 42
0.269648
  0
VERTEX
  8
0
 10
230.230884
 20
146.796476
 42
0.148113
  0
VERTEX
  8
0
 10
231.000000
 20
147.012457
 42
-0.092840
  0
VERTEX
  8
0
 10
232.823423
 20
147.746479
 42
-0.056256
  0
VERTEX
  8
0
 10
235.148488
 20
147.944965
 42
-0.057573
  0
VERTEX
  8
0
 10
237.357217
 20
147.628638
 42
-0.132805
  0
VERTEX
  8
0
 10
238.800000
 20
146.800000
 42
-0.142567
  0
VERTEX
  8
0
 10
239.303503
 20
145.883083
 42
-0.021602
  0
VERTEX
  8
0
 10
239.673077
 20
143.801923
 42
-0.020982
  0
VERTEX
  8
0
 10
239.920174
 20
141.081878
 42
-0.012160
  0
VERTEX
  8
0
 10
240.000000
 20
137.800000
 42
-0.007246
  0
VERTEX
  8
0
 10
239.940929
 20
133.724246
 42
-0.040273
  0
VERTEX
  8
0
 10
239.701923
 20
131.550000
 42
-0.095494
  0
VERTEX
  8
0
 10
239.244824
 20
130.406894
 42
-0.255339
  0
VERTEX
  8
0
 10
238.500000
 20
130.000000
 42
-0.242020
  0
VERTEX
  8
0
 10
237.763741
 20
130.378552
 42
-0.103063
  0
VERTEX
  8
0
 10
237.303332
 20
131.421897
 42
-0.044173
  0
VERTEX
  8
0
 10
237.061012
 20
133.400081
 42
-0.008400
  0
VERTEX
  8
0
 10
237.000000
 20
137.031385
 42
0.021531
  0
VERTEX
  8
0
 10
236.786029
 20
141.997904
 42
0.145284
  0
VERTEX
  8
0
 10
235.894407
 20
144.265302
 42
0.264761
  0
VERTEX
  8
0
 10
234.230429
 20
144.949173
 42
0.075096
  0
VERTEX
  8
0
 10
231.436230
 20
144.152898
 42
0.075167
  0
VERTEX
  8
0
 10
230.096867
 20
143.280018
 42
0.134339
  0
VERTEX
  8
0
 10
229.385946
 20
142.185605
 42
0.068182
  0
VERTEX
  8
0
 10
229.070835
 20
140.380834
 42
0.009176
  0
VERTEX
  8
0
 10
229.000000
 20
136.521439
 42
-0.009375
  0
VERTEX
  8
0
 10
228.937431
 20
133.184677
 42
-0.047180
  0
VERTEX
  8
0
 10
228.692497
 20
131.336906
 42
-0.108210
  0
VERTEX
  8
0
 10
228.230023
 20
130.358764
 42
-0.232445
  0
VERTEX
  8
0
 10
227.500000
 20
130.000000
 42
-0.318078
  0
VERTEX
  8
0
 10
226.710064
 20
130.559087
 42
-0.056262
  0
VERTEX
  8
0
 10
226.278662
 20
132.430556
 42
-0.024892
  0
VERTEX
  8
0
 10
226.052128
 20
135.944532
 42
-0.003651
  0
VERTEX
  8
0
 10
226.000000
 20
143.083333
 42
-0.004156
  0
VERTEX
  8
0
 10
226.054292
 20
149.614578
 42
-0.020427
  0
VERTEX
  8
0
 10
226.266034
 20
153.294730
 42
-0.034452
  0
VERTEX
  8
0
 10
226.622339
 20
155.405876
 42
-0.438292
  0
VERTEX
  8
0
 10
227.250000
 20
155.755788
 42
-0.198494
  0
VERTEX
  8
0
 10
227.765301
 20
155.313345
 42
-0.034060
  0
VERTEX
  8
0
 10
228.279687
 20
154.101229
 42
-0.032570
  0
VERTEX
  8
0
 10
228.717155
 20
152.508943
 42
-0.023947
  0
SEQEND
  0
POLYLINE
  8
0
 66
1
 70
1
  0
VERTEX
  8
0
 10
95.264432
 20
153.402234
 42
-0.215600
  0
VERTEX
  8
0
 10
95.601122
 20
152.509634
 42
-0.110164
  0
VERTEX
  8
0
 10
95.259312
 20
151.336188
 42
-0.102084
  0
VERTEX
  8
0
 10
94.419840
 20
150.352279
 42
-0.166767
  0
VERTEX
  8
0
 10
93.393011
 20
150.000000
 42
-0.142170
  0
VERTEX
  8
0
 10
92.861800
 20
150.154161
 42
-0.099710
  0
VERTEX
  8
0
 10
92.409197
 20
150.587500
 42
-0.084500
  0
VERTEX
  8
0
 10
92.104293
 20
151.235532
 42
-0.067898
  0
VERTEX
  8
0
 10
92.000000
 20
152.000000
 42
-0.130763
  0
VERTEX
  8
0
 10
92.309020
 20
153.161397
 42
-0.162656
  0
VERTEX
  8
0
 10
93.138376
 20
153.900926
 42
-0.165081
  0
VERTEX
  8
0
 10
94.235660
 20
153.987248
 42
-0.134985
  0
SEQEND
  0
POLYLINE
  8
0
 66
1
 70
1
  0
VERTEX
  8
0
 10
203.264432
 20
153.402234
 42
-0.215600
  0
VERTEX
  8
0
 10
203.601122
 20
152.509634
 42
-0.110164
  0
VERTEX
  8
0
 10
203.259312
 20
151.336188
 42
-0.102084
  0
VERTEX
  8
0
 10
202.419840
 20
150.352279
 42
-0.166767
  0
VERTEX
  8
0
 10
201.393011
 20
150.000000
 42
-0.142170
  0
VERTEX
  8
0
 10
200.861800
 20
150.154161
 42
-0.099710
  0
VERTEX
  8
0
 10
200.409197
 20
150.587500
 42
-0.084500
  0
VERTEX
  8
0
 10
200.104293
 20
151.235532
 42
-0.067898
  0
VERTEX
  8
0
 10
200.000000
 20
152.000000
 42
-0.130763
  0
VERTEX
  8
0
 10
200.309020
 20
153.161397
 42
-0.162656
  0
VERTEX
  8
0
 10
201.138376
 20
153.900926
 42
-0.165081
  0
VERTEX
  8
0
 10
202.235660
 20
153.987248
 42
-0.134985
  0
SEQEND
  0
POLYLINE
  8
0
 66
1
 70
1
  0
VERTEX
  8
0
 10
21.000000
 20
150.000000
 42
0.081208
  0
VERTEX
  8
0
 10
21.159458
 20
149.024683
 42
0.166173
  0
VERTEX
  8
0
 10
21.625000
 20
148.416667
 42
0.116834
  0
VERTEX
  8
0
 10
22.499083
 20
148.092253
 42
0.030703
  0
VERTEX
  8
0
 10
24.000000
 20
148.000000
 42
-0.033607
  0
VERTEX
  8
0
 10
25.322075
 20
147.911037
 42
-0.082504
  0
VERTEX
  8
0
 10
26.250000
 20
147.625000
 42
-0.126510
  0
VERTEX
  8
0
 10
26.797909
 20
147.148955
 42
-0.152103
  0
VERTEX
  8
0
 10
27.000000
 20
146.500000
 42
-0.153302
  0
VERTEX
  8
0
 10
26.795501
 20
145.848692
 42
-0.126987
  0
VERTEX
  8
0
 10
26.241683
 20
145.372955
 42
-0.081850
  0
VERTEX
  8
0
 10
25.300187
 20
145.088157
 42
-0.032614
  0
VERTEX
  8
0
 10
23.950096
 20
145.000000
 42
0.000000
  0
VERTEX
  8
0
 10
20.900192
 20
145.000000
 42
0.000000
  0
VERTEX
  8
0
 10
21.200096
 20
139.291007
 42
0.011075
  0
VERTEX
  8
0
 10
21.447454
 20
135.982836
 42
0.078375
  0
VERTEX
  8
0
 10
21.849827
 20
134.427871
 42
0.153084
  0
VERTEX
  8
0
 10
22.599757
 20
133.561448
 42
0.081003
  0
VERTEX
  8
0
 10
23.925861
 20
133.013424
 42
-0.058307
  0
VERTEX
  8
0
 10
26.067325
 20
132.239696
 42
-0.270146
  0
VERTEX
  8
0
 10
26.760301
 20
131.181771
 42
-0.347844
  0
VERTEX
  8
0
 10
26.129029
 20
130.292450
 42
-0.071118
  0
VERTEX
  8
0
 10
24.083333
 20
130.000000
 42
-0.095173
  0
VERTEX
  8
0
 10
20.958828
 20
130.600172
 42
-0.137131
  0
VERTEX
  8
0
 10
18.733763
 20
132.299095
 42
-0.111691
  0
VERTEX
  8
0
 10
17.422595
 20
135.206509
 42
-0.050343
  0
VERTEX
  8
0
 10
17.000000
 20
139.393011
 42
0.014241
  0
VERTEX
  8
0
 10
16.921718
 20
142.141015
 42
0.055976
  0
VERTEX
  8
0
 10
16.637428
 20
143.809232
 42
0.099505
  0
VERTEX
  8
0
 10
16.101295
 20
144.841600
 42
0.131660
  0
VERTEX
  8
0
 10
15.250000
 20
145.464431
 42
-0.022094
  0
VERTEX
  8
0
 10
14.271697
 20
145.894300
 42
-0.258460
  0
VERTEX
  8
0
 10
14.042334
 20
146.224743
 42
-0.241279
  0
VERTEX
  8
0
 10
14.193279
 20
146.610936
 42
-0.019574
  0
VERTEX
  8
0
 10
15.061971
 20
147.321420
 42
0.041994
  0
VERTEX
  8
0
 10
15.708115
 20
147.900064
 42
0.027053
  0
VERTEX
  8
0
 10
16.358003
 20
148.667855
 42
0.027157
  0
VERTEX
  8
0
 10
16.916045
 20
149.494085
 42
0.045221
  0
VERTEX
  8
0
 10
17.280586
 20
150.250000
 42
-0.129065
  0
VERTEX
  8
0
 10
18.189801
 20
151.535281
 42
-0.193752
  0
VERTEX
  8
0
 10
19.479625
 20
151.956492
 42
-0.223927
  0
VERTEX
  8
0
 10
20.564798
 20
151.352765
 42
-0.156897
  0
SEQEND
  0
POLYLINE
  8
0
 66
1
 70
1
  0
VERTEX
  8
0
 10
215.000000
 20
150.000000
 42
0.081208
  0
VERTEX
  8
0
 10
215.159458
 20
149.024683
 42
0.166173
  0
VERTEX
  8
0
 10
215.625000
 20
148.416667
 42
0.116834
  0
VERTEX
  8
0
 10
216.499083
 20
148.092253
 42
0.030703
  0
VERTEX
  8
0
 10
218.000000
 20
148.000000
 42
-0.033607
  0
VERTEX
  8
0
 10
219.322075
 20
147.911037
 42
-0.082504
  0
VERTEX
  8
0
 10
220.250000
 20
147.625000
 42
-0.126510
  0
VERTEX
  8
0
 10
220.797909
 20
147.148955
 42
-0.152103
  0
VERTEX
  8
0
 10
221.000000
 20
146.500000
 42
-0.153302
  0
VERTEX
  8
0
 10
220.795501
 20
145.848692
 42
-0.126987
  0
VERTEX
  8
0
 10
220.241683
 20
145.372955
 42
-0.081850
  0
VERTEX
  8
0
 10
219.300187
 20
145.088157
 42
-0.032614
  0
VERTEX
  8
0
 10
217.950096
 20
145.000000
 42
0.000000
  0
VERTEX
  8
0
 10
214.900192
 20
145.000000
 42
0.000000
  0
VERTEX
  8
0
 10
215.200096
 20
139.291007
 42
0.011075
  0
VERTEX
  8
0
 10
215.447454
 20
135.982836
 42
0.078375
  0
VERTEX
  8
0
 10
215.849827
 20
134.427871
 42
0.153084
  0
VERTEX
  8
0
 10
216.599757
 20
133.561448
 42
0.081003
  0
VERTEX
  8
0
 10
217.925861
 20
133.013424
 42
-0.058307
  0
VERTEX
  8
0
 10
220.067325
 20
132.239696
 42
-0.270146
  0
VERTEX
  8
0
 10
220.760301
 20
131.181771
 42
-0.347844
  0
VERTEX
  8
0
 10
220.129029
 20
130.292450
 42
-0.071118
  0
VERTEX
  8
0
 10
218.083333
 20
130.000000
 42
-0.095173
  0
VERTEX
  8
0
 10
214.958828
 20
130.600172
 42
-0.137131
  0
VERTEX
  8
0
 10
212.733763
 20
132.299095
 42
-0.111691
  0
VERTEX
  8
0
 10
211.422595
 20
135.206509
 42
-0.050343
  0
VERTEX
  8
0
 10
211.000000
 20
139.393011
 42
0.014241
  0
VERTEX
  8
0
 10
210.921718
 20
142.141015
 42
0.055976
  0
VERTEX
  8
0
 10
210.637428
 20
143.809232
 42
0.099505
  0
VERTEX
  8
0
 10
210.101295
 20
144.841600
 42
0.131660
  0
VERTEX
  8
0
 10
209.250000
 20
145.464431
 42
-0.022094
  0
VERTEX
  8
0
 10
208.271697
 20
145.894300
 42
-0.258460
  0
VERTEX
  8
0
 10
208.042334
 20
146.224743
 42
-0.241279
  0
VERTEX
  8
0
 10
208.193279
 20
146.610936
 42
-0.019574
  0
VERTEX
  8
0
 10
209.061971
 20
147.321420
 42
0.041994
  0
VERTEX
  8
0
 10
209.708115
 20
147.900064
 42
0.027053
  0
VERTEX
  8
0
 10
210.358003
 20
148.667855
 42
0.027157
  0
VERTEX
  8
0
 10
210.916045
 20
149.494085
 42
0.045221
  0
VERTEX
  8
0
 10
211.280586
 20
150.250000
 42
-0.129065
  0
VERTEX
  8
0
 10
212.189801
 20
151.535281
 42
-0.193752
  0
VERTEX
  8
0
 10
213.479625
 20
151.956492
 42
-0.223927
  0
VERTEX
  8
0
 10
214.564798
 20
151.352765
 42
-0.156897
  0
SEQEND
  0
POLYLINE
  8
0
 66
1
 70
1
  0
VERTEX
  8
0
 10
295.000000
 20
150.000000
 42
0.081208
  0
VERTEX
  8
0
 10
295.159458
 20
149.024683
 42
0.166173
  0
VERTEX
  8
0
 10
295.625000
 20
148.416667
 42
0.116834
  0
VERTEX
  8
0
 10
296.499083
 20
148.092253
 42
0.030703
  0
VERTEX
  8
0
 10
298.000000
 20
148.000000
 42
-0.033607
  0
VERTEX
  8
0
 10
299.322075
 20
147.911037
 42
-0.082504
  0
VERTEX
  8
0
 10
300.250000
 20
147.625000
 42
-0.126510
  0
VERTEX
  8
0
 10
300.797909
 20
147.148955
 42
-0.152103
  0
VERTEX
  8
0
 10
301.000000
 20
146.500000
 42
-0.153302
  0
VERTEX
  8
0
 10
300.795501
 20
145.848692
 42
-0.126987
  0
VERTEX
  8
0
 10
300.241683
 20
145.372955
 42
-0.081850
  0
VERTEX
  8
0
 10
299.300187
 20
145.088157
 42
-0.032614
  0
VERTEX
  8
0
 10
297.950096
 20
145.000000
 42
0.000000
  0
VERTEX
  8
0
 10
294.900192
 20
145.000000
 42
0.000000
  0
VERTEX
  8
0
 10
295.200096
 20
139.291007
 42
0.011298
  0
VERTEX
  8
0
 10
295.444749
 20
136.038548
 42
0.074579
  0
VERTEX
  8
0
 10
295.841757
 20
134.461106
 42
0.147526
  0
VERTEX
  8
0
 10
296.565621
 20
133.581151
 42
0.090074
  0
VERTEX
  8
0
 10
297.809017
 20
133.041007
 42
-0.066099
  0
VERTEX
  8
0
 10
299.522215
 20
132.391933
 42
-0.296428
  0
VERTEX
  8
0
 10
300.012333
 20
131.495374
 42
-0.286107
  0
VERTEX
  8
0
 10
299.395106
 20
130.654847
 42
-0.063840
  0
VERTEX
  8
0
 10
297.591666
 20
130.189423
 42
-0.130802
  0
VERTEX
  8
0
 10
294.858030
 20
130.560918
 42
-0.139412
  0
VERTEX
  8
0
 10
292.747754
 20
132.240489
 42
-0.104163
  0
VERTEX
  8
0
 10
291.430064
 20
135.239831
 42
-0.051637
  0
VERTEX
  8
0
 10
291.000000
 20
139.393011
 42
0.014241
  0
VERTEX
  8
0
 10
290.921718
 20
142.141015
 42
0.055976
  0
VERTEX
  8
0
 10
290.637428
 20
143.809232
 42
0.099505
  0
VERTEX
  8
0
 10
290.101295
 20
144.841600
 42
0.131660
  0
VERTEX
  8
0
 10
289.250000
 20
145.464431
 42
-0.022094
  0
VERTEX
  8
0
 10
288.271697
 20
145.894300
 42
-0.258460
  0
VERTEX
  8
0
 10
288.042334
 20
146.224743
 42
-0.241279
  0
VERTEX
  8
0
 10
288.193279
 20
146.610936
 42
-0.019574
  0
VERTEX
  8
0
 10
289.061971
 20
147.321420
 42
0.041994
  0
VERTEX
  8
0
 10
289.708115
 20
147.900064
 42
0.027053
  0
VERTEX
  8
0
 10
290.358003
 20
148.667855
 42
0.027157
  0
VERTEX
  8
0
 10
290.916045
 20
149.494085
 42
0.045221
  0
VERTEX
  8
0
 10
291.280586
 20
150.250000
 42
-0.129065
  0
VERTEX
  8
0
 10
292.189801
 20
151.535281
 42
-0.193752
  0
VERTEX
  8
0
 10
293.479625
 20
151.956492
 42
-0.223927
  0
VERTEX
  8
0
 10
294.564798
 20
151.352765
 42
-0.156897
  0
SEQEND
  0
POLYLINE
  8
0
 66
1
 70
1
  0
VERTEX
  8
0
 10
44.927420
 20
145.365141
 42
-0.094586
  0
VERTEX
  8
0
 10
46.503173
 20
142.322863
 42
-0.074409
  0
VERTEX
  8
0
 10
47.024924
 20
138.640432
 42
-0.076314
  0
VERTEX
  8
0
 10
46.446647
 20
135.060018
 42
-0.110883
  0
VERTEX
  8
0
 10
44.825686
 20
132.314451
 42
-0.104161
  0
VERTEX
  8
0
 10
42.686549
 20
130.822444
 42
-0.070057
  0
VERTEX
  8
0
 10
39.799232
 20
130.049490
 42
-0.068087
  0
VERTEX
  8
0
 10
36.719307
 20
130.093467
 42
-0.085496
  0
VERTEX
  8
0
 10
34.014344
 20
130.992323
 42
-0.136504
  0
VERTEX
  8
0
 10
32.191961
 20
132.733900
 42
-0.066498
  0
VERTEX
  8
0
 10
30.917051
 20
135.716561
 42
-0.063469
  0
VERTEX
  8
0
 10
30.421151
 20
139.127638
 42
-0.088487
  0
VERTEX
  8
0
 10
30.908160
 20
142.166392
 42
-0.058599
  0
VERTEX
  8
0
 10
32.193730
 20
144.810872
 42
-0.097667
  0
VERTEX
  8
0
 10
33.901305
 20
146.592158
 42
-0.096024
  0
VERTEX
  8
0
 10
36.179429
 20
147.610451
 42
-0.055115
  0
VERTEX
  8
0
 10
39.177420
 20
147.968197
 42
-0.036553
  0
VERTEX
  8
0
 10
41.068002
 20
147.846227
 42
-0.072025
  0
VERTEX
  8
0
 10
42.511304
 20
147.429168
 42
-0.075697
  0
VERTEX
  8
0
 10
43.730867
 20
146.636743
 42
-0.044271
  0
SEQEND
  0
POLYLINE
  8
0
 66
1
 70
1
  0
VERTEX
  8
0
 10
95.000000
 20
139.000000
 42
-0.005946
  0
VERTEX
  8
0
 10
94.943262
 20
134.229484
 42
-0.035355
  0
VERTEX
  8
0
 10
94.708333
 20
131.750000
 42
-0.084509
  0
VERTEX
  8
0
 10
94.256776
 20
130.447695
 42
-0.273642
  0
VERTEX
  8
0
 10
93.500000
 20
130.000000
 42
-0.273642
  0
VERTEX
  8
0
 10
92.743224
 20
130.447695
 42
-0.084509
  0
VERTEX
  8
0
 10
92.291667
 20
131.750000
 42
-0.035355
  0
VERTEX
  8
0
 10
92.056738
 20
134.229484
 42
-0.005946
  0
VERTEX
  8
0
 10
92.000000
 20
139.000000
 42
-0.005946
  0
VERTEX
  8
0
 10
92.056738
 20
143.770516
 42
-0.035355
  0
VERTEX
  8
0
 10
92.291667
 20
146.250000
 42
-0.084509
  0
VERTEX
  8
0
 10
92.743224
 20
147.552305
 42
-0.273642
  0
VERTEX
  8
0
 10
93.500000
 20
148.000000
 42
-0.273642
  0
VERTEX
  8
0
 10
94.256776
 20
147.552305
 42
-0.084509
  0
VERTEX
  8
0
 10
94.708333
 20
146.250000
 42
-0.035355
  0
VERTEX
  8
0
 10
94.943262
 20
143.770516
 42
-0.005946
  0
SEQEND
  0
POLYLINE
  8
0
 66
1
 70
1
  0
VERTEX
  8
0
 10
106.597716
 20
141.268674
 42
0.000000
  0
VERTEX
  8
0
 10
109.563328
 20
134.537348
 42
0.000000
  0
VERTEX
  8
0
 10
111.823231
 20
140.735347
 42
-0.013933
  0
VERTEX
  8
0
 10
113.444773
 20
144.824800
 42
-0.064952
  0
VERTEX
  8
0
 10
114.735325
 20
147.001954
 42
-0.179141
  0
VERTEX
  8
0
 10
115.889307
 20
147.711798
 42
-0.253605
  0
VERTEX
  8
0
 10
117.018132
 20
147.362868
 42
-0.298107
  0
VERTEX
  8
0
 10
117.361829
 20
145.621137
 42
-0.008359
  0
VERTEX
  8
0
 10
114.228311
 20
138.237002
 42
-0.008467
  0
VERTEX
  8
0
 10
110.850586
 20
130.967770
 42
-0.287252
  0
VERTEX
  8
0
 10
109.305052
 20
130.000000
 42
-0.280967
  0
VERTEX
  8
0
 10
107.811426
 20
130.911256
 42
-0.008687
  0
VERTEX
  8
0
 10
104.495551
 20
137.641071
 42
-0.010314
  0
VERTEX
  8
0
 10
101.473971
 20
144.410842
 42
-0.193767
  0
VERTEX
  8
0
 10
101.436541
 20
146.695225
 42
-0.193419
  0
VERTEX
  8
0
 10
102.291560
 20
147.615740
 42
-0.323254
  0
VERTEX
  8
0
 10
103.284392
 20
147.429784
 42
-0.075575
  0
VERTEX
  8
0
 10
104.603164
 20
145.540805
 42
-0.010908
  0
SEQEND
  0
POLYLINE
  8
0
 66
1
 70
1
  0
VERTEX
  8
0
 10
134.171259
 20
146.345012
 42
-0.070451
  0
VERTEX
  8
0
 10
134.871832
 20
145.504026
 42
-0.041998
  0
VERTEX
  8
0
 10
135.462807
 20
144.340455
 42
-0.041175
  0
VERTEX
  8
0
 10
135.865428
 20
143.055733
 42
-0.055405
  0
VERTEX
  8
0
 10
136.000000
 20
141.845012
 42
-0.047947
  0
VERTEX
  8
0
 10
135.836134
 20
140.140102
 42
-0.229345
  0
VERTEX
  8
0
 10
135.266698
 20
139.379319
 42
-0.111653
  0
VERTEX
  8
0
 10
134.032398
 20
139.057586
 42
-0.008151
  0
VERTEX
  8
0
 10
130.500000
 20
139.000000
 42
0.012511
  0
VERTEX
  8
0
 10
127.809054
 20
138.932659
 42
0.051694
  0
VERTEX
  8
0
 10
126.202681
 20
138.684396
 42
0.107614
  0
VERTEX
  8
0
 10
125.321969
 20
138.235878
 42
0.225027
  0
VERTEX
  8
0
 10
125.000000
 20
137.556704
 42
0.185349
  0
VERTEX
  8
0
 10
125.589163
 20
136.021974
 42
0.068830
  0
VERTEX
  8
0
 10
127.387586
 20
134.506336
 42
0.062771
  0
VERTEX
  8
0
 10
129.790349
 20
133.382622
 42
0.078178
  0
VERTEX
  8
0
 10
132.222506
 20
133.000000
 42
-0.038722
  0
VERTEX
  8
0
 10
133.420073
 20
132.907117
 42
-0.085297
  0
VERTEX
  8
0
 10
134.287084
 20
132.614986
 42
-0.123730
  0
VERTEX
  8
0
 10
134.808679
 20
132.137398
 42
-0.146843
  0
VERTEX
  8
0
 10
135.000000
 20
131.500000
 42
-0.331769
  0
VERTEX
  8
0
 10
134.123525
 20
130.324481
 42
-0.084306
  0
VERTEX
  8
0
 10
131.610347
 20
130.018347
 42
-0.062966
  0
VERTEX
  8
0
 10
128.340870
 20
130.588888
 42
-0.062335
  0
VERTEX
  8
0
 10
125.304261
 20
131.956042
 42
-0.095872
  0
VERTEX
  8
0
 10
122.865402
 20
134.177169
 42
-0.100201
  0
VERTEX
  8
0
 10
121.478055
 20
137.114977
 42
-0.096806
  0
VERTEX
  8
0
 10
121.316550
 20
140.446079
 42
-0.083363
  0
VERTEX
  8
0
 10
122.390459
 20
143.788172
 42
-0.023779
  0
VERTEX
  8
0
 10
123.083934
 20
144.985984
 42
-0.025796
  0
VERTEX
  8
0
 10
123.870847
 20
146.079134
 42
-0.026473
  0
VERTEX
  8
0
 10
124.636706
 20
146.937604
 42
-0.102074
  0
VERTEX
  8
0
 10
125.228960
 20
147.330706
 42
-0.073391
  0
VERTEX
  8
0
 10
127.452849
 20
147.865532
 42
-0.049860
  0
VERTEX
  8
0
 10
130.060638
 20
147.839070
 42
-0.051112
  0
VERTEX
  8
0
 10
132.495539
 20
147.315198
 42
-0.105769
  0
SEQEND
  0
POLYLINE
  8
0
 66
1
 70
1
  0
VERTEX
  8
0
 10
172.552782
 20
142.750000
 42
0.004930
  0
VERTEX
  8
0
 10
174.294992
 20
137.585292
 42
0.257449
  0
VERTEX
  8
0
 10
175.050979
 20
136.906510
 42
0.368027
  0
VERTEX
  8
0
 10
175.817875
 20
137.303428
 42
0.007692
  0
VERTEX
  8
0
 10
177.498446
 20
141.604070
 42
-0.018661
  0
VERTEX
  8
0
 10
178.456190
 20
143.904795
 42
-0.029004
  0
VERTEX
  8
0
 10
179.466948
 20
145.800824
 42
-0.029428
  0
VERTEX
  8
0
 10
180.417153
 20
147.170257
 42
-0.230286
  0
VERTEX
  8
0
 10
181.095128
 20
147.500000
 42
-0.231921
  0
VERTEX
  8
0
 10
181.774114
 20
147.167154
 42
-0.031386
  0
VERTEX
  8
0
 10
182.690927
 20
145.816863
 42
-0.029886
  0
VERTEX
  8
0
 10
183.662837
 20
143.922187
 42
-0.018359
  0
VERTEX
  8
0
 10
184.587747
 20
141.589613
 42
0.007752
  0
VERTEX
  8
0
 10
186.190656
 20
137.282749
 42
0.374520
  0
VERTEX
  8
0
 10
186.946312
 20
136.887134
 42
0.255730
  0
VERTEX
  8
0
 10
187.700201
 20
137.568797
 42
0.004864
  0
VERTEX
  8
0
 10
189.447218
 20
142.750000
 42
-0.016795
  0
VERTEX
  8
0
 10
190.620420
 20
145.973300
 42
-0.090769
  0
VERTEX
  8
0
 10
191.611822
 20
147.541688
 42
-0.288412
  0
VERTEX
  8
0
 10
192.533803
 20
147.791372
 42
-0.181997
  0
VERTEX
  8
0
 10
193.445803
 20
147.087693
 42
-0.227606
  0
VERTEX
  8
0
 10
193.659721
 20
145.076937
 42
-0.009633
  0
VERTEX
  8
0
 10
191.060949
 20
138.190743
 42
-0.009330
  0
VERTEX
  8
0
 10
188.196554
 20
131.392839
 42
-0.243809
  0
VERTEX
  8
0
 10
186.694187
 20
130.190150
 42
-0.217235
  0
VERTEX
  8
0
 10
185.879395
 20
130.381828
 42
-0.087681
  0
VERTEX
  8
0
 10
185.093737
 20
131.247449
 42
-0.049175
  0
VERTEX
  8
0
 10
184.286356
 20
132.861492
 42
-0.015049
  0
VERTEX
  8
0
 10
183.387344
 20
135.440150
 42
0.010033
  0
VERTEX
  8
0
 10
182.668269
 20
137.571217
 42
0.015790
  0
VERTEX
  8
0
 10
181.957185
 20
139.366794
 42
0.009870
  0
VERTEX
  8
0
 10
181.304628
 20
140.795744
 42
0.288277
  0
VERTEX
  8
0
 10
180.979800
 20
141.000000
 42
0.282513
  0
VERTEX
  8
0
 10
180.650663
 20
140.797899
 42
0.009785
  0
VERTEX
  8
0
 10
179.968069
 20
139.384375
 42
0.015671
  0
VERTEX
  8
0
 10
179.219224
 20
137.608085
 42
0.009993
  0
VERTEX
  8
0
 10
178.455336
 20
135.500000
 42
-0.032439
  0
VERTEX
  8
0
 10
176.541966
 20
130.878295
 42
-0.371559
  0
VERTEX
  8
0
 10
174.865076
 20
130.165509
 42
-0.217692
  0
VERTEX
  8
0
 10
173.105633
 20
131.766476
 42
-0.016083
  0
VERTEX
  8
0
 10
170.681134
 20
137.986662
 42
-0.011992
  0
VERTEX
  8
0
 10
169.088310
 20
142.866289
 42
-0.055431
  0
VERTEX
  8
0
 10
168.555211
 20
145.782841
 42
-0.143582
  0
VERTEX
  8
0
 10
168.900007
 20
147.360441
 42
-0.274178
  0
VERTEX
  8
0
 10
169.978650
 20
148.000000
 42
-0.267972
  0
VERTEX
  8
0
 10
170.396397
 20
147.758790
 42
-0.016914
  0
VERTEX
  8
0
 10
171.089806
 20
146.457812
 42
-0.021229
  0
VERTEX
  8
0
 10
171.833794
 20
144.761904
 42
-0.013871
  0
SEQEND
  0
POLYLINE
  8
0
 66
1
 70
1
  0
VERTEX
  8
0
 10
203.000000
 20
139.000000
 42
-0.005946
  0
VERTEX
  8
0
 10
202.943262
 20
134.229484
 42
-0.035355
  0
VERTEX
  8
0
 10
202.708333
 20
131.750000
 42
-0.084509
  0
VERTEX
  8
0
 10
202.256776
 20
130.447695
 42
-0.273642
  0
VERTEX
  8
0
 10
201.500000
 20
130.000000
 42
-0.273642
  0
VERTEX
  8
0
 10
200.743224
 20
130.447695
 42
-0.084509
  0
VERTEX
  8
0
 10
200.291667
 20
131.750000
 42
-0.035355
  0
VERTEX
  8
0
 10
200.056738
 20
134.229484
 42
-0.005946
  0
VERTEX
  8
0
 10
200.000000
 20
139.000000
 42
-0.005946
  0
VERTEX
  8
0
 10
200.056738
 20
143.770516
 42
-0.035355
  0
VERTEX
  8
0
 10
200.291667
 20
146.250000
 42
-0.084509
  0
VERTEX
  8
0
 10
200.743224
 20
147.552305
 42
-0.273642
  0
VERTEX
  8
0
 10
201.500000
 20
148.000000
 42
-0.273642
  0
VERTEX
  8
0
 10
202.256776
 20
147.552305
 42
-0.084509
  0
VERTEX
  8
0
 10
202.708333
 20
146.250000
 42
-0.035355
  0
VERTEX
  8
0
 10
202.943262
 20
143.770516
 42
-0.005946
  0
SEQEND
  0
POLYLINE
  8
0
 66
1
 70
1
  0
VERTEX
  8
0
 10
260.927420
 20
145.365141
 42
-0.094586
  0
VERTEX
  8
0
 10
262.503173
 20
142.322863
 42
-0.074409
  0
VERTEX
  8
0
 10
263.024924
 20
138.640432
 42
-0.076314
  0
VERTEX
  8
0
 10
262.446647
 20
135.060018
 42
-0.110883
  0
VERTEX
  8
0
 10
260.825686
 20
132.314451
 42
-0.104161
  0
VERTEX
  8
0
 10
258.686549
 20
130.822444
 42
-0.070057
  0
VERTEX
  8
0
 10
255.799232
 20
130.049490
 42
-0.068087
  0
VERTEX
  8
0
 10
252.719307
 20
130.093467
 42
-0.085496
  0
VERTEX
  8
0
 10
250.014344
 20
130.992323
 42
-0.136504
  0
VERTEX
  8
0
 10
248.191961
 20
132.733900
 42
-0.066498
  0
VERTEX
  8
0
 10
246.917051
 20
135.716561
 42
-0.063469
  0
VERTEX
  8
0
 10
246.421151
 20
139.127638
 42
-0.088487
  0
VERTEX
  8
0
 10
246.908160
 20
142.166392
 42
-0.058599
  0
VERTEX
  8
0
 10
248.193730
 20
144.810872
 42
-0.097667
  0
VERTEX
  8
0
 10
249.901305
 20
146.592158
 42
-0.096024
  0
VERTEX
  8
0
 10
252.179429
 20
147.610451
 42
-0.055115
  0
VERTEX
  8
0
 10
255.177420
 20
147.968197
 42
-0.036553
  0
VERTEX
  8
0
 10
257.068002
 20
147.846227
 42
-0.072025
  0
VERTEX
  8
0
 10
258.511304
 20
147.429168
 42
-0.075697
  0
VERTEX
  8
0
 10
259.730867
 20
146.636743
 42
-0.044271
  0
SEQEND
  0
POLYLINE
  8
0
 66
1
 70
1
  0
VERTEX
  8
0
 10
272.000000
 20
140.968615
 42
0.018961
  0
VERTEX
  8
0
 10
272.186064
 20
136.063864
 42
0.139259
  0
VERTEX
  8
0
 10
272.988253
 20
133.883685
 42
0.237581
  0
VERTEX
  8
0
 10
274.583976
 20
133.063104
 42
0.063677
  0
VERTEX
  8
0
 10
277.502236
 20
133.411205
 42
0.081774
  0
VERTEX
  8
0
 10
278.915899
 20
134.024097
 42
0.171990
  0
VERTEX
  8
0
 10
279.638100
 20
134.958739
 42
0.072549
  0
VERTEX
  8
0
 10
279.940463
 20
136.695352
 42
0.006885
  0
VERTEX
  8
0
 10
280.000000
 20
141.019052
 42
-0.008488
  0
VERTEX
  8
0
 10
280.061155
 20
144.621211
 42
-0.044455
  0
VERTEX
  8
0
 10
280.303718
 20
146.586509
 42
-0.103570
  0
VERTEX
  8
0
 10
280.764336
 20
147.623370
 42
-0.241099
  0
VERTEX
  8
0
 10
281.500000
 20
148.000000
 42
-0.271126
  0
VERTEX
  8
0
 10
282.255103
 20
147.558057
 42
-0.086051
  0
VERTEX
  8
0
 10
282.707499
 20
146.279446
 42
-0.036005
  0
VERTEX
  8
0
 10
282.942961
 20
143.844851
 42
-0.006109
  0
VERTEX
  8
0
 10
283.000000
 20
139.176677
 42
0.000000
  0
VERTEX
  8
0
 10
283.000000
 20
130.353355
 42
0.000000
  0
VERTEX
  8
0
 10
277.319658
 20
130.203903
 42
-0.018243
  0
VERTEX
  8
0
 10
275.048155
 20
130.227021
 42
-0.021913
  0
VERTEX
  8
0
 10
272.920268
 20
130.420073
 42
-0.021269
  0
VERTEX
  8
0
 10
271.169101
 20
130.732995
 42
-0.118897
  0
VERTEX
  8
0
 10
270.319658
 20
131.149670
 42
-0.205027
  0
VERTEX
  8
0
 10
269.091703
 20
133.545529
 42
-0.019972
  0
VERTEX
  8
0
 10
268.897103
 20
140.199785
 42
-0.017649
  0
VERTEX
  8
0
 10
269.201023
 20
146.802548
 42
-0.390599
  0
VERTEX
  8
0
 10
270.500000
 20
148.000000
 42
-0.242020
  0
VERTEX
  8
0
 10
271.236259
 20
147.621448
 42
-0.103063
  0
VERTEX
  8
0
 10
271.696668
 20
146.578103
 42
-0.044173
  0
VERTEX
  8
0
 10
271.938988
 20
144.599919
 42
-0.008400
  0
SEQEND
  0
POLYLINE
  8
0
 66
1
 70
1
  0
VERTEX
  8
0
 10
20.000000
 20
109.700224
 42
0.011051
  0
VERTEX
  8
0
 10
20.322251
 20
107.222597
 42
0.086590
  0
VERTEX
  8
0
 10
20.690980
 20
106.125336
 42
0.269648
  0
VERTEX
  8
0
 10
21.230884
 20
105.796476
 42
0.148113
  0
VERTEX
  8
0
 10
22.000000
 20
106.012457
 42
-0.092840
  0
VERTEX
  8
0
 10
23.823423
 20
106.746479
 42
-0.056256
  0
VERTEX
  8
0
 10
26.148488
 20
106.944965
 42
-0.057573
  0
VERTEX
  8
0
 10
28.357217
 20
106.628638
 42
-0.132805
  0
VERTEX
  8
0
 10
29.800000
 20
105.800000
 42
-0.142567
  0
VERTEX
  8
0
 10
30.303503
 20
104.883083
 42
-0.021602
  0
VERTEX
  8
0
 10
30.673077
 20
102.801923
 42
-0.020982
  0
VERTEX
  8
0
 10
30.920174
 20
100.081878
 42
-0.012160
  0
VERTEX
  8
0
 10
31.000000
 20
96.800000
 42
-0.007246
  0
VERTEX
  8
0
 10
30.940929
 20
92.724246
 42
-0.040273
  0
VERTEX
  8
0
 10
30.701923
 20
90.550000
 42
-0.095494
  0
VERTEX
  8
0
 10
30.244824
 20
89.406894
 42
-0.255339
  0
VERTEX
  8
0
 10
29.500000
 20
89.000000
 42
-0.242020
  0
VERTEX
  8
0
 10
28.763741
 20
89.378552
 42
-0.103063
  0
VERTEX
  8
0
 10
28.303332
 20
90.421897
 42
-0.044173
  0
VERTEX
  8
0
 10
28.061012
 20
92.400081
 42
-0.008400
  0
VERTEX
  8
0
 10
28.000000
 20
96.031385
 42
0.021531
  0
VERTEX
  8
0
 10
27.786029
 20
100.997904
 42
0.145284
  0
VERTEX
  8
0
 10
26.894407
 20
103.265302
 42
0.264761
  0
VERTEX
  8
0
 10
25.230429
 20
103.949173
 42
0.075096
  0
VERTEX
  8
0
 10
22.436230
 20
103.152898
 42
0.075167
  0
VERTEX
  8
0
 10
21.096867
 20
102.280018
 42
0.134339
  0
VERTEX
  8
0
 10
20.385946
 20
101.185605
 42
0.068182
  0
VERTEX
  8
0
 10
20.070835
 20
99.380834
 42
0.009176
  0
VERTEX
  8
0
 10
20.000000
 20
95.521439
 42
-0.009375
  0
VERTEX
  8
0
 10
19.937431
 20
92.184677
 42
-0.047180
  0
VERTEX
  8
0
 10
19.692497
 20
90.336906
 42
-0.108210
  0
VERTEX
  8
0
 10
19.230023
 20
89.358764
 42
-0.232445
  0
VERTEX
  8
0
 10
18.500000
 20
89.000000
 42
-0.318078
  0
VERTEX
  8
0
 10
17.710064
 20
89.559087
 42
-0.056262
  0
VERTEX
  8
0
 10
17.278662
 20
91.430556
 42
-0.024892
  0
VERTEX
  8
0
 10
17.052128
 20
94.944532
 42
-0.003651
  0
VERTEX
  8
0
 10
17.000000
 20
102.083333
 42
-0.004156
  0
VERTEX
  8
0
 10
17.054292
 20
108.614578
 42
-0.020427
  0
VERTEX
  8
0
 10
17.266034
 20
112.294730
 42
-0.034452
  0
VERTEX
  8
0
 10
17.622339
 20
114.405876
 42
-0.438292
  0
VERTEX
  8
0
 10
18.250000
 20
114.755788
 42
-0.198494
  0
VERTEX
  8
0
 10
18.765301
 20
114.313345
 42
-0.034060
  0
VERTEX
  8
0
 10
19.279688
 20
113.101229
 42
-0.032570
  0
VERTEX
  8
0
 10
19.717155
 20
111.508943
 42
-0.023947
  0
SEQEND
  0
POLYLINE
  8
0
 66
1
 70
1
  0
VERTEX
  8
0
 10
50.927420
 20
104.365141
 42
-0.094586
  0
VERTEX
  8
0
 10
52.503173
 20
101.322863
 42
-0.074409
  0
VERTEX
  8
0
 10
53.024924
 20
97.640432
 42
-0.076314
  0
VERTEX
  8
0
 10
52.446647
 20
94.060018
 42
-0.110883
  0
VERTEX
  8
0
 10
50.825686
 20
91.314451
 42
-0.104161
  0
VERTEX
  8
0
 10
48.686549
 20
89.822444
 42
-0.070057
  0
VERTEX
  8
0
 10
45.799232
 20
89.049490
 42
-0.068087
  0
VERTEX
  8
0
 10
42.719307
 20
89.093467
 42
-0.085496
  0
VERTEX
  8
0
 10
40.014344
 20
89.992323
 42
-0.136504
  0
VERTEX
  8
0
 10
38.191961
 20
91.733900
 42
-0.066498
  0
VERTEX
  8
0
 10
36.917051
 20
94.716561
 42
-0.063469
  0
VERTEX
  8
0
 10
36.421151
 20
98.127638
 42
-0.088487
  0
VERTEX
  8
0
 10
36.908160
 20
101.166392
 42
-0.058599
  0
VERTEX
  8
0
 10
38.193730
 20
103.810872
 42
-0.097667
  0
VERTEX
  8
0
 10
39.901305
 20
105.592158
 42
-0.096024
  0
VERTEX
  8
0
 10
42.179429
 20
106.610451
 42
-0.055115
  0
VERTEX
  8
0
 10
45.177420
 20
106.968197
 42
-0.036553
  0
VERTEX
  8
0
 10
47.068002
 20
106.846227
 42
-0.072025
  0
VERTEX
  8
0
 10
48.511304
 20
106.429168
 42
-0.075697
  0
VERTEX
  8
0
 10
49.730867
 20
105.636743
 42
-0.044271
  0
SEQEND
  0
POLYLINE
  8
0
 66
1
 70
1
  0
VERTEX
  8
0
 10
72.691158
 20
103.572661
 42
-0.129257
  0
VERTEX
  8
0
 10
74.730910
 20
99.385144
 42
-0.151855
  0
VERTEX
  8
0
 10
74.269047
 20
95.011803
 42
-0.140494
  0
VERTEX
  8
0
 10
71.337000
 20
91.428601
 42
-0.105490
  0
VERTEX
  8
0
 10
66.611728
 20
89.454982
 42
0.025006
  0
VERTEX
  8
0
 10
64.456567
 20
88.937967
 42
0.155266
  0
VERTEX
  8
0
 10
63.525753
 20
88.309977
 42
0.146761
  0
VERTEX
  8
0
 10
63.101590
 20
87.241069
 42
0.021583
  0
VERTEX
  8
0
 10
63.000000
 20
84.888709
 42
-0.021266
  0
VERTEX
  8
0
 10
62.922354
 20
83.063928
 42
-0.070892
  0
VERTEX
  8
0
 10
62.653567
 20
81.898118
 42
-0.129240
  0
VERTEX
  8
0
 10
62.181746
 20
81.244438
 42
-0.173855
  0
VERTEX
  8
0
 10
61.500000
 20
81.000000
 42
-0.318439
  0
VERTEX
  8
0
 10
60.709752
 20
81.560086
 42
-0.056028
  0
VERTEX
  8
0
 10
60.278567
 20
83.437872
 42
-0.024813
  0
VERTEX
  8
0
 10
60.052095
 20
86.962948
 42
-0.003636
  0
VERTEX
  8
0
 10
60.000000
 20
94.127229
 42
0.000000
  0
VERTEX
  8
0
 10
60.000000
 20
107.254459
 42
0.000000
  0
VERTEX
  8
0
 10
65.191158
 20
106.755654
 42
-0.022327
  0
VERTEX
  8
0
 10
67.870006
 20
106.376942
 42
-0.054121
  0
VERTEX
  8
0
 10
69.780086
 20
105.800236
 42
-0.065772
  0
VERTEX
  8
0
 10
71.291033
 20
104.909425
 42
-0.049129
  0
SEQEND
  0
POLYLINE
  8
0
 66
1
 70
1
  0
VERTEX
  8
0
 10
92.171259
 20
105.345012
 42
-0.070451
  0
VERTEX
  8
0
 10
92.871832
 20
104.504026
 42
-0.041998
  0
VERTEX
  8
0
 10
93.462807
 20
103.340455
 42
-0.041175
  0
VERTEX
  8
0
 10
93.865428
 20
102.055733
 42
-0.055405
  0
VERTEX
  8
0
 10
94.000000
 20
100.845012
 42
-0.047947
  0
VERTEX
  8
0
 10
93.836134
 20
99.140102
 42
-0.229345
  0
VERTEX
  8
0
 10
93.266698
 20
98.379319
 42
-0.111653
  0
VERTEX
  8
0
 10
92.032398
 20
98.057586
 42
-0.008151
  0
VERTEX
  8
0
 10
88.500000
 20
98.000000
 42
0.012511
  0
VERTEX
  8
0
 10
85.809054
 20
97.932659
 42
0.051694
  0
VERTEX
  8
0
 10
84.202681
 20
97.684396
 42
0.107614
  0
VERTEX
  8
0
 10
83.321969
 20
97.235878
 42
0.225027
  0
VERTEX
  8
0
 10
83.000000
 20
96.556704
 42
0.185349
  0
VERTEX
  8
0
 10
83.589163
 20
95.021974
 42
0.068830
  0
VERTEX
  8
0
 10
85.387586
 20
93.506336
 42
0.062771
  0
VERTEX
  8
0
 10
87.790349
 20
92.382622
 42
0.078178
  0
VERTEX
  8
0
 10
90.222506
 20
92.000000
 42
-0.038722
  0
VERTEX
  8
0
 10
91.420073
 20
91.907117
 42
-0.085297
  0
VERTEX
  8
0
 10
92.287084
 20
91.614986
 42
-0.123730
  0
VERTEX
  8
0
 10
92.808679
 20
91.137398
 42
-0.146843
  0
VERTEX
  8
0
 10
93.000000
 20
90.500000
 42
-0.331769
  0
VERTEX
  8
0
 10
92.123525
 20
89.324481
 42
-0.084306
  0
VERTEX
  8
0
 10
89.610347
 20
89.018347
 42
-0.062966
  0
VERTEX
  8
0
 10
86.340870
 20
89.588888
 42
-0.062335
  0
VERTEX
  8
0
 10
83.304261
 20
90.956042
 42
-0.095872
  0
VERTEX
  8
0
 10
80.865402
 20
93.177169
 42
-0.100201
  0
VERTEX
  8
0
 10
79.478055
 20
96.114977
 42
-0.096806
  0
VERTEX
  8
0
 10
79.316550
 20
99.446079
 42
-0.083363
  0
VERTEX
  8
0
 10
80.390459
 20
102.788172
 42
-0.023779
  0
VERTEX
  8
0
 10
81.083934
 20
103.985984
 42
-0.025796
  0
VERTEX
  8
0
 10
81.870847
 20
105.079134
 42
-0.026473
  0
VERTEX
  8
0
 10
82.636706
 20
105.937604
 42
-0.102074
  0
VERTEX
  8
0
 10
83.228960
 20
106.330706
 42
-0.073391
  0
VERTEX
  8
0
 10
85.452849
 20
106.865532
 42
-0.049860
  0
VERTEX
  8
0
 10
88.060638
 20
106.839070
 42
-0.051112
  0
VERTEX
  8
0
 10
90.495539
 20
106.315198
 42
-0.105769
  0
SEQEND
  0
POLYLINE
  8
0
 66
1
 70
1
  0
VERTEX
  8
0
 10
104.000000
 20
91.000000
 42
-0.075780
  0
VERTEX
  8
0
 10
103.857434
 20
90.064742
 42
-0.149477
  0
VERTEX
  8
0
 10
103.437500
 20
89.450000
 42
-0.124434
  0
VERTEX
  8
0
 10
102.682766
 20
89.106468
 42
-0.044917
  0
VERTEX
  8
0
 10
101.500000
 20
89.000000
 42
-0.044917
  0
VERTEX
  8
0
 10
100.317234
 20
89.106468
 42
-0.124434
  0
VERTEX
  8
0
 10
99.562500
 20
89.450000
 42
-0.149477
  0
VERTEX
  8
0
 10
99.142566
 20
90.064742
 42
-0.075780
  0
VERTEX
  8
0
 10
99.000000
 20
91.000000
 42
-0.075780
  0
VERTEX
  8
0
 10
99.142566
 20
91.935258
 42
-0.149477
  0
VERTEX
  8
0
 10
99.562500
 20
92.550000
 42
-0.124434
  0
VERTEX
  8
0
 10
100.317234
 20
92.893532
 42
-0.044917
  0
VERTEX
  8
0
 10
101.500000
 20
93.000000
 42
-0.044917
  0
VERTEX
  8
0
 10
102.682766
 20
92.893532
 42
-0.124434
  0
VERTEX
  8
0
 10
103.437500
 20
92.550000
 42
-0.149477
  0
VERTEX
  8
0
 10
103.857434
 20
91.935258
 42
-0.075780
  0
SEQEND
  0
POLYLINE
  8
0
 66
1
 70
1
  0
VERTEX
  8
0
 10
21.557905
 20
233.224571
 42
0.177711
  0
VERTEX
  8
0
 10
21.334772
 20
232.742689
 42
0.004808
  0
VERTEX
  8
0
 10
21.163884
 20
230.382634
 42
0.009419
  0
VERTEX
  8
0
 10
21.040411
 20
227.567230
 42
0.006248
  0
VERTEX
  8
0
 10
21.000000
 20
224.333333
 42
0.000000
  0
VERTEX
  8
0
 10
21.000000
 20
216.000000
 42
0.000000
  0
VERTEX
  8
0
 10
23.889216
 20
216.000000
 42
0.056582
  0
VERTEX
  8
0
 10
25.167573
 20
216.145129
 42
0.034486
  0
VERTEX
  8
0
 10
26.623205
 20
216.587500
 42
0.034229
  0
VERTEX
  8
0
 10
28.024065
 20
217.234056
 42
0.050545
  0
VERTEX
  8
0
 10
29.139216
 20
218.000000
 42
0.000000
  0
VERTEX
  8
0
 10
31.500000
 20
220.000000
 42
0.000000
  0
VERTEX
  8
0
 10
29.139216
 20
222.000000
 42
0.034819
  0
VERTEX
  8
0
 10
28.096521
 20
222.765436
 42
0.030958
  0
VERTEX
  8
0
 10
26.916955
 20
223.412500
 42
0.032278
  0
VERTEX
  8
0
 10
25.779939
 20
223.860467
 42
0.077851
  0
VERTEX
  8
0
 10
24.889216
 20
224.000000
 42
-0.104192
  0
VERTEX
  8
0
 10
23.492440
 20
224.294260
 42
-0.341149
  0
VERTEX
  8
0
 10
23.070209
 20
225.070855
 42
-0.204773
  0
VERTEX
  8
0
 10
23.707006
 20
226.078687
 42
-0.060073
  0
VERTEX
  8
0
 10
25.363615
 20
226.948147
 42
0.074336
  0
VERTEX
  8
0
 10
27.120023
 20
227.934578
 42
0.116034
  0
VERTEX
  8
0
 10
28.205423
 20
229.277775
 42
0.161246
  0
VERTEX
  8
0
 10
28.383422
 20
230.651377
 42
0.181317
  0
VERTEX
  8
0
 10
27.690559
 20
231.782455
 42
0.070384
  0
VERTEX
  8
0
 10
26.251709
 20
232.609947
 42
0.037623
  0
VERTEX
  8
0
 10
24.292036
 20
233.229414
 42
0.033971
  0
VERTEX
  8
0
 10
22.425442
 20
233.536473
 42
0.223757
  0
SEQEND
  0
POLYLINE
  8
0
 66
1
 70
1
  0
VERTEX
  8
0
 10
43.041959
 20
226.550558
 42
0.072312
  0
VERTEX
  8
0
 10
42.535429
 20
225.721321
 42
0.389727
  0
VERTEX
  8
0
 10
42.696227
 20
225.265675
 42
0.114231
  0
VERTEX
  8
0
 10
43.540390
 20
225.040364
 42
0.008337
  0
VERTEX
  8
0
 10
45.960889
 20
225.000000
 42
0.017323
  0
VERTEX
  8
0
 10
47.867206
 20
225.066067
 42
0.062300
  0
VERTEX
  8
0
 10
49.059124
 20
225.299904
 42
0.139220
  0
VERTEX
  8
0
 10
49.649763
 20
225.699511
 42
0.259761
  0
VERTEX
  8
0
 10
49.756214
 20
226.250000
 42
0.220431
  0
VERTEX
  8
0
 10
48.754847
 20
227.322328
 42
0.085444
  0
VERTEX
  8
0
 10
46.721498
 20
227.766805
 42
0.080042
  0
VERTEX
  8
0
 10
44.522114
 20
227.512736
 42
0.151984
  0
SEQEND
  0
POLYLINE
  8
0
 66
1
 70
1
  0
VERTEX
  8
0
 10
91.041959
 20
226.550558
 42
0.072312
  0
VERTEX
  8
0
 10
90.535429
 20
225.721321
 42
0.389727
  0
VERTEX
  8
0
 10
90.696227
 20
225.265675
 42
0.114231
  0
VERTEX
  8
0
 10
91.540390
 20
225.040364
 42
0.008337
  0
VERTEX
  8
0
 10
93.960889
 20
225.000000
 42
0.017323
  0
VERTEX
  8
0
 10
95.867206
 20
225.066067
 42
0.062300
  0
VERTEX
  8
0
 10
97.059124
 20
225.299904
 42
0.139220
  0
VERTEX
  8
0
 10
97.649763
 20
225.699511
 42
0.259761
  0
VERTEX
  8
0
 10
97.756214
 20
226.250000
 42
0.220431
  0
VERTEX
  8
0
 10
96.754847
 20
227.322328
 42
0.085444
  0
VERTEX
  8
0
 10
94.721498
 20
227.766805
 42
0.080042
  0
VERTEX
  8
0
 10
92.522114
 20
227.512736
 42
0.151984
  0
SEQEND
  0
POLYLINE
  8
0
 66
1
 70
1
  0
VERTEX
  8
0
 10
159.035184
 20
226.065741
 42
0.078009
  0
VERTEX
  8
0
 10
158.139543
 20
223.498705
 42
0.073618
  0
VERTEX
  8
0
 10
158.047993
 20
220.727365
 42
0.080416
  0
VERTEX
  8
0
 10
158.738415
 20
218.275053
 42
0.131973
  0
VERTEX
  8
0
 10
160.114802
 20
216.632143
 42
0.148618
  0
VERTEX
  8
0
 10
162.753965
 20
215.769436
 42
0.158465
  0
VERTEX
  8
0
 10
165.350941
 20
216.554188
 42
0.136691
  0
VERTEX
  8
0
 10
167.258337
 20
218.859003
 42
0.102197
  0
VERTEX
  8
0
 10
167.968197
 20
222.095012
 42
0.154735
  0
VERTEX
  8
0
 10
167.002199
 20
225.276542
 42
0.138554
  0
VERTEX
  8
0
 10
164.342163
 20
227.488228
 42
0.164277
  0
VERTEX
  8
0
 10
161.254868
 20
227.775010
 42
0.214810
  0
SEQEND
  0
POLYLINE
  8
0
 66
1
 70
1
  0
VERTEX
  8
0
 10
67.000000
 20
186.290565
 42
0.063358
  0
VERTEX
  8
0
 10
65.071496
 20
185.289269
 42
0.063357
  0
VERTEX
  8
0
 10
63.455143
 20
183.836970
 42
0.068831
  0
VERTEX
  8
0
 10
62.368973
 20
182.160237
 42
0.109781
  0
VERTEX
  8
0
 10
62.000000
 20
180.500000
 42
0.119052
  0
VERTEX
  8
0
 10
62.473501
 20
178.539552
 42
0.085314
  0
VERTEX
  8
0
 10
63.832946
 20
176.729568
 42
0.083534
  0
VERTEX
  8
0
 10
65.750991
 20
175.446144
 42
0.106153
  0
VERTEX
  8
0
 10
67.828741
 20
175.000000
 42
0.104198
  0
VERTEX
  8
0
 10
69.013900
 20
175.249693
 42
0.204868
  0
VERTEX
  8
0
 10
69.659531
 20
175.940843
 42
0.078973
  0
VERTEX
  8
0
 10
69.942700
 20
177.416444
 42
0.007994
  0
VERTEX
  8
0
 10
70.000000
 20
181.000000
 42
0.008465
  0
VERTEX
  8
0
 10
69.933281
 20
184.940390
 42
0.121081
  0
VERTEX
  8
0
 10
69.555041
 20
186.281734
 42
0.301904
  0
VERTEX
  8
0
 10
68.722456
 20
186.703145
 42
0.058692
  0
SEQEND
  0
POLYLINE
  8
0
 66
1
 70
1
  0
VERTEX
  8
0
 10
136.763028
 20
186.989365
 42
0.034234
  0
VERTEX
  8
0
 10
135.960169
 20
184.586577
 42
0.240347
  0
VERTEX
  8
0
 10
136.218669
 20
183.418064
 42
0.233271
  0
VERTEX
  8
0
 10
137.325797
 20
182.919676
 42
0.032431
  0
VERTEX
  8
0
 10
139.904478
 20
183.178921
 42
0.048435
  0
VERTEX
  8
0
 10
141.007967
 20
183.474638
 42
0.304613
  0
VERTEX
  8
0
 10
141.330068
 20
183.925051
 42
0.121123
  0
VERTEX
  8
0
 10
141.159682
 20
184.718092
 42
0.006767
  0
VERTEX
  8
0
 10
140.016677
 20
186.989365
 42
0.000000
  0
VERTEX
  8
0
 10
138.201078
 20
190.478731
 42
0.000000
  0
SEQEND
  0
POLYLINE
  8
0
 66
1
 70
1
  0
VERTEX
  8
0
 10
21.250000
 20
179.968838
 42
0.098774
  0
VERTEX
  8
0
 10
19.697283
 20
178.953549
 42
0.184781
  0
VERTEX
  8
0
 10
19.081170
 20
177.607838
 42
0.187063
  0
VERTEX
  8
0
 10
19.523625
 20
176.207039
 42
0.101245
  0
VERTEX
  8
0
 10
20.934259
 20
175.035184
 42
0.044942
  0
VERTEX
  8
0
 10
23.329052
 20
174.018239
 42
0.193510
  0
VERTEX
  8
0
 10
24.843143
 20
174.125231
 42
0.223316
  0
VERTEX
  8
0
 10
25.726164
 20
175.220470
 42
0.059849
  0
VERTEX
  8
0
 10
26.000000
 20
177.500000
 42
0.041654
  0
VERTEX
  8
0
 10
25.811188
 20
179.762507
 42
0.235449
  0
VERTEX
  8
0
 10
25.119707
 20
180.712898
 42
0.190591
  0
VERTEX
  8
0
 10
23.827075
 20
180.846070
 42
0.027052
  0
SEQEND
  0
POLYLINE
  8
0
 66
1
 70
1
  0
VERTEX
  8
0
 10
268.250000
 20
179.968838
 42
0.098774
  0
VERTEX
  8
0
 10
266.697283
 20
178.953549
 42
0.184781
  0
VERTEX
  8
0
 10
266.081170
 20
177.607838
 42
0.187063
  0
VERTEX
  8
0
 10
266.523625
 20
176.207039
 42
0.101245
  0
VERTEX
  8
0
 10
267.934259
 20
175.035184
 42
0.044942
  0
VERTEX
  8
0
 10
270.329052
 20
174.018239
 42
0.193510
  0
VERTEX
  8
0
 10
271.843143
 20
174.125231
 42
0.223316
  0
VERTEX
  8
0
 10
272.726164
 20
175.220470
 42
0.059849
  0
VERTEX
  8
0
 10
273.000000
 20
177.500000
 42
0.041654
  0
VERTEX
  8
0
 10
272.811188
 20
179.762507
 42
0.235449
  0
VERTEX
  8
0
 10
272.119707
 20
180.712898
 42
0.190591
  0
VERTEX
  8
0
 10
270.827075
 20
180.846070
 42
0.027052
  0
SEQEND
  0
POLYLINE
  8
0
 66
1
 70
1
  0
VERTEX
  8
0
 10
35.035184
 20
143.065741
 42
0.078009
  0
VERTEX
  8
0
 10
34.139543
 20
140.498705
 42
0.073618
  0
VERTEX
  8
0
 10
34.047993
 20
137.727365
 42
0.080416
  0
VERTEX
  8
0
 10
34.738415
 20
135.275053
 42
0.131973
  0
VERTEX
  8
0
 10
36.114802
 20
133.632143
 42
0.148618
  0
VERTEX
  8
0
 10
38.753965
 20
132.769436
 42
0.158465
  0
VERTEX
  8
0
 10
41.350941
 20
133.554188
 42
0.136691
  0
VERTEX
  8
0
 10
43.258337
 20
135.859003
 42
0.102197
  0
VERTEX
  8
0
 10
43.968197
 20
139.095012
 42
0.154735
  0
VERTEX
  8
0
 10
43.002199
 20
142.276542
 42
0.138554
  0
VERTEX
  8
0
 10
40.342163
 20
144.488228
 42
0.164277
  0
VERTEX
  8
0
 10
37.254868
 20
144.775010
 42
0.214810
  0
SEQEND
  0
POLYLINE
  8
0
 66
1
 70
1
  0
VERTEX
  8
0
 10
126.041959
 20
143.550558
 42
0.072312
  0
VERTEX
  8
0
 10
125.535429
 20
142.721321
 42
0.389727
  0
VERTEX
  8
0
 10
125.696227
 20
142.265675
 42
0.114231
  0
VERTEX
  8
0
 10
126.540390
 20
142.040364
 42
0.008337
  0
VERTEX
  8
0
 10
128.960889
 20
142.000000
 42
0.017323
  0
VERTEX
  8
0
 10
130.867206
 20
142.066067
 42
0.062300
  0
VERTEX
  8
0
 10
132.059124
 20
142.299904
 42
0.139220
  0
VERTEX
  8
0
 10
132.649763
 20
142.699511
 42
0.259761
  0
VERTEX
  8
0
 10
132.756214
 20
143.250000
 42
0.220431
  0
VERTEX
  8
0
 10
131.754847
 20
144.322328
 42
0.085444
  0
VERTEX
  8
0
 10
129.721498
 20
144.766805
 42
0.080042
  0
VERTEX
  8
0
 10
127.522114
 20
144.512736
 42
0.151984
  0
SEQEND
  0
POLYLINE
  8
0
 66
1
 70
1
  0
VERTEX
  8
0
 10
251.035184
 20
143.065741
 42
0.078009
  0
VERTEX
  8
0
 10
250.139543
 20
140.498705
 42
0.073618
  0
VERTEX
  8
0
 10
250.047993
 20
137.727365
 42
0.080416
  0
VERTEX
  8
0
 10
250.738415
 20
135.275053
 42
0.131973
  0
VERTEX
  8
0
 10
252.114802
 20
133.632143
 42
0.148618
  0
VERTEX
  8
0
 10
254.753965
 20
132.769436
 42
0.158465
  0
VERTEX
  8
0
 10
257.350941
 20
133.554188
 42
0.136691
  0
VERTEX
  8
0
 10
259.258337
 20
135.859003
 42
0.102197
  0
VERTEX
  8
0
 10
259.968197
 20
139.095012
 42
0.154735
  0
VERTEX
  8
0
 10
259.002199
 20
142.276542
 42
0.138554
  0
VERTEX
  8
0
 10
256.342163
 20
144.488228
 42
0.164277
  0
VERTEX
  8
0
 10
253.254868
 20
144.775010
 42
0.214810
  0
SEQEND
  0
POLYLINE
  8
0
 66
1
 70
1
  0
VERTEX
  8
0
 10
41.035184
 20
102.065741
 42
0.135575
  0
VERTEX
  8
0
 10
39.942984
 20
97.224544
 42
0.179301
  0
VERTEX
  8
0
 10
41.698938
 20
93.099500
 42
0.244841
  0
VERTEX
  8
0
 10
45.199872
 20
91.887489
 42
0.192702
  0
VERTEX
  8
0
 10
48.718197
 20
93.938029
 42
0.089736
  0
VERTEX
  8
0
 10
49.635132
 20
95.684868
 42
0.085063
  0
VERTEX
  8
0
 10
49.904898
 20
97.675965
 42
0.079337
  0
VERTEX
  8
0
 10
49.496516
 20
99.761220
 42
0.064910
  0
VERTEX
  8
0
 10
48.443296
 20
101.777494
 42
0.113193
  0
VERTEX
  8
0
 10
46.731049
 20
103.323302
 42
0.118054
  0
VERTEX
  8
0
 10
44.542581
 20
103.938203
 42
0.129612
  0
VERTEX
  8
0
 10
42.466763
 20
103.476413
 42
0.151830
  0
SEQEND
  0
POLYLINE
  8
0
 66
1
 70
1
  0
VERTEX
  8
0
 10
63.000000
 20
98.000000
 42
0.008323
  0
VERTEX
  8
0
 10
63.058310
 20
94.497189
 42
0.073950
  0
VERTEX
  8
0
 10
63.335227
 20
92.983333
 42
0.193393
  0
VERTEX
  8
0
 10
63.952190
 20
92.266443
 42
0.120099
  0
VERTEX
  8
0
 10
65.045455
 20
92.000000
 42
0.136034
  0
VERTEX
  8
0
 10
67.316393
 20
92.629499
 42
0.073691
  0
VERTEX
  8
0
 10
69.572599
 20
94.483802
 42
0.075993
  0
VERTEX
  8
0
 10
71.125874
 20
96.833773
 42
0.173752
  0
VERTEX
  8
0
 10
71.310579
 20
98.920346
 42
0.100880
  0
VERTEX
  8
0
 10
70.424308
 20
100.723392
 42
0.063076
  0
VERTEX
  8
0
 10
68.757507
 20
102.395117
 42
0.063184
  0
VERTEX
  8
0
 10
66.730772
 20
103.595413
 42
0.102479
  0
VERTEX
  8
0
 10
64.777494
 20
104.000000
 42
0.163140
  0
VERTEX
  8
0
 10
63.871659
 20
103.696363
 42
0.160334
  0
VERTEX
  8
0
 10
63.324062
 20
102.906115
 42
0.062854
  0
VERTEX
  8
0
 10
63.060952
 20
101.300942
 42
0.009232
  0
SEQEND
  0
POLYLINE
  8
0
 66
1
 70
1
  0
VERTEX
  8
0
 10
84.041959
 20
102.550558
 42
0.072312
  0
VERTEX
  8
0
 10
83.535429
 20
101.721321
 42
0.389727
  0
VERTEX
  8
0
 10
83.696227
 20
101.265675
 42
0.114231
  0
VERTEX
  8
0
 10
84.540390
 20
101.040364
 42
0.008337
  0
VERTEX
  8
0
 10
86.960889
 20
101.000000
 42
0.017323
  0
VERTEX
  8
0
 10
88.867206
 20
101.066067
 42
0.062300
  0
VERTEX
  8
0
 10
90.059124
 20
101.299904
 42
0.139220
  0
VERTEX
  8
0
 10
90.649763
 20
101.699511
 42
0.259761
  0
VERTEX
  8
0
 10
90.756214
 20
102.250000
 42
0.220431
  0
VERTEX
  8
0
 10
89.754847
 20
103.322328
 42
0.085444
  0
VERTEX
  8
0
 10
87.721498
 20
103.766805
 42
0.080042
  0
VERTEX
  8
0
 10
85.522114
 20
103.512736
 42
0.151984
  0
SEQEND
  0
ENDSEC
  0
EOF
