  0
SECTION
  2
HEADER
  9
$ACADVER
  1
AC1006
  9
$EXTMIN
 10
0.000000
 20
0.000000
 30
0.000000
  9
$EXTMAX
 10
318.000000
 20
319.000000
 30
0.000000
  0
ENDSEC
  0
SECTION
  2
ENTITIES
  0
POLYLINE
  8
0
 66
1
 70
1
  0
VERTEX
  8
0
 10
0.000000
 20
159.500000
 42
0.000000
  0
VERTEX
  8
0
 10
0.000000
 20
0.000000
 42
0.000000
  0
VERTEX
  8
0
 10
159.000000
 20
0.000000
 42
0.000000
  0
VERTEX
  8
0
 10
318.000000
 20
0.000000
 42
0.000000
  0
VERTEX
  8
0
 10
318.000000
 20
159.500000
 42
0.000000
  0
VERTEX
  8
0
 10
318.000000
 20
319.000000
 42
0.000000
  0
VERTEX
  8
0
 10
159.000000
 20
319.000000
 42
0.000000
  0
VERTEX
  8
0
 10
0.000000
 20
319.000000
 42
0.000000
  0
SEQEND
  0
POLYLINE
  8
0
 66
1
 70
1
  0
VERTEX
  8
0
 10
224.000000
 20
142.524751
 42
0.000000
  0
VERTEX
  8
0
 10
224.000000
 20
136.049502
 42
0.000000
  0
VERTEX
  8
0
 10
226.500000
 20
137.000000
 42
-0.122827
  0
VERTEX
  8
0
 10
230.129672
 20
137.433583
 42
-0.151264
  0
VERTEX
  8
0
 10
233.221025
 20
136.031544
 42
-0.130570
  0
VERTEX
  8
0
 10
235.286187
 20
132.914113
 42
-0.081533
  0
VERTEX
  8
0
 10
236.000000
 20
128.565741
 42
-0.081233
  0
VERTEX
  8
0
 10
235.423971
 20
125.043613
 42
-0.152701
  0
VERTEX
  8
0
 10
233.747835
 20
122.731576
 42
-0.121691
  0
VERTEX
  8
0
 10
230.738946
 20
121.465602
 42
-0.042562
  0
VERTEX
  8
0
 10
226.022709
 20
121.130198
 42
0.000000
  0
VERTEX
  8
0
 10
220.000000
 20
121.214978
 42
0.000000
  0
VERTEX
  8
0
 10
220.000000
 20
135.107489
 42
-0.002456
  0
VERTEX
  8
0
 10
220.042876
 20
143.837564
 42
-0.033302
  0
VERTEX
  8
0
 10
220.285991
 20
147.013436
 42
-0.127775
  0
VERTEX
  8
0
 10
220.888383
 20
148.449617
 42
-0.234004
  0
VERTEX
  8
0
 10
222.000000
 20
149.000000
 42
-0.134086
  0
VERTEX
  8
0
 10
223.065796
 20
148.708950
 42
-0.186638
  0
VERTEX
  8
0
 10
223.672783
 20
147.940594
 42
-0.067536
  0
VERTEX
  8
0
 10
223.943496
 20
146.311860
 42
-0.007460
  0
SEQEND
  0
POLYLINE
  8
0
 66
1
 70
1
  0
VERTEX
  8
0
 10
243.778220
 20
134.750000
 42
0.000000
  0
VERTEX
  8
0
 10
244.056439
 20
121.000000
 42
0.000000
  0
VERTEX
  8
0
 10
241.528220
 20
121.000000
 42
0.000000
  0
VERTEX
  8
0
 10
239.000000
 20
121.000000
 42
0.000000
  0
VERTEX
  8
0
 10
239.000000
 20
135.069551
 42
-0.002001
  0
VERTEX
  8
0
 10
239.037454
 20
144.427329
 42
-0.038568
  0
VERTEX
  8
0
 10
239.284302
 20
147.320947
 42
-0.189698
  0
VERTEX
  8
0
 10
239.975900
 20
148.482225
 42
-0.202656
  0
VERTEX
  8
0
 10
241.250000
 20
148.819551
 42
-0.177365
  0
VERTEX
  8
0
 10
242.536106
 20
148.129989
 42
-0.138313
  0
VERTEX
  8
0
 10
243.234776
 20
146.693471
 42
-0.036953
  0
VERTEX
  8
0
 10
243.555098
 20
143.622343
 42
-0.002456
  0
SEQEND
  0
POLYLINE
  8
0
 66
1
 70
1
  0
VERTEX
  8
0
 10
48.000000
 20
133.500000
 42
0.000000
  0
VERTEX
  8
0
 10
48.000000
 20
121.000000
 42
0.000000
  0
VERTEX
  8
0
 10
45.500000
 20
121.000000
 42
0.000000
  0
VERTEX
  8
0
 10
43.000000
 20
121.000000
 42
0.000000
  0
VERTEX
  8
0
 10
43.000000
 20
133.500000
 42
0.000000
  0
VERTEX
  8
0
 10
43.000000
 20
146.000000
 42
0.000000
  0
VERTEX
  8
0
 10
45.500000
 20
146.000000
 42
0.000000
  0
VERTEX
  8
0
 10
48.000000
 20
146.000000
 42
0.000000
  0
SEQEND
  0
POLYLINE
  8
0
 66
1
 70
1
  0
VERTEX
  8
0
 10
57.000000
 20
140.000000
 42
0.033607
  0
VERTEX
  8
0
 10
57.088963
 20
138.677925
 42
0.082504
  0
VERTEX
  8
0
 10
57.375000
 20
137.750000
 42
0.126510
  0
VERTEX
  8
0
 10
57.851045
 20
137.202091
 42
0.152103
  0
VERTEX
  8
0
 10
58.500000
 20
137.000000
 42
-0.101174
  0
VERTEX
  8
0
 10
59.072412
 20
136.882975
 42
-0.098422
  0
VERTEX
  8
0
 10
59.559375
 20
136.550156
 42
-0.097427
  0
VERTEX
  8
0
 10
59.885603
 20
136.053098
 42
-0.096942
  0
VERTEX
  8
0
 10
60.000000
 20
135.468615
 42
-0.088478
  0
VERTEX
  8
0
 10
59.887915
 20
134.840167
 42
-0.066520
  0
VERTEX
  8
0
 10
59.559375
 20
134.217991
 42
-0.065663
  0
VERTEX
  8
0
 10
59.073415
 20
133.696157
 42
-0.081035
  0
VERTEX
  8
0
 10
58.500000
 20
133.361626
 42
0.172846
  0
VERTEX
  8
0
 10
57.797761
 20
132.759595
 42
0.073106
  0
VERTEX
  8
0
 10
57.338054
 20
131.587643
 42
0.043690
  0
VERTEX
  8
0
 10
57.075561
 20
129.732186
 42
0.013304
  0
VERTEX
  8
0
 10
57.000000
 20
126.893011
 42
-0.007587
  0
VERTEX
  8
0
 10
56.944088
 20
123.208600
 42
-0.092984
  0
VERTEX
  8
0
 10
56.643942
 20
121.839301
 42
-0.224397
  0
VERTEX
  8
0
 10
55.934708
 20
121.207023
 42
-0.071776
  0
VERTEX
  8
0
 10
54.500000
 20
121.000000
 42
-0.078054
  0
VERTEX
  8
0
 10
53.067287
 20
121.225028
 42
-0.216066
  0
VERTEX
  8
0
 10
52.329164
 20
121.895184
 42
-0.086908
  0
VERTEX
  8
0
 10
51.980562
 20
123.353436
 42
-0.007247
  0
VERTEX
  8
0
 10
51.798161
 20
127.250000
 42
-0.008087
  0
VERTEX
  8
0
 10
51.662524
 20
135.668634
 42
-0.049686
  0
VERTEX
  8
0
 10
52.092347
 20
139.980601
 42
-0.128154
  0
VERTEX
  8
0
 10
53.158204
 20
142.167169
 42
-0.218982
  0
VERTEX
  8
0
 10
54.968615
 20
143.000000
 42
-0.078304
  0
VERTEX
  8
0
 10
55.965249
 20
142.842955
 42
-0.167286
  0
VERTEX
  8
0
 10
56.580718
 20
142.380794
 42
-0.118751
  0
VERTEX
  8
0
 10
56.907487
 20
141.509526
 42
-0.030614
  0
SEQEND
  0
POLYLINE
  8
0
 66
1
 70
1
  0
VERTEX
  8
0
 10
166.178434
 20
139.750000
 42
0.031926
  0
VERTEX
  8
0
 10
166.110759
 20
138.463920
 42
0.104217
  0
VERTEX
  8
0
 10
166.294911
 20
137.636308
 42
0.166536
  0
VERTEX
  8
0
 10
166.733748
 20
137.171505
 42
0.121615
  0
VERTEX
  8
0
 10
167.428434
 20
137.000000
 42
-0.119266
  0
VERTEX
  8
0
 10
168.046026
 20
136.850559
 42
-0.107907
  0
VERTEX
  8
0
 10
168.553554
 20
136.431846
 42
-0.094938
  0
VERTEX
  8
0
 10
168.885953
 20
135.788195
 42
-0.071972
  0
VERTEX
  8
0
 10
169.000000
 20
135.000000
 42
-0.072314
  0
VERTEX
  8
0
 10
168.888136
 20
134.230589
 42
-0.088920
  0
VERTEX
  8
0
 10
168.562500
 20
133.583333
 42
-0.102140
  0
VERTEX
  8
0
 10
168.075754
 20
133.153209
 42
-0.130775
  0
VERTEX
  8
0
 10
167.500000
 20
133.000000
 42
0.222027
  0
VERTEX
  8
0
 10
166.776970
 20
132.662288
 42
0.113455
  0
VERTEX
  8
0
 10
166.312500
 20
131.750000
 42
0.050675
  0
VERTEX
  8
0
 10
166.064452
 20
130.035942
 42
0.010614
  0
VERTEX
  8
0
 10
166.000000
 20
127.000000
 42
-0.008455
  0
VERTEX
  8
0
 10
165.941290
 20
123.528387
 42
-0.072107
  0
VERTEX
  8
0
 10
165.666667
 20
122.000000
 42
-0.188641
  0
VERTEX
  8
0
 10
165.060666
 20
121.272668
 42
-0.126480
  0
VERTEX
  8
0
 10
164.000000
 20
121.000000
 42
-0.126480
  0
VERTEX
  8
0
 10
162.939334
 20
121.272668
 42
-0.188641
  0
VERTEX
  8
0
 10
162.333333
 20
122.000000
 42
-0.072107
  0
VERTEX
  8
0
 10
162.058710
 20
123.528387
 42
-0.008455
  0
VERTEX
  8
0
 10
162.000000
 20
127.000000
 42
0.015416
  0
VERTEX
  8
0
 10
161.928566
 20
129.316313
 42
0.025878
  0
VERTEX
  8
0
 10
161.708333
 20
131.250000
 42
0.024068
  0
VERTEX
  8
0
 10
161.395008
 20
132.696775
 42
0.339565
  0
VERTEX
  8
0
 10
161.000000
 20
133.000000
 42
-0.191087
  0
VERTEX
  8
0
 10
160.618118
 20
133.151477
 42
-0.088204
  0
VERTEX
  8
0
 10
160.293750
 20
133.587500
 42
-0.068025
  0
VERTEX
  8
0
 10
160.073693
 20
134.234582
 42
-0.048028
  0
VERTEX
  8
0
 10
160.000000
 20
135.000000
 42
-0.048028
  0
VERTEX
  8
0
 10
160.073693
 20
135.765418
 42
-0.068025
  0
VERTEX
  8
0
 10
160.293750
 20
136.412500
 42
-0.088204
  0
VERTEX
  8
0
 10
160.618118
 20
136.848523
 42
-0.191087
  0
VERTEX
  8
0
 10
161.000000
 20
137.000000
 42
0.258429
  0
VERTEX
  8
0
 10
161.384457
 20
137.212930
 42
0.061145
  0
VERTEX
  8
0
 10
161.706250
 20
137.901681
 42
0.047887
  0
VERTEX
  8
0
 10
161.927271
 20
138.893610
 42
0.030894
  0
VERTEX
  8
0
 10
162.000000
 20
140.069551
 42
-0.024371
  0
VERTEX
  8
0
 10
162.081295
 20
141.736387
 42
-0.148135
  0
VERTEX
  8
0
 10
162.407226
 20
142.525711
 42
-0.206043
  0
VERTEX
  8
0
 10
163.052884
 20
142.860755
 42
-0.053387
  0
VERTEX
  8
0
 10
164.250000
 20
142.819551
 42
-0.057256
  0
VERTEX
  8
0
 10
165.371895
 20
142.526542
 42
-0.161382
  0
VERTEX
  8
0
 10
165.989184
 20
142.017216
 42
-0.134801
  0
VERTEX
  8
0
 10
166.243580
 20
141.173789
 42
-0.035355
  0
SEQEND
  0
POLYLINE
  8
0
 66
1
 70
1
  0
VERTEX
  8
0
 10
83.000000
 20
136.000000
 42
-0.071778
  0
VERTEX
  8
0
 10
83.991436
 20
134.674186
 42
-0.067022
  0
VERTEX
  8
0
 10
84.596154
 20
133.091346
 42
-0.044575
  0
VERTEX
  8
0
 10
84.910171
 20
130.894840
 42
-0.013228
  0
VERTEX
  8
0
 10
85.000000
 20
127.500000
 42
-0.006367
  0
VERTEX
  8
0
 10
84.947488
 20
123.376461
 42
-0.085635
  0
VERTEX
  8
0
 10
84.653846
 20
121.900000
 42
-0.226921
  0
VERTEX
  8
0
 10
83.940826
 20
121.225912
 42
-0.077921
  0
VERTEX
  8
0
 10
82.500000
 20
121.000000
 42
-0.072846
  0
VERTEX
  8
0
 10
81.064029
 20
121.210324
 42
-0.224968
  0
VERTEX
  8
0
 10
80.354167
 20
121.850000
 42
-0.091609
  0
VERTEX
  8
0
 10
80.055253
 20
123.238228
 42
-0.007344
  0
VERTEX
  8
0
 10
80.000000
 20
127.000000
 42
0.008800
  0
VERTEX
  8
0
 10
79.940273
 20
130.393488
 42
0.067708
  0
VERTEX
  8
0
 10
79.671125
 20
131.957612
 42
0.176099
  0
VERTEX
  8
0
 10
79.092222
 20
132.712456
 42
0.142945
  0
VERTEX
  8
0
 10
78.106989
 20
133.000000
 42
0.150990
  0
VERTEX
  8
0
 10
76.647501
 20
132.548981
 42
0.146648
  0
VERTEX
  8
0
 10
75.676663
 20
131.348783
 42
0.077589
  0
VERTEX
  8
0
 10
75.146919
 20
129.126936
 42
0.019799
  0
VERTEX
  8
0
 10
75.000000
 20
125.418213
 42
-0.014442
  0
VERTEX
  8
0
 10
74.929927
 20
122.992651
 42
-0.092087
  0
VERTEX
  8
0
 10
74.636832
 20
121.802277
 42
-0.187612
  0
VERTEX
  8
0
 10
74.033518
 20
121.211603
 42
-0.101320
  0
VERTEX
  8
0
 10
73.000000
 20
121.000000
 42
-0.156925
  0
VERTEX
  8
0
 10
71.922236
 20
121.346796
 42
-0.177149
  0
VERTEX
  8
0
 10
71.312999
 20
122.242080
 42
-0.056357
  0
VERTEX
  8
0
 10
71.051554
 20
124.177658
 42
-0.005416
  0
VERTEX
  8
0
 10
71.000000
 20
128.936642
 42
0.000000
  0
VERTEX
  8
0
 10
71.000000
 20
136.873283
 42
0.000000
  0
VERTEX
  8
0
 10
74.250000
 20
137.276604
 42
-0.001504
  0
VERTEX
  8
0
 10
75.622608
 20
137.442754
 42
-0.001314
  0
VERTEX
  8
0
 10
77.059375
 20
137.608461
 42
-0.001321
  0
VERTEX
  8
0
 10
78.358737
 20
137.751388
 42
-0.003930
  0
VERTEX
  8
0
 10
79.250000
 20
137.839963
 42
-0.095092
  0
VERTEX
  8
0
 10
80.063486
 20
137.759641
 42
-0.042053
  0
VERTEX
  8
0
 10
81.073438
 20
137.365489
 42
-0.039612
  0
VERTEX
  8
0
 10
82.105422
 20
136.753423
 42
-0.042748
  0
SEQEND
  0
POLYLINE
  8
0
 66
1
 70
1
  0
VERTEX
  8
0
 10
99.433725
 20
136.848243
 42
-0.046829
  0
VERTEX
  8
0
 10
100.439316
 20
136.270988
 42
-0.040750
  0
VERTEX
  8
0
 10
101.371527
 20
135.491893
 42
-0.042820
  0
VERTEX
  8
0
 10
102.100505
 20
134.639635
 42
-0.087254
  0
VERTEX
  8
0
 10
102.480778
 20
133.848243
 42
0.000215
  0
VERTEX
  8
0
 10
102.720450
 20
132.996501
 42
0.000118
  0
VERTEX
  8
0
 10
103.014149
 20
131.955421
 42
0.000118
  0
VERTEX
  8
0
 10
103.312448
 20
130.899944
 42
0.000190
  0
VERTEX
  8
0
 10
103.567388
 20
130.000000
 42
-0.106572
  0
VERTEX
  8
0
 10
103.637178
 20
128.912517
 42
-0.268084
  0
VERTEX
  8
0
 10
103.160454
 20
128.313382
 42
-0.086582
  0
VERTEX
  8
0
 10
101.874046
 20
128.049791
 42
-0.007343
  0
VERTEX
  8
0
 10
98.484054
 20
128.000000
 42
0.011544
  0
VERTEX
  8
0
 10
95.824997
 20
127.938602
 42
0.047045
  0
VERTEX
  8
0
 10
94.225692
 20
127.712910
 42
0.109657
  0
VERTEX
  8
0
 10
93.415196
 20
127.318738
 42
0.314230
  0
VERTEX
  8
0
 10
93.244995
 20
126.750000
 42
0.205572
  0
VERTEX
  8
0
 10
94.157315
 20
125.717409
 42
0.082741
  0
VERTEX
  8
0
 10
96.005746
 20
125.192770
 42
0.082510
  0
VERTEX
  8
0
 10
97.929309
 20
125.295198
 42
0.202547
  0
VERTEX
  8
0
 10
99.061239
 20
126.099087
 42
-0.100459
  0
VERTEX
  8
0
 10
99.560063
 20
126.630452
 42
-0.133036
  0
VERTEX
  8
0
 10
100.180110
 20
126.858341
 42
-0.094199
  0
VERTEX
  8
0
 10
100.994900
 20
126.776464
 42
-0.032938
  0
VERTEX
  8
0
 10
102.104379
 20
126.366629
 42
0.000000
  0
VERTEX
  8
0
 10
104.360098
 20
125.360098
 42
0.000000
  0
VERTEX
  8
0
 10
102.180049
 20
123.180049
 42
-0.110676
  0
VERTEX
  8
0
 10
100.035732
 20
121.820856
 42
-0.053552
  0
VERTEX
  8
0
 10
96.861772
 20
121.052578
 42
-0.053807
  0
VERTEX
  8
0
 10
93.647439
 20
120.978712
 42
-0.126721
  0
VERTEX
  8
0
 10
91.399704
 20
121.765313
 42
-0.134212
  0
VERTEX
  8
0
 10
89.414367
 20
124.050789
 42
-0.069364
  0
VERTEX
  8
0
 10
88.251307
 20
127.682867
 42
-0.069794
  0
VERTEX
  8
0
 10
88.130168
 20
131.463069
 42
-0.142470
  0
VERTEX
  8
0
 10
89.250000
 20
134.184547
 42
-0.056104
  0
VERTEX
  8
0
 10
90.574696
 20
135.509001
 42
-0.035700
  0
VERTEX
  8
0
 10
92.373798
 20
136.744719
 42
-0.035938
  0
VERTEX
  8
0
 10
94.231873
 20
137.662141
 42
-0.090626
  0
VERTEX
  8
0
 10
95.702947
 20
137.969591
 42
-0.062345
  0
VERTEX
  8
0
 10
96.330821
 20
137.907066
 42
-0.017050
  0
VERTEX
  8
0
 10
97.295079
 20
137.652739
 42
-0.016962
  0
VERTEX
  8
0
 10
98.377683
 20
137.286875
 42
-0.016928
  0
SEQEND
  0
POLYLINE
  8
0
 66
1
 70
1
  0
VERTEX
  8
0
 10
132.433725
 20
136.848243
 42
-0.046829
  0
VERTEX
  8
0
 10
133.439316
 20
136.270988
 42
-0.040750
  0
VERTEX
  8
0
 10
134.371527
 20
135.491893
 42
-0.042820
  0
VERTEX
  8
0
 10
135.100505
 20
134.639635
 42
-0.087254
  0
VERTEX
  8
0
 10
135.480778
 20
133.848243
 42
0.000215
  0
VERTEX
  8
0
 10
135.720450
 20
132.996501
 42
0.000118
  0
VERTEX
  8
0
 10
136.014149
 20
131.955421
 42
0.000118
  0
VERTEX
  8
0
 10
136.312448
 20
130.899944
 42
0.000190
  0
VERTEX
  8
0
 10
136.567388
 20
130.000000
 42
-0.106572
  0
VERTEX
  8
0
 10
136.637178
 20
128.912517
 42
-0.268084
  0
VERTEX
  8
0
 10
136.160454
 20
128.313382
 42
-0.086582
  0
VERTEX
  8
0
 10
134.874046
 20
128.049791
 42
-0.007343
  0
VERTEX
  8
0
 10
131.484054
 20
128.000000
 42
0.011544
  0
VERTEX
  8
0
 10
128.824997
 20
127.938602
 42
0.047045
  0
VERTEX
  8
0
 10
127.225692
 20
127.712910
 42
0.109657
  0
VERTEX
  8
0
 10
126.415196
 20
127.318738
 42
0.314230
  0
VERTEX
  8
0
 10
126.244995
 20
126.750000
 42
0.205572
  0
VERTEX
  8
0
 10
127.157315
 20
125.717409
 42
0.082741
  0
VERTEX
  8
0
 10
129.005746
 20
125.192770
 42
0.082510
  0
VERTEX
  8
0
 10
130.929309
 20
125.295198
 42
0.202547
  0
VERTEX
  8
0
 10
132.061239
 20
126.099087
 42
-0.100459
  0
VERTEX
  8
0
 10
132.560063
 20
126.630452
 42
-0.133036
  0
VERTEX
  8
0
 10
133.180110
 20
126.858341
 42
-0.094199
  0
VERTEX
  8
0
 10
133.994900
 20
126.776464
 42
-0.032938
  0
VERTEX
  8
0
 10
135.104379
 20
126.366629
 42
0.000000
  0
VERTEX
  8
0
 10
137.360098
 20
125.360098
 42
0.000000
  0
VERTEX
  8
0
 10
135.180049
 20
123.180049
 42
-0.110676
  0
VERTEX
  8
0
 10
133.035732
 20
121.820856
 42
-0.053552
  0
VERTEX
  8
0
 10
129.861772
 20
121.052578
 42
-0.053807
  0
VERTEX
  8
0
 10
126.647439
 20
120.978712
 42
-0.126721
  0
VERTEX
  8
0
 10
124.399704
 20
121.765313
 42
-0.157769
  0
VERTEX
  8
0
 10
121.890365
 20
124.938468
 42
-0.105407
  0
VERTEX
  8
0
 10
121.210674
 20
129.557208
 42
-0.105784
  0
VERTEX
  8
0
 10
122.473555
 20
134.038097
 42
-0.159934
  0
VERTEX
  8
0
 10
125.364082
 20
136.830410
 42
-0.032869
  0
VERTEX
  8
0
 10
127.313363
 20
137.620803
 42
-0.079412
  0
VERTEX
  8
0
 10
128.843975
 20
137.869406
 42
-0.077494
  0
VERTEX
  8
0
 10
130.398534
 20
137.631027
 42
-0.030182
  0
SEQEND
  0
POLYLINE
  8
0
 66
1
 70
1
  0
VERTEX
  8
0
 10
149.935698
 20
137.060903
 42
-0.050531
  0
VERTEX
  8
0
 10
150.627794
 20
136.518034
 42
-0.190605
  0
VERTEX
  8
0
 10
150.852214
 20
136.026082
 42
-0.156052
  0
VERTEX
  8
0
 10
150.699562
 20
135.448336
 42
-0.031210
  0
VERTEX
  8
0
 10
150.063253
 20
134.576215
 42
-0.057711
  0
VERTEX
  8
0
 10
149.432110
 20
133.972997
 42
-0.043604
  0
VERTEX
  8
0
 10
148.619274
 20
133.463013
 42
-0.044567
  0
VERTEX
  8
0
 10
147.758102
 20
133.114946
 42
-0.073891
  0
VERTEX
  8
0
 10
146.984544
 20
133.000000
 42
0.160900
  0
VERTEX
  8
0
 10
145.595543
 20
132.541139
 42
0.140322
  0
VERTEX
  8
0
 10
144.660810
 20
131.321311
 42
0.074186
  0
VERTEX
  8
0
 10
144.144596
 20
129.085577
 42
0.019706
  0
VERTEX
  8
0
 10
144.000000
 20
125.418213
 42
-0.014442
  0
VERTEX
  8
0
 10
143.929927
 20
122.992651
 42
-0.092087
  0
VERTEX
  8
0
 10
143.636832
 20
121.802277
 42
-0.187612
  0
VERTEX
  8
0
 10
143.033518
 20
121.211603
 42
-0.101320
  0
VERTEX
  8
0
 10
142.000000
 20
121.000000
 42
-0.156925
  0
VERTEX
  8
0
 10
140.922236
 20
121.346796
 42
-0.177149
  0
VERTEX
  8
0
 10
140.312999
 20
122.242080
 42
-0.056357
  0
VERTEX
  8
0
 10
140.051554
 20
124.177658
 42
-0.005416
  0
VERTEX
  8
0
 10
140.000000
 20
128.936642
 42
0.000000
  0
VERTEX
  8
0
 10
140.000000
 20
136.873283
 42
0.000000
  0
VERTEX
  8
0
 10
143.250000
 20
137.276604
 42
0.000565
  0
VERTEX
  8
0
 10
144.567600
 20
137.441630
 42
0.000629
  0
VERTEX
  8
0
 10
145.839062
 20
137.603963
 42
0.000580
  0
VERTEX
  8
0
 10
146.923123
 20
137.745034
 42
0.003290
  0
VERTEX
  8
0
 10
147.500000
 20
137.824650
 42
-0.079821
  0
VERTEX
  8
0
 10
147.984226
 20
137.817106
 42
-0.032254
  0
VERTEX
  8
0
 10
148.627986
 20
137.659998
 42
-0.030894
  0
VERTEX
  8
0
 10
149.312553
 20
137.397922
 42
-0.034208
  0
SEQEND
  0
POLYLINE
  8
0
 66
1
 70
1
  0
VERTEX
  8
0
 10
180.783870
 20
137.154738
 42
-0.203266
  0
VERTEX
  8
0
 10
181.558177
 20
136.033347
 42
-0.178320
  0
VERTEX
  8
0
 10
181.344632
 20
134.617393
 42
-0.140690
  0
VERTEX
  8
0
 10
180.169180
 20
133.434303
 42
-0.127964
  0
VERTEX
  8
0
 10
178.500000
 20
133.000000
 42
0.123778
  0
VERTEX
  8
0
 10
176.809898
 20
132.575095
 42
0.162843
  0
VERTEX
  8
0
 10
175.727032
 20
131.425086
 42
0.088165
  0
VERTEX
  8
0
 10
175.154485
 20
129.243085
 42
0.020187
  0
VERTEX
  8
0
 10
175.000000
 20
125.418213
 42
-0.014442
  0
VERTEX
  8
0
 10
174.929927
 20
122.992651
 42
-0.092087
  0
VERTEX
  8
0
 10
174.636832
 20
121.802277
 42
-0.187612
  0
VERTEX
  8
0
 10
174.033518
 20
121.211603
 42
-0.101320
  0
VERTEX
  8
0
 10
173.000000
 20
121.000000
 42
-0.156925
  0
VERTEX
  8
0
 10
171.922236
 20
121.346796
 42
-0.177149
  0
VERTEX
  8
0
 10
171.312999
 20
122.242080
 42
-0.056357
  0
VERTEX
  8
0
 10
171.051554
 20
124.177658
 42
-0.005416
  0
VERTEX
  8
0
 10
171.000000
 20
128.936642
 42
0.000000
  0
VERTEX
  8
0
 10
171.000000
 20
136.873283
 42
0.000000
  0
VERTEX
  8
0
 10
174.250000
 20
137.276604
 42
0.000565
  0
VERTEX
  8
0
 10
175.567600
 20
137.441630
 42
0.000629
  0
VERTEX
  8
0
 10
176.839062
 20
137.603963
 42
0.000580
  0
VERTEX
  8
0
 10
177.923123
 20
137.745034
 42
0.003290
  0
VERTEX
  8
0
 10
178.500000
 20
137.824650
 42
-0.073991
  0
VERTEX
  8
0
 10
178.974547
 20
137.822758
 42
-0.033418
  0
VERTEX
  8
0
 10
179.583387
 20
137.687562
 42
-0.032162
  0
VERTEX
  8
0
 10
180.218856
 20
137.455869
 42
-0.037890
  0
SEQEND
  0
POLYLINE
  8
0
 66
1
 70
1
  0
VERTEX
  8
0
 10
193.603405
 20
136.960685
 42
-0.060899
  0
VERTEX
  8
0
 10
196.003830
 20
135.695797
 42
-0.092110
  0
VERTEX
  8
0
 10
197.661105
 20
134.022129
 42
-0.090424
  0
VERTEX
  8
0
 10
198.625967
 20
131.840568
 42
-0.056761
  0
VERTEX
  8
0
 10
198.968197
 20
129.064451
 42
-0.088671
  0
VERTEX
  8
0
 10
198.401935
 20
125.717971
 42
-0.118366
  0
VERTEX
  8
0
 10
196.718708
 20
123.149606
 42
-0.113183
  0
VERTEX
  8
0
 10
193.986173
 20
121.549983
 42
-0.076199
  0
VERTEX
  8
0
 10
190.398266
 20
121.000000
 42
-0.027375
  0
VERTEX
  8
0
 10
188.147204
 20
121.123337
 42
-0.071422
  0
VERTEX
  8
0
 10
186.581045
 20
121.526706
 42
-0.082143
  0
VERTEX
  8
0
 10
185.321616
 20
122.313844
 42
-0.045472
  0
VERTEX
  8
0
 10
184.072580
 20
123.634859
 42
-0.109860
  0
VERTEX
  8
0
 10
182.418420
 20
127.079663
 42
-0.113087
  0
VERTEX
  8
0
 10
182.404747
 20
130.862747
 42
-0.112672
  0
VERTEX
  8
0
 10
184.041059
 20
134.285045
 42
-0.108417
  0
VERTEX
  8
0
 10
187.019708
 20
136.715551
 42
-0.016929
  0
VERTEX
  8
0
 10
189.010917
 20
137.639777
 42
-0.091123
  0
VERTEX
  8
0
 10
190.171896
 20
137.898128
 42
-0.086099
  0
VERTEX
  8
0
 10
191.378539
 20
137.734777
 42
-0.014248
  0
SEQEND
  0
POLYLINE
  8
0
 66
1
 70
1
  0
VERTEX
  8
0
 10
260.250000
 20
134.846575
 42
-0.048126
  0
VERTEX
  8
0
 10
260.920094
 20
133.879785
 42
-0.033961
  0
VERTEX
  8
0
 10
261.485937
 20
132.684117
 42
-0.034425
  0
VERTEX
  8
0
 10
261.873457
 20
131.454474
 42
-0.059187
  0
VERTEX
  8
0
 10
262.000000
 20
130.389216
 42
-0.076105
  0
VERTEX
  8
0
 10
261.794417
 20
129.046379
 42
-0.217082
  0
VERTEX
  8
0
 10
261.177781
 20
128.359224
 42
-0.094346
  0
VERTEX
  8
0
 10
259.859932
 20
128.059309
 42
-0.008908
  0
VERTEX
  8
0
 10
256.531385
 20
128.000000
 42
0.009505
  0
VERTEX
  8
0
 10
253.641939
 20
127.945064
 42
0.064952
  0
VERTEX
  8
0
 10
252.240422
 20
127.707741
 42
0.204598
  0
VERTEX
  8
0
 10
251.674798
 20
127.230268
 42
0.211180
  0
VERTEX
  8
0
 10
251.638374
 20
126.500000
 42
0.178939
  0
VERTEX
  8
0
 10
252.533051
 20
125.481027
 42
0.113697
  0
VERTEX
  8
0
 10
254.072206
 20
125.055538
 42
0.087543
  0
VERTEX
  8
0
 10
256.007290
 20
125.311193
 42
0.063147
  0
VERTEX
  8
0
 10
257.988609
 20
126.224959
 42
-0.033872
  0
VERTEX
  8
0
 10
259.021688
 20
126.776694
 42
-0.104210
  0
VERTEX
  8
0
 10
259.791894
 20
126.945002
 42
-0.130736
  0
VERTEX
  8
0
 10
260.460928
 20
126.772367
 42
-0.068324
  0
VERTEX
  8
0
 10
261.151412
 20
126.248588
 42
-0.087031
  0
VERTEX
  8
0
 10
261.637971
 20
125.555051
 42
-0.159092
  0
VERTEX
  8
0
 10
261.721632
 20
124.876135
 42
-0.107658
  0
VERTEX
  8
0
 10
261.383366
 20
124.092326
 42
-0.028421
  0
VERTEX
  8
0
 10
260.521384
 20
123.023629
 42
-0.135398
  0
VERTEX
  8
0
 10
257.963895
 20
121.398491
 42
-0.078545
  0
VERTEX
  8
0
 10
254.334196
 20
120.886443
 42
-0.080279
  0
VERTEX
  8
0
 10
250.808161
 20
121.516554
 42
-0.156953
  0
VERTEX
  8
0
 10
248.556704
 20
123.222506
 42
-0.090727
  0
VERTEX
  8
0
 10
247.506249
 20
125.512646
 42
-0.051056
  0
VERTEX
  8
0
 10
247.056600
 20
128.547925
 42
-0.050757
  0
VERTEX
  8
0
 10
247.231318
 20
131.643568
 42
-0.083591
  0
VERTEX
  8
0
 10
248.065372
 20
134.122148
 42
-0.140038
  0
VERTEX
  8
0
 10
250.375750
 20
136.506401
 42
-0.116392
  0
VERTEX
  8
0
 10
253.770513
 20
137.523603
 42
-0.111749
  0
VERTEX
  8
0
 10
257.375249
 20
136.930066
 42
-0.121281
  0
SEQEND
  0
POLYLINE
  8
0
 66
1
 70
1
  0
VERTEX
  8
0
 10
273.428571
 20
136.428571
 42
-0.023893
  0
VERTEX
  8
0
 10
274.030077
 20
135.766657
 42
-0.027205
  0
VERTEX
  8
0
 10
274.538393
 20
135.077410
 42
-0.027916
  0
VERTEX
  8
0
 10
274.900129
 20
134.453225
 42
-0.117896
  0
VERTEX
  8
0
 10
275.000000
 20
134.035560
 42
-0.242562
  0
VERTEX
  8
0
 10
274.591767
 20
133.243568
 42
-0.073501
  0
VERTEX
  8
0
 10
273.350249
 20
132.609487
 42
-0.068304
  0
VERTEX
  8
0
 10
271.853681
 20
132.323124
 42
-0.129365
  0
VERTEX
  8
0
 10
270.659758
 20
132.570913
 42
0.144534
  0
VERTEX
  8
0
 10
270.449354
 20
132.608083
 42
0.587069
  0
VERTEX
  8
0
 10
270.410886
 20
132.516294
 42
0.046703
  0
VERTEX
  8
0
 10
270.757218
 20
132.150587
 42
0.009471
  0
VERTEX
  8
0
 10
271.441130
 20
131.574157
 42
0.018217
  0
VERTEX
  8
0
 10
272.242220
 20
130.971522
 42
0.021409
  0
VERTEX
  8
0
 10
273.044062
 20
130.462409
 42
0.020908
  0
VERTEX
  8
0
 10
273.748959
 20
130.094457
 42
0.110263
  0
VERTEX
  8
0
 10
274.172078
 20
130.000000
 42
-0.311706
  0
VERTEX
  8
0
 10
275.066902
 20
129.382122
 42
-0.059004
  0
VERTEX
  8
0
 10
275.573357
 20
127.350271
 42
-0.055123
  0
VERTEX
  8
0
 10
275.612261
 20
124.959897
 42
-0.099712
  0
VERTEX
  8
0
 10
275.049847
 20
123.093141
 42
-0.182221
  0
VERTEX
  8
0
 10
273.195214
 20
121.470066
 42
-0.086452
  0
VERTEX
  8
0
 10
270.027855
 20
120.874210
 42
-0.087029
  0
VERTEX
  8
0
 10
266.865166
 20
121.385078
 42
-0.188597
  0
VERTEX
  8
0
 10
265.022471
 20
122.958013
 42
-0.044706
  0
VERTEX
  8
0
 10
264.577890
 20
124.003581
 42
-0.152455
  0
VERTEX
  8
0
 10
264.570498
 20
124.734597
 42
-0.152893
  0
VERTEX
  8
0
 10
264.980187
 20
125.338729
 42
-0.045044
  0
VERTEX
  8
0
 10
265.926599
 20
125.960717
 42
-0.036194
  0
VERTEX
  8
0
 10
266.820718
 20
126.358977
 42
-0.082778
  0
VERTEX
  8
0
 10
267.544391
 20
126.491789
 42
-0.119994
  0
VERTEX
  8
0
 10
268.099747
 20
126.366129
 42
-0.139865
  0
VERTEX
  8
0
 10
268.498329
 20
126.002704
 42
0.060660
  0
VERTEX
  8
0
 10
268.805172
 20
125.619155
 42
0.050997
  0
VERTEX
  8
0
 10
269.212409
 20
125.294544
 42
0.053217
  0
VERTEX
  8
0
 10
269.653322
 20
125.073489
 42
0.089841
  0
VERTEX
  8
0
 10
270.059017
 20
125.000000
 42
0.216125
  0
VERTEX
  8
0
 10
270.777624
 20
125.325838
 42
0.334734
  0
VERTEX
  8
0
 10
270.825333
 20
125.974930
 42
0.093032
  0
VERTEX
  8
0
 10
269.842734
 20
127.012527
 42
0.027445
  0
VERTEX
  8
0
 10
267.993677
 20
128.203490
 42
-0.086792
  0
VERTEX
  8
0
 10
266.008125
 20
129.843858
 42
-0.136005
  0
VERTEX
  8
0
 10
265.076961
 20
131.838260
 42
-0.137328
  0
VERTEX
  8
0
 10
265.309442
 20
134.013118
 42
-0.089267
  0
VERTEX
  8
0
 10
266.654988
 20
136.171259
 42
-0.083747
  0
VERTEX
  8
0
 10
268.260571
 20
137.438405
 42
-0.116284
  0
VERTEX
  8
0
 10
270.020490
 20
137.924523
 42
-0.118181
  0
VERTEX
  8
0
 10
271.791063
 20
137.570583
 42
-0.088436
  0
SEQEND
  0
POLYLINE
  8
0
 66
1
 70
1
  0
VERTEX
  8
0
 10
111.086686
 20
133.244902
 42
0.000000
  0
VERTEX
  8
0
 10
112.673371
 20
129.500000
 42
0.000000
  0
VERTEX
  8
0
 10
114.285659
 20
133.250000
 42
-0.026468
  0
VERTEX
  8
0
 10
115.211829
 20
135.124183
 42
-0.081601
  0
VERTEX
  8
0
 10
116.092079
 20
136.224497
 42
-0.110080
  0
VERTEX
  8
0
 10
117.115127
 20
136.802049
 42
-0.073799
  0
VERTEX
  8
0
 10
118.448973
 20
137.000000
 42
-0.019277
  0
VERTEX
  8
0
 10
119.426793
 20
136.962287
 42
-0.031213
  0
VERTEX
  8
0
 10
120.250636
 20
136.846604
 42
-0.032614
  0
VERTEX
  8
0
 10
120.855018
 20
136.681212
 42
-0.319907
  0
VERTEX
  8
0
 10
121.000000
 20
136.477803
 42
-0.123559
  0
VERTEX
  8
0
 10
120.439220
 20
134.243163
 42
-0.006150
  0
VERTEX
  8
0
 10
116.757393
 20
127.567893
 42
-0.003518
  0
VERTEX
  8
0
 10
112.807000
 20
120.722094
 42
-0.495370
  0
VERTEX
  8
0
 10
111.999777
 20
120.624341
 42
-0.071676
  0
VERTEX
  8
0
 10
111.520450
 20
121.284065
 42
-0.004100
  0
VERTEX
  8
0
 10
110.365192
 20
123.519338
 42
-0.006193
  0
VERTEX
  8
0
 10
109.040331
 20
126.217522
 42
-0.004503
  0
VERTEX
  8
0
 10
107.631011
 20
129.250000
 42
0.000000
  0
VERTEX
  8
0
 10
104.113786
 20
137.000000
 42
0.000000
  0
VERTEX
  8
0
 10
106.806893
 20
136.994902
 42
-0.065455
  0
VERTEX
  8
0
 10
108.233806
 20
136.804552
 42
-0.114540
  0
VERTEX
  8
0
 10
109.279596
 20
136.244820
 42
-0.086697
  0
VERTEX
  8
0
 10
110.155136
 20
135.158387
 42
-0.026155
  0
SEQEND
  0
POLYLINE
  8
0
 66
1
 70
1
  0
VERTEX
  8
0
 10
206.200096
 20
131.250000
 42
0.010457
  0
VERTEX
  8
0
 10
206.441644
 20
127.948029
 42
0.076094
  0
VERTEX
  8
0
 10
206.827231
 20
126.411243
 42
0.162301
  0
VERTEX
  8
0
 10
207.534611
 20
125.603933
 42
0.097407
  0
VERTEX
  8
0
 10
208.750000
 20
125.180449
 42
0.091097
  0
VERTEX
  8
0
 10
210.013462
 20
125.231790
 42
0.248829
  0
VERTEX
  8
0
 10
210.670486
 20
125.796585
 42
0.086700
  0
VERTEX
  8
0
 10
210.949143
 20
127.171095
 42
0.006764
  0
VERTEX
  8
0
 10
211.000000
 20
130.930449
 42
-0.007018
  0
VERTEX
  8
0
 10
211.054278
 20
134.797052
 42
-0.095020
  0
VERTEX
  8
0
 10
211.357771
 20
136.170069
 42
-0.229805
  0
VERTEX
  8
0
 10
212.087575
 20
136.799919
 42
-0.065154
  0
VERTEX
  8
0
 10
213.616496
 20
137.000000
 42
-0.062973
  0
VERTEX
  8
0
 10
215.164984
 20
136.804198
 42
-0.251783
  0
VERTEX
  8
0
 10
215.844279
 20
136.177846
 42
-0.093718
  0
VERTEX
  8
0
 10
216.045919
 20
134.803930
 42
-0.005606
  0
VERTEX
  8
0
 10
215.825764
 20
130.604616
 42
-0.026613
  0
VERTEX
  8
0
 10
215.242800
 20
125.636330
 42
-0.113321
  0
VERTEX
  8
0
 10
214.098105
 20
122.896048
 42
-0.164231
  0
VERTEX
  8
0
 10
212.127415
 20
121.477624
 42
-0.074716
  0
VERTEX
  8
0
 10
208.948984
 20
121.000000
 42
-0.067996
  0
VERTEX
  8
0
 10
205.472070
 20
121.475027
 42
-0.169408
  0
VERTEX
  8
0
 10
203.393370
 20
122.919208
 42
-0.126544
  0
VERTEX
  8
0
 10
202.305204
 20
125.673790
 42
-0.031128
  0
VERTEX
  8
0
 10
202.000000
 20
130.571429
 42
-0.007694
  0
VERTEX
  8
0
 10
202.057204
 20
134.288852
 42
-0.066034
  0
VERTEX
  8
0
 10
202.325837
 20
135.925865
 42
-0.180898
  0
VERTEX
  8
0
 10
202.920072
 20
136.703578
 42
-0.141029
  0
VERTEX
  8
0
 10
203.950096
 20
137.000000
 42
-0.134449
  0
VERTEX
  8
0
 10
204.971798
 20
136.720208
 42
-0.167341
  0
VERTEX
  8
0
 10
205.605858
 20
135.974410
 42
-0.070168
  0
VERTEX
  8
0
 10
205.968075
 20
134.447253
 42
-0.010166
  0
SEQEND
  0
POLYLINE
  8
0
 66
1
 70
1
  0
VERTEX
  8
0
 10
36.000000
 20
98.932612
 42
0.006256
  0
VERTEX
  8
0
 10
36.046612
 20
95.207168
 42
0.084346
  0
VERTEX
  8
0
 10
36.307630
 20
93.873815
 42
0.282780
  0
VERTEX
  8
0
 10
36.918289
 20
93.401818
 42
0.103916
  0
VERTEX
  8
0
 10
38.048963
 20
93.515540
 42
-0.079439
  0
VERTEX
  8
0
 10
39.041531
 20
93.664321
 42
-0.049917
  0
VERTEX
  8
0
 10
40.210198
 20
93.535828
 42
-0.046634
  0
VERTEX
  8
0
 10
41.422783
 20
93.157460
 42
-0.046128
  0
VERTEX
  8
0
 10
42.548963
 20
92.559875
 42
-0.067375
  0
VERTEX
  8
0
 10
43.889396
 20
91.397001
 42
-0.111330
  0
VERTEX
  8
0
 10
44.604628
 20
90.087513
 42
-0.060452
  0
VERTEX
  8
0
 10
44.924996
 20
88.069106
 42
-0.009164
  0
VERTEX
  8
0
 10
45.000000
 20
83.976947
 42
-0.006618
  0
VERTEX
  8
0
 10
44.945460
 20
79.856437
 42
-0.063259
  0
VERTEX
  8
0
 10
44.678335
 20
78.122118
 42
-0.183838
  0
VERTEX
  8
0
 10
44.070414
 20
77.310350
 42
-0.142042
  0
VERTEX
  8
0
 10
43.000000
 20
77.000000
 42
-0.126480
  0
VERTEX
  8
0
 10
41.939334
 20
77.272668
 42
-0.188641
  0
VERTEX
  8
0
 10
41.333333
 20
78.000000
 42
-0.072107
  0
VERTEX
  8
0
 10
41.058710
 20
79.528387
 42
-0.008455
  0
VERTEX
  8
0
 10
41.000000
 20
83.000000
 42
0.007344
  0
VERTEX
  8
0
 10
40.944747
 20
86.761772
 42
0.091609
  0
VERTEX
  8
0
 10
40.645833
 20
88.150000
 42
0.224968
  0
VERTEX
  8
0
 10
39.935971
 20
88.789676
 42
0.072846
  0
VERTEX
  8
0
 10
38.500000
 20
89.000000
 42
0.072846
  0
VERTEX
  8
0
 10
37.064029
 20
88.789676
 42
0.224968
  0
VERTEX
  8
0
 10
36.354167
 20
88.150000
 42
0.091609
  0
VERTEX
  8
0
 10
36.055253
 20
86.761772
 42
0.007344
  0
VERTEX
  8
0
 10
36.000000
 20
83.000000
 42
-0.007344
  0
VERTEX
  8
0
 10
35.944747
 20
79.238228
 42
-0.091609
  0
VERTEX
  8
0
 10
35.645833
 20
77.850000
 42
-0.224968
  0
VERTEX
  8
0
 10
34.935971
 20
77.210324
 42
-0.072846
  0
VERTEX
  8
0
 10
33.500000
 20
77.000000
 42
0.000000
  0
VERTEX
  8
0
 10
31.000000
 20
77.000000
 42
0.000000
  0
VERTEX
  8
0
 10
31.000000
 20
90.333333
 42
-0.004672
  0
VERTEX
  8
0
 10
31.048198
 20
95.491846
 42
-0.007224
  0
VERTEX
  8
0
 10
31.195833
 20
99.945833
 42
-0.002894
  0
VERTEX
  8
0
 10
31.398315
 20
103.736078
 42
-0.183581
  0
VERTEX
  8
0
 10
31.666667
 20
104.333333
 42
-0.097261
  0
VERTEX
  8
0
 10
32.048627
 20
104.589900
 42
-0.034257
  0
VERTEX
  8
0
 10
32.676042
 20
104.804167
 42
-0.032464
  0
VERTEX
  8
0
 10
33.415909
 20
104.950834
 42
-0.032710
  0
VERTEX
  8
0
 10
34.166667
 20
105.000000
 42
-0.154278
  0
VERTEX
  8
0
 10
35.111454
 20
104.701372
 42
-0.167817
  0
VERTEX
  8
0
 10
35.674460
 20
103.922629
 42
-0.064596
  0
VERTEX
  8
0
 10
35.939971
 20
102.322436
 42
-0.008854
  0
SEQEND
  0
POLYLINE
  8
0
 66
1
 70
1
  0
VERTEX
  8
0
 10
125.000000
 20
91.000000
 42
-0.002431
  0
VERTEX
  8
0
 10
124.957207
 20
82.198195
 42
-0.033055
  0
VERTEX
  8
0
 10
124.714286
 20
79.000000
 42
-0.126958
  0
VERTEX
  8
0
 10
124.112199
 20
77.553651
 42
-0.235138
  0
VERTEX
  8
0
 10
123.000000
 20
77.000000
 42
-0.235138
  0
VERTEX
  8
0
 10
121.887801
 20
77.553651
 42
-0.126958
  0
VERTEX
  8
0
 10
121.285714
 20
79.000000
 42
-0.033055
  0
VERTEX
  8
0
 10
121.042793
 20
82.198195
 42
-0.002431
  0
VERTEX
  8
0
 10
121.000000
 20
91.000000
 42
-0.002431
  0
VERTEX
  8
0
 10
121.042793
 20
99.801805
 42
-0.033055
  0
VERTEX
  8
0
 10
121.285714
 20
103.000000
 42
-0.126958
  0
VERTEX
  8
0
 10
121.887801
 20
104.446349
 42
-0.235138
  0
VERTEX
  8
0
 10
123.000000
 20
105.000000
 42
-0.235138
  0
VERTEX
  8
0
 10
124.112199
 20
104.446349
 42
-0.126958
  0
VERTEX
  8
0
 10
124.714286
 20
103.000000
 42
-0.033055
  0
VERTEX
  8
0
 10
124.957207
 20
99.801805
 42
-0.002431
  0
SEQEND
  0
POLYLINE
  8
0
 66
1
 70
1
  0
VERTEX
  8
0
 10
137.000000
 20
102.500000
 42
-0.044917
  0
VERTEX
  8
0
 10
136.893532
 20
101.317234
 42
-0.124434
  0
VERTEX
  8
0
 10
136.550000
 20
100.562500
 42
-0.149477
  0
VERTEX
  8
0
 10
135.935258
 20
100.142566
 42
-0.075780
  0
VERTEX
  8
0
 10
135.000000
 20
100.000000
 42
0.087745
  0
VERTEX
  8
0
 10
133.997538
 20
99.822713
 42
0.177212
  0
VERTEX
  8
0
 10
133.392857
 20
99.312500
 42
0.107690
  0
VERTEX
  8
0
 10
133.082184
 20
98.324280
 42
0.022514
  0
VERTEX
  8
0
 10
133.000000
 20
96.500000
 42
0.022514
  0
VERTEX
  8
0
 10
133.082184
 20
94.675720
 42
0.107690
  0
VERTEX
  8
0
 10
133.392857
 20
93.687500
 42
0.177212
  0
VERTEX
  8
0
 10
133.997538
 20
93.177287
 42
0.087745
  0
VERTEX
  8
0
 10
135.000000
 20
93.000000
 42
-0.072254
  0
VERTEX
  8
0
 10
135.873159
 20
92.873159
 42
-0.124864
  0
VERTEX
  8
0
 10
136.500000
 20
92.500000
 42
-0.124864
  0
VERTEX
  8
0
 10
136.873159
 20
91.873159
 42
-0.072254
  0
VERTEX
  8
0
 10
137.000000
 20
91.000000
 42
-0.072254
  0
VERTEX
  8
0
 10
136.873159
 20
90.126841
 42
-0.124864
  0
VERTEX
  8
0
 10
136.500000
 20
89.500000
 42
-0.124864
  0
VERTEX
  8
0
 10
135.873159
 20
89.126841
 42
-0.072254
  0
VERTEX
  8
0
 10
135.000000
 20
89.000000
 42
0.126480
  0
VERTEX
  8
0
 10
133.939334
 20
88.727332
 42
0.188641
  0
VERTEX
  8
0
 10
133.333333
 20
88.000000
 42
0.072107
  0
VERTEX
  8
0
 10
133.058710
 20
86.471613
 42
0.008455
  0
VERTEX
  8
0
 10
133.000000
 20
83.000000
 42
-0.008455
  0
VERTEX
  8
0
 10
132.941290
 20
79.528387
 42
-0.072107
  0
VERTEX
  8
0
 10
132.666667
 20
78.000000
 42
-0.188641
  0
VERTEX
  8
0
 10
132.060666
 20
77.272668
 42
-0.126480
  0
VERTEX
  8
0
 10
131.000000
 20
77.000000
 42
-0.133124
  0
VERTEX
  8
0
 10
129.936557
 20
77.288247
 42
-0.178411
  0
VERTEX
  8
0
 10
129.307227
 20
78.053395
 42
-0.068479
  0
VERTEX
  8
0
 10
128.984718
 20
79.657094
 42
-0.008344
  0
VERTEX
  8
0
 10
128.822838
 20
83.250000
 42
-0.010096
  0
VERTEX
  8
0
 10
128.727458
 20
94.958222
 42
-0.062954
  0
VERTEX
  8
0
 10
129.549472
 20
100.886176
 42
-0.157048
  0
VERTEX
  8
0
 10
131.473219
 20
103.854169
 42
-0.172728
  0
VERTEX
  8
0
 10
134.691130
 20
105.000000
 42
-0.054630
  0
VERTEX
  8
0
 10
135.830512
 20
104.875139
 42
-0.152880
  0
VERTEX
  8
0
 10
136.519113
 20
104.479305
 42
-0.142334
  0
VERTEX
  8
0
 10
136.887998
 20
103.740163
 42
-0.045064
  0
SEQEND
  0
POLYLINE
  8
0
 66
1
 70
1
  0
VERTEX
  8
0
 10
153.000000
 20
98.891592
 42
0.005907
  0
VERTEX
  8
0
 10
153.045990
 20
94.999163
 42
0.093571
  0
VERTEX
  8
0
 10
153.321002
 20
93.710328
 42
0.285401
  0
VERTEX
  8
0
 10
153.980814
 20
93.241321
 42
0.077111
  0
VERTEX
  8
0
 10
155.316166
 20
93.364505
 42
-0.066546
  0
VERTEX
  8
0
 10
156.388562
 20
93.486214
 42
-0.046986
  0
VERTEX
  8
0
 10
157.594878
 20
93.348352
 42
-0.045955
  0
VERTEX
  8
0
 10
158.786416
 20
92.980368
 42
-0.054962
  0
VERTEX
  8
0
 10
159.816166
 20
92.416209
 42
-0.080573
  0
VERTEX
  8
0
 10
160.966888
 20
91.296338
 42
-0.096784
  0
VERTEX
  8
0
 10
161.616294
 20
89.935392
 42
-0.053287
  0
VERTEX
  8
0
 10
161.923321
 20
87.844234
 42
-0.009827
  0
VERTEX
  8
0
 10
162.000000
 20
83.943296
 42
-0.006669
  0
VERTEX
  8
0
 10
161.945338
 20
79.845158
 42
-0.063530
  0
VERTEX
  8
0
 10
161.677988
 20
78.117912
 42
-0.184043
  0
VERTEX
  8
0
 10
161.070125
 20
77.309060
 42
-0.141512
  0
VERTEX
  8
0
 10
160.000000
 20
77.000000
 42
-0.126480
  0
VERTEX
  8
0
 10
158.939334
 20
77.272668
 42
-0.188641
  0
VERTEX
  8
0
 10
158.333333
 20
78.000000
 42
-0.072107
  0
VERTEX
  8
0
 10
158.058710
 20
79.528387
 42
-0.008455
  0
VERTEX
  8
0
 10
158.000000
 20
83.000000
 42
0.007344
  0
VERTEX
  8
0
 10
157.944747
 20
86.761772
 42
0.091609
  0
VERTEX
  8
0
 10
157.645833
 20
88.150000
 42
0.224968
  0
VERTEX
  8
0
 10
156.935971
 20
88.789676
 42
0.072846
  0
VERTEX
  8
0
 10
155.500000
 20
89.000000
 42
0.072846
  0
VERTEX
  8
0
 10
154.064029
 20
88.789676
 42
0.224968
  0
VERTEX
  8
0
 10
153.354167
 20
88.150000
 42
0.091609
  0
VERTEX
  8
0
 10
153.055253
 20
86.761772
 42
0.007344
  0
VERTEX
  8
0
 10
153.000000
 20
83.000000
 42
-0.007344
  0
VERTEX
  8
0
 10
152.944747
 20
79.238228
 42
-0.091609
  0
VERTEX
  8
0
 10
152.645833
 20
77.850000
 42
-0.224968
  0
VERTEX
  8
0
 10
151.935971
 20
77.210324
 42
-0.072846
  0
VERTEX
  8
0
 10
150.500000
 20
77.000000
 42
0.000000
  0
VERTEX
  8
0
 10
148.000000
 20
77.000000
 42
0.000000
  0
VERTEX
  8
0
 10
148.000000
 20
90.333333
 42
-0.004672
  0
VERTEX
  8
0
 10
148.048198
 20
95.491846
 42
-0.007224
  0
VERTEX
  8
0
 10
148.195833
 20
99.945833
 42
-0.002894
  0
VERTEX
  8
0
 10
148.398315
 20
103.736078
 42
-0.183581
  0
VERTEX
  8
0
 10
148.666667
 20
104.333333
 42
-0.097261
  0
VERTEX
  8
0
 10
149.048627
 20
104.589900
 42
-0.034257
  0
VERTEX
  8
0
 10
149.676042
 20
104.804167
 42
-0.032464
  0
VERTEX
  8
0
 10
150.415909
 20
104.950834
 42
-0.032710
  0
VERTEX
  8
0
 10
151.166667
 20
105.000000
 42
-0.155021
  0
VERTEX
  8
0
 10
152.111954
 20
104.699705
 42
-0.167550
  0
VERTEX
  8
0
 10
152.674967
 20
103.917035
 42
-0.064225
  0
VERTEX
  8
0
 10
152.940158
 20
102.307603
 42
-0.008758
  0
SEQEND
  0
POLYLINE
  8
0
 66
1
 70
1
  0
VERTEX
  8
0
 10
26.000000
 20
96.000000
 42
0.033607
  0
VERTEX
  8
0
 10
26.088963
 20
94.677925
 42
0.082504
  0
VERTEX
  8
0
 10
26.375000
 20
93.750000
 42
0.126510
  0
VERTEX
  8
0
 10
26.851045
 20
93.202091
 42
0.152103
  0
VERTEX
  8
0
 10
27.500000
 20
93.000000
 42
-0.130775
  0
VERTEX
  8
0
 10
28.075754
 20
92.846791
 42
-0.102140
  0
VERTEX
  8
0
 10
28.562500
 20
92.416667
 42
-0.088920
  0
VERTEX
  8
0
 10
28.888136
 20
91.769411
 42
-0.072314
  0
VERTEX
  8
0
 10
29.000000
 20
91.000000
 42
-0.072314
  0
VERTEX
  8
0
 10
28.888136
 20
90.230589
 42
-0.088920
  0
VERTEX
  8
0
 10
28.562500
 20
89.583333
 42
-0.102140
  0
VERTEX
  8
0
 10
28.075754
 20
89.153209
 42
-0.130775
  0
VERTEX
  8
0
 10
27.500000
 20
89.000000
 42
0.222027
  0
VERTEX
  8
0
 10
26.776970
 20
88.662288
 42
0.113455
  0
VERTEX
  8
0
 10
26.312500
 20
87.750000
 42
0.050675
  0
VERTEX
  8
0
 10
26.064452
 20
86.035942
 42
0.010614
  0
VERTEX
  8
0
 10
26.000000
 20
83.000000
 42
-0.008455
  0
VERTEX
  8
0
 10
25.941290
 20
79.528387
 42
-0.072107
  0
VERTEX
  8
0
 10
25.666667
 20
78.000000
 42
-0.188641
  0
VERTEX
  8
0
 10
25.060666
 20
77.272668
 42
-0.126480
  0
VERTEX
  8
0
 10
24.000000
 20
77.000000
 42
-0.126480
  0
VERTEX
  8
0
 10
22.939334
 20
77.272668
 42
-0.188641
  0
VERTEX
  8
0
 10
22.333333
 20
78.000000
 42
-0.072107
  0
VERTEX
  8
0
 10
22.058710
 20
79.528387
 42
-0.008455
  0
VERTEX
  8
0
 10
22.000000
 20
83.000000
 42
0.015416
  0
VERTEX
  8
0
 10
21.928566
 20
85.316313
 42
0.025878
  0
VERTEX
  8
0
 10
21.708333
 20
87.250000
 42
0.024068
  0
VERTEX
  8
0
 10
21.395008
 20
88.696775
 42
0.339565
  0
VERTEX
  8
0
 10
21.000000
 20
89.000000
 42
-0.191087
  0
VERTEX
  8
0
 10
20.618118
 20
89.151477
 42
-0.088204
  0
VERTEX
  8
0
 10
20.293750
 20
89.587500
 42
-0.068025
  0
VERTEX
  8
0
 10
20.073693
 20
90.234582
 42
-0.048028
  0
VERTEX
  8
0
 10
20.000000
 20
91.000000
 42
-0.048028
  0
VERTEX
  8
0
 10
20.073693
 20
91.765418
 42
-0.068025
  0
VERTEX
  8
0
 10
20.293750
 20
92.412500
 42
-0.088204
  0
VERTEX
  8
0
 10
20.618118
 20
92.848523
 42
-0.191087
  0
VERTEX
  8
0
 10
21.000000
 20
93.000000
 42
0.254951
  0
VERTEX
  8
0
 10
21.384262
 20
93.209557
 42
0.062710
  0
VERTEX
  8
0
 10
21.706250
 20
93.881250
 42
0.048861
  0
VERTEX
  8
0
 10
21.927234
 20
94.850749
 42
0.031626
  0
VERTEX
  8
0
 10
22.000000
 20
96.000000
 42
-0.030703
  0
VERTEX
  8
0
 10
22.092253
 20
97.500917
 42
-0.116834
  0
VERTEX
  8
0
 10
22.416667
 20
98.375000
 42
-0.166173
  0
VERTEX
  8
0
 10
23.024683
 20
98.840542
 42
-0.081208
  0
VERTEX
  8
0
 10
24.000000
 20
99.000000
 42
-0.081208
  0
VERTEX
  8
0
 10
24.975317
 20
98.840542
 42
-0.166173
  0
VERTEX
  8
0
 10
25.583333
 20
98.375000
 42
-0.116834
  0
VERTEX
  8
0
 10
25.907747
 20
97.500917
 42
-0.030703
  0
SEQEND
  0
POLYLINE
  8
0
 66
1
 70
1
  0
VERTEX
  8
0
 10
89.983456
 20
90.050130
 42
0.013321
  0
VERTEX
  8
0
 10
90.541976
 20
88.498003
 42
0.020452
  0
VERTEX
  8
0
 10
91.115196
 20
87.189726
 42
0.015847
  0
VERTEX
  8
0
 10
91.647264
 20
86.181405
 42
0.269655
  0
VERTEX
  8
0
 10
91.959171
 20
86.000000
 42
0.254222
  0
VERTEX
  8
0
 10
92.271666
 20
86.169864
 42
0.019160
  0
VERTEX
  8
0
 10
92.782276
 20
87.028125
 42
0.022743
  0
VERTEX
  8
0
 10
93.332531
 20
88.158871
 42
0.015111
  0
VERTEX
  8
0
 10
93.863840
 20
89.500000
 42
-0.029475
  0
VERTEX
  8
0
 10
94.615494
 20
91.248946
 42
-0.090132
  0
VERTEX
  8
0
 10
95.388302
 20
92.276959
 42
-0.117206
  0
VERTEX
  8
0
 10
96.346492
 20
92.816776
 42
-0.070040
  0
VERTEX
  8
0
 10
97.648061
 20
93.000000
 42
-0.033104
  0
VERTEX
  8
0
 10
98.589988
 20
92.937569
 42
-0.061693
  0
VERTEX
  8
0
 10
99.328910
 20
92.744480
 42
-0.100561
  0
VERTEX
  8
0
 10
99.761869
 20
92.461267
 42
-0.297601
  0
VERTEX
  8
0
 10
99.833333
 20
92.130145
 42
-0.017611
  0
VERTEX
  8
0
 10
98.144955
 20
88.149669
 42
-0.005906
  0
VERTEX
  8
0
 10
95.407973
 20
82.457440
 42
-0.001204
  0
VERTEX
  8
0
 10
92.374775
 20
76.372268
 42
-0.269386
  0
VERTEX
  8
0
 10
91.858580
 20
76.034297
 42
-0.267953
  0
VERTEX
  8
0
 10
91.534181
 20
76.199156
 42
-0.015620
  0
VERTEX
  8
0
 10
90.935435
 20
77.185075
 42
-0.020267
  0
VERTEX
  8
0
 10
90.276472
 20
78.469575
 42
-0.013217
  0
VERTEX
  8
0
 10
89.616677
 20
80.000000
 42
0.010408
  0
VERTEX
  8
0
 10
88.965939
 20
81.533040
 42
0.016118
  0
VERTEX
  8
0
 10
88.334704
 20
82.825000
 42
0.010459
  0
VERTEX
  8
0
 10
87.766078
 20
83.847256
 42
0.266625
  0
VERTEX
  8
0
 10
87.500000
 20
84.000000
 42
0.266625
  0
VERTEX
  8
0
 10
87.233922
 20
83.847256
 42
0.010459
  0
VERTEX
  8
0
 10
86.665296
 20
82.825000
 42
0.016118
  0
VERTEX
  8
0
 10
86.034061
 20
81.533040
 42
0.010408
  0
VERTEX
  8
0
 10
85.383323
 20
80.000000
 42
-0.012940
  0
VERTEX
  8
0
 10
84.723529
 20
78.467243
 42
-0.019653
  0
VERTEX
  8
0
 10
84.064565
 20
77.175321
 42
-0.014959
  0
VERTEX
  8
0
 10
83.465369
 20
76.177708
 42
-0.255795
  0
VERTEX
  8
0
 10
83.141420
 20
76.001092
 42
-0.283659
  0
VERTEX
  8
0
 10
82.636461
 20
76.313819
 42
-0.001379
  0
VERTEX
  8
0
 10
79.833501
 20
81.960693
 42
-0.006589
  0
VERTEX
  8
0
 10
77.190545
 20
87.505374
 42
-0.011485
  0
VERTEX
  8
0
 10
75.166667
 20
92.179037
 42
-0.301102
  0
VERTEX
  8
0
 10
75.229741
 20
92.491403
 42
-0.102400
  0
VERTEX
  8
0
 10
75.635698
 20
92.758842
 42
-0.061891
  0
VERTEX
  8
0
 10
76.335614
 20
92.941153
 42
-0.032809
  0
VERTEX
  8
0
 10
77.231454
 20
93.000000
 42
-0.085626
  0
VERTEX
  8
0
 10
78.461426
 20
92.787808
 42
-0.096835
  0
VERTEX
  8
0
 10
79.490964
 20
92.178011
 42
-0.071921
  0
VERTEX
  8
0
 10
80.428795
 20
91.063210
 42
-0.027715
  0
VERTEX
  8
0
 10
81.401210
 20
89.284844
 42
0.000000
  0
VERTEX
  8
0
 10
83.172845
 20
85.569687
 42
0.000000
  0
VERTEX
  8
0
 10
85.207156
 20
90.269243
 42
-0.015021
  0
VERTEX
  8
0
 10
86.037705
 20
92.040050
 42
-0.025483
  0
VERTEX
  8
0
 10
86.850295
 20
93.460738
 42
-0.023743
  0
VERTEX
  8
0
 10
87.565831
 20
94.467300
 42
-0.381810
  0
VERTEX
  8
0
 10
87.944130
 20
94.534530
 42
-0.135851
  0
VERTEX
  8
0
 10
88.285398
 20
94.166121
 42
-0.012581
  0
VERTEX
  8
0
 10
88.833030
 20
93.038101
 42
-0.015474
  0
VERTEX
  8
0
 10
89.420239
 20
91.633030
 42
-0.011535
  0
SEQEND
  0
POLYLINE
  8
0
 66
1
 70
1
  0
VERTEX
  8
0
 10
197.983456
 20
90.050130
 42
0.013321
  0
VERTEX
  8
0
 10
198.541976
 20
88.498003
 42
0.020452
  0
VERTEX
  8
0
 10
199.115196
 20
87.189726
 42
0.015847
  0
VERTEX
  8
0
 10
199.647264
 20
86.181405
 42
0.269655
  0
VERTEX
  8
0
 10
199.959171
 20
86.000000
 42
0.254222
  0
VERTEX
  8
0
 10
200.271666
 20
86.169864
 42
0.019160
  0
VERTEX
  8
0
 10
200.782276
 20
87.028125
 42
0.022743
  0
VERTEX
  8
0
 10
201.332531
 20
88.158871
 42
0.015111
  0
VERTEX
  8
0
 10
201.863840
 20
89.500000
 42
-0.029475
  0
VERTEX
  8
0
 10
202.615494
 20
91.248946
 42
-0.090132
  0
VERTEX
  8
0
 10
203.388302
 20
92.276959
 42
-0.117206
  0
VERTEX
  8
0
 10
204.346492
 20
92.816776
 42
-0.070040
  0
VERTEX
  8
0
 10
205.648061
 20
93.000000
 42
-0.033104
  0
VERTEX
  8
0
 10
206.589988
 20
92.937569
 42
-0.061693
  0
VERTEX
  8
0
 10
207.328910
 20
92.744480
 42
-0.100561
  0
VERTEX
  8
0
 10
207.761869
 20
92.461267
 42
-0.297601
  0
VERTEX
  8
0
 10
207.833333
 20
92.130145
 42
-0.017611
  0
VERTEX
  8
0
 10
206.144955
 20
88.149669
 42
-0.005906
  0
VERTEX
  8
0
 10
203.407973
 20
82.457440
 42
-0.001204
  0
VERTEX
  8
0
 10
200.374775
 20
76.372268
 42
-0.269386
  0
VERTEX
  8
0
 10
199.858580
 20
76.034297
 42
-0.267953
  0
VERTEX
  8
0
 10
199.534181
 20
76.199156
 42
-0.015620
  0
VERTEX
  8
0
 10
198.935435
 20
77.185075
 42
-0.020267
  0
VERTEX
  8
0
 10
198.276472
 20
78.469575
 42
-0.013217
  0
VERTEX
  8
0
 10
197.616677
 20
80.000000
 42
0.010408
  0
VERTEX
  8
0
 10
196.965939
 20
81.533040
 42
0.016118
  0
VERTEX
  8
0
 10
196.334704
 20
82.825000
 42
0.010459
  0
VERTEX
  8
0
 10
195.766078
 20
83.847256
 42
0.266625
  0
VERTEX
  8
0
 10
195.500000
 20
84.000000
 42
0.266625
  0
VERTEX
  8
0
 10
195.233922
 20
83.847256
 42
0.010459
  0
VERTEX
  8
0
 10
194.665296
 20
82.825000
 42
0.016118
  0
VERTEX
  8
0
 10
194.034061
 20
81.533040
 42
0.010408
  0
VERTEX
  8
0
 10
193.383323
 20
80.000000
 42
-0.014326
  0
VERTEX
  8
0
 10
192.718504
 20
78.467282
 42
-0.021509
  0
VERTEX
  8
0
 10
192.044214
 20
77.175000
 42
-0.017523
  0
VERTEX
  8
0
 10
191.427244
 20
76.188675
 42
-0.249167
  0
VERTEX
  8
0
 10
191.072139
 20
76.000000
 42
-0.284391
  0
VERTEX
  8
0
 10
190.519245
 20
76.342148
 42
-0.002061
  0
VERTEX
  8
0
 10
188.012491
 20
81.422473
 42
-0.007750
  0
VERTEX
  8
0
 10
185.477103
 20
86.825463
 42
-0.008270
  0
VERTEX
  8
0
 10
183.166667
 20
92.189478
 42
-0.304505
  0
VERTEX
  8
0
 10
183.229507
 20
92.497902
 42
-0.101488
  0
VERTEX
  8
0
 10
183.635698
 20
92.761909
 42
-0.061227
  0
VERTEX
  8
0
 10
184.335570
 20
92.941929
 42
-0.032376
  0
VERTEX
  8
0
 10
185.231454
 20
93.000000
 42
-0.085626
  0
VERTEX
  8
0
 10
186.461426
 20
92.787808
 42
-0.096835
  0
VERTEX
  8
0
 10
187.490964
 20
92.178011
 42
-0.071921
  0
VERTEX
  8
0
 10
188.428795
 20
91.063210
 42
-0.027715
  0
VERTEX
  8
0
 10
189.401210
 20
89.284844
 42
0.000000
  0
VERTEX
  8
0
 10
191.172845
 20
85.569687
 42
0.000000
  0
VERTEX
  8
0
 10
193.207156
 20
90.269243
 42
-0.015021
  0
VERTEX
  8
0
 10
194.037705
 20
92.040050
 42
-0.025483
  0
VERTEX
  8
0
 10
194.850295
 20
93.460738
 42
-0.023743
  0
VERTEX
  8
0
 10
195.565831
 20
94.467300
 42
-0.381810
  0
VERTEX
  8
0
 10
195.944130
 20
94.534530
 42
-0.135851
  0
VERTEX
  8
0
 10
196.285398
 20
94.166121
 42
-0.012581
  0
VERTEX
  8
0
 10
196.833030
 20
93.038101
 42
-0.015474
  0
VERTEX
  8
0
 10
197.420239
 20
91.633030
 42
-0.011535
  0
SEQEND
  0
POLYLINE
  8
0
 66
1
 70
1
  0
VERTEX
  8
0
 10
59.403172
 20
92.862164
 42
-0.108545
  0
VERTEX
  8
0
 10
60.984075
 20
91.675825
 42
-0.047501
  0
VERTEX
  8
0
 10
62.505922
 20
89.525314
 42
-0.047079
  0
VERTEX
  8
0
 10
63.630118
 20
87.053436
 42
-0.083379
  0
VERTEX
  8
0
 10
64.000000
 20
84.850777
 42
-0.347988
  0
VERTEX
  8
0
 10
63.735023
 20
84.516154
 42
-0.020017
  0
VERTEX
  8
0
 10
62.359896
 20
84.249916
 42
-0.023491
  0
VERTEX
  8
0
 10
60.557141
 20
84.061309
 42
-0.014318
  0
VERTEX
  8
0
 10
58.416667
 20
84.000000
 42
0.011728
  0
VERTEX
  8
0
 10
55.792708
 20
83.938443
 42
0.047597
  0
VERTEX
  8
0
 10
54.212362
 20
83.712462
 42
0.110957
  0
VERTEX
  8
0
 10
53.412475
 20
83.317988
 42
0.312013
  0
VERTEX
  8
0
 10
53.244995
 20
82.750000
 42
0.205572
  0
VERTEX
  8
0
 10
54.157315
 20
81.717409
 42
0.082741
  0
VERTEX
  8
0
 10
56.005746
 20
81.192770
 42
0.082510
  0
VERTEX
  8
0
 10
57.929309
 20
81.295198
 42
0.202547
  0
VERTEX
  8
0
 10
59.061239
 20
82.099087
 42
-0.100459
  0
VERTEX
  8
0
 10
59.560063
 20
82.630452
 42
-0.133036
  0
VERTEX
  8
0
 10
60.180110
 20
82.858341
 42
-0.094199
  0
VERTEX
  8
0
 10
60.994900
 20
82.776464
 42
-0.032938
  0
VERTEX
  8
0
 10
62.104379
 20
82.366629
 42
0.000000
  0
VERTEX
  8
0
 10
64.360098
 20
81.360098
 42
0.000000
  0
VERTEX
  8
0
 10
62.180049
 20
79.180049
 42
-0.111928
  0
VERTEX
  8
0
 10
59.389907
 20
77.421154
 42
-0.094553
  0
VERTEX
  8
0
 10
55.933264
 20
76.895204
 42
-0.096247
  0
VERTEX
  8
0
 10
52.578357
 20
77.678783
 42
-0.121322
  0
VERTEX
  8
0
 10
50.072580
 20
79.634859
 42
-0.098747
  0
VERTEX
  8
0
 10
48.299369
 20
83.128595
 42
-0.114306
  0
VERTEX
  8
0
 10
48.131155
 20
86.849033
 42
-0.115469
  0
VERTEX
  8
0
 10
49.612905
 20
90.236354
 42
-0.102307
  0
VERTEX
  8
0
 10
52.500000
 20
92.792183
 42
-0.040389
  0
VERTEX
  8
0
 10
54.274291
 20
93.627425
 42
-0.087498
  0
VERTEX
  8
0
 10
55.751081
 20
93.903313
 42
-0.079992
  0
VERTEX
  8
0
 10
57.316535
 20
93.667508
 42
-0.029603
  0
SEQEND
  0
POLYLINE
  8
0
 66
1
 70
1
  0
VERTEX
  8
0
 10
115.477273
 20
90.931899
 42
-0.125412
  0
VERTEX
  8
0
 10
117.068160
 20
88.307007
 42
-0.081508
  0
VERTEX
  8
0
 10
117.539880
 20
84.773034
 42
-0.082363
  0
VERTEX
  8
0
 10
116.858513
 20
81.310776
 42
-0.133654
  0
VERTEX
  8
0
 10
115.116489
 20
78.893243
 42
-0.137004
  0
VERTEX
  8
0
 10
110.781954
 20
77.017837
 42
-0.130675
  0
VERTEX
  8
0
 10
106.016073
 20
77.611095
 42
-0.138554
  0
VERTEX
  8
0
 10
102.368987
 20
80.436210
 42
-0.160448
  0
VERTEX
  8
0
 10
101.000000
 20
84.592527
 42
-0.033781
  0
VERTEX
  8
0
 10
101.211052
 20
87.712821
 42
-0.092165
  0
VERTEX
  8
0
 10
101.901888
 20
89.805318
 42
-0.107261
  0
VERTEX
  8
0
 10
103.224053
 20
91.323802
 42
-0.056052
  0
VERTEX
  8
0
 10
105.399661
 20
92.594755
 42
-0.066005
  0
VERTEX
  8
0
 10
108.124302
 20
93.392721
 42
-0.079320
  0
VERTEX
  8
0
 10
110.791560
 20
93.378787
 42
-0.080982
  0
VERTEX
  8
0
 10
113.278367
 20
92.540468
 42
-0.072538
  0
SEQEND
  0
POLYLINE
  8
0
 66
1
 70
1
  0
VERTEX
  8
0
 10
180.477273
 20
90.931899
 42
-0.125412
  0
VERTEX
  8
0
 10
182.068160
 20
88.307007
 42
-0.081508
  0
VERTEX
  8
0
 10
182.539880
 20
84.773034
 42
-0.082363
  0
VERTEX
  8
0
 10
181.858513
 20
81.310776
 42
-0.133654
  0
VERTEX
  8
0
 10
180.116489
 20
78.893243
 42
-0.137004
  0
VERTEX
  8
0
 10
175.781954
 20
77.017837
 42
-0.130675
  0
VERTEX
  8
0
 10
171.016073
 20
77.611095
 42
-0.138554
  0
VERTEX
  8
0
 10
167.368987
 20
80.436210
 42
-0.160448
  0
VERTEX
  8
0
 10
166.000000
 20
84.592527
 42
-0.033781
  0
VERTEX
  8
0
 10
166.211052
 20
87.712821
 42
-0.092165
  0
VERTEX
  8
0
 10
166.901888
 20
89.805318
 42
-0.107261
  0
VERTEX
  8
0
 10
168.224053
 20
91.323802
 42
-0.056052
  0
VERTEX
  8
0
 10
170.399661
 20
92.594755
 42
-0.066005
  0
VERTEX
  8
0
 10
173.124302
 20
93.392721
 42
-0.079320
  0
VERTEX
  8
0
 10
175.791560
 20
93.378787
 42
-0.080982
  0
VERTEX
  8
0
 10
178.278367
 20
92.540468
 42
-0.072538
  0
SEQEND
  0
POLYLINE
  8
0
 66
1
 70
1
  0
VERTEX
  8
0
 10
230.008594
 20
92.995401
 42
0.064046
  0
VERTEX
  8
0
 10
231.000775
 20
92.617994
 42
0.067060
  0
VERTEX
  8
0
 10
232.040536
 20
92.511944
 42
0.060247
  0
VERTEX
  8
0
 10
233.162689
 20
92.684556
 42
0.038657
  0
VERTEX
  8
0
 10
234.401889
 20
93.137251
 42
-0.040964
  0
VERTEX
  8
0
 10
235.801084
 20
93.641101
 42
-0.091737
  0
VERTEX
  8
0
 10
236.922935
 20
93.731943
 42
-0.086364
  0
VERTEX
  8
0
 10
238.045251
 20
93.415935
 42
-0.033332
  0
VERTEX
  8
0
 10
239.459036
 20
92.618798
 42
-0.062767
  0
VERTEX
  8
0
 10
240.863109
 20
91.423119
 42
-0.114001
  0
VERTEX
  8
0
 10
241.599294
 20
90.116193
 42
-0.062493
  0
VERTEX
  8
0
 10
241.924869
 20
88.113346
 42
-0.009081
  0
VERTEX
  8
0
 10
242.000000
 20
83.976947
 42
-0.006618
  0
VERTEX
  8
0
 10
241.945460
 20
79.856437
 42
-0.063259
  0
VERTEX
  8
0
 10
241.678335
 20
78.122118
 42
-0.183838
  0
VERTEX
  8
0
 10
241.070414
 20
77.310350
 42
-0.142042
  0
VERTEX
  8
0
 10
240.000000
 20
77.000000
 42
-0.118955
  0
VERTEX
  8
0
 10
238.945397
 20
77.254501
 42
-0.189795
  0
VERTEX
  8
0
 10
238.340393
 20
77.941423
 42
-0.077193
  0
VERTEX
  8
0
 10
238.061311
 20
79.370448
 42
-0.009697
  0
VERTEX
  8
0
 10
238.000000
 20
82.531385
 42
0.014522
  0
VERTEX
  8
0
 10
237.922361
 20
85.203958
 42
0.047229
  0
VERTEX
  8
0
 10
237.653492
 20
86.953671
 42
0.079008
  0
VERTEX
  8
0
 10
237.178935
 20
88.062026
 42
0.161932
  0
VERTEX
  8
0
 10
236.456872
 20
88.654923
 42
0.112122
  0
VERTEX
  8
0
 10
235.119165
 20
88.847663
 42
0.257862
  0
VERTEX
  8
0
 10
234.298328
 20
88.304059
 42
0.086632
  0
VERTEX
  8
0
 10
233.789776
 20
86.707077
 42
0.008154
  0
VERTEX
  8
0
 10
233.298710
 20
82.605280
 42
-0.011911
  0
VERTEX
  8
0
 10
232.920369
 20
79.634372
 42
-0.065059
  0
VERTEX
  8
0
 10
232.473011
 20
78.081112
 42
-0.142261
  0
VERTEX
  8
0
 10
231.819672
 20
77.294302
 42
-0.149904
  0
VERTEX
  8
0
 10
230.860097
 20
77.000000
 42
-0.148437
  0
VERTEX
  8
0
 10
229.897702
 20
77.292148
 42
-0.171845
  0
VERTEX
  8
0
 10
229.327504
 20
78.056409
 42
-0.066337
  0
VERTEX
  8
0
 10
229.060062
 20
79.631967
 42
-0.008916
  0
VERTEX
  8
0
 10
229.000000
 20
83.000000
 42
0.008455
  0
VERTEX
  8
0
 10
228.941290
 20
86.471613
 42
0.072107
  0
VERTEX
  8
0
 10
228.666667
 20
88.000000
 42
0.188641
  0
VERTEX
  8
0
 10
228.060666
 20
88.727332
 42
0.126480
  0
VERTEX
  8
0
 10
227.000000
 20
89.000000
 42
0.126480
  0
VERTEX
  8
0
 10
225.939334
 20
88.727332
 42
0.188641
  0
VERTEX
  8
0
 10
225.333333
 20
88.000000
 42
0.072107
  0
VERTEX
  8
0
 10
225.058710
 20
86.471613
 42
0.008455
  0
VERTEX
  8
0
 10
225.000000
 20
83.000000
 42
-0.007344
  0
VERTEX
  8
0
 10
224.944747
 20
79.238228
 42
-0.091609
  0
VERTEX
  8
0
 10
224.645833
 20
77.850000
 42
-0.224968
  0
VERTEX
  8
0
 10
223.935971
 20
77.210324
 42
-0.072846
  0
VERTEX
  8
0
 10
222.500000
 20
77.000000
 42
-0.092982
  0
VERTEX
  8
0
 10
221.051582
 20
77.271704
 42
-0.227502
  0
VERTEX
  8
0
 10
220.328749
 20
78.043664
 42
-0.071876
  0
VERTEX
  8
0
 10
220.046857
 20
79.772280
 42
-0.004536
  0
VERTEX
  8
0
 10
220.000000
 20
84.936642
 42
0.000000
  0
VERTEX
  8
0
 10
220.000000
 20
92.873283
 42
0.000000
  0
VERTEX
  8
0
 10
223.250000
 20
93.276604
 42
0.001626
  0
VERTEX
  8
0
 10
224.554135
 20
93.442754
 42
0.001929
  0
VERTEX
  8
0
 10
225.784937
 20
93.608461
 42
0.001675
  0
VERTEX
  8
0
 10
226.822451
 20
93.755766
 42
0.012336
  0
VERTEX
  8
0
 10
227.315741
 20
93.839963
 42
-0.099837
  0
VERTEX
  8
0
 10
227.751096
 20
93.837660
 42
-0.024908
  0
VERTEX
  8
0
 10
228.443260
 20
93.657888
 42
-0.024455
  0
VERTEX
  8
0
 10
229.230100
 20
93.368156
 42
-0.022424
  0
SEQEND
  0
POLYLINE
  8
0
 66
1
 70
1
  0
VERTEX
  8
0
 10
258.750000
 20
93.013655
 42
0.000000
  0
VERTEX
  8
0
 10
262.000000
 20
93.000000
 42
0.000000
  0
VERTEX
  8
0
 10
262.000000
 20
85.086964
 42
0.000000
  0
VERTEX
  8
0
 10
262.000000
 20
77.173928
 42
0.000000
  0
VERTEX
  8
0
 10
255.543155
 20
77.124372
 42
-0.011283
  0
VERTEX
  8
0
 10
251.785356
 20
77.180333
 42
-0.063529
  0
VERTEX
  8
0
 10
249.808813
 20
77.508120
 42
-0.101327
  0
VERTEX
  8
0
 10
248.421640
 20
78.253723
 42
-0.052328
  0
VERTEX
  8
0
 10
247.043155
 20
79.672267
 42
-0.083362
  0
VERTEX
  8
0
 10
245.716554
 20
82.099576
 42
-0.065283
  0
VERTEX
  8
0
 10
245.109156
 20
85.043679
 42
-0.068106
  0
VERTEX
  8
0
 10
245.289317
 20
87.902854
 42
-0.115549
  0
VERTEX
  8
0
 10
246.281803
 20
90.072592
 42
-0.057379
  0
VERTEX
  8
0
 10
247.882009
 20
91.710617
 42
-0.059561
  0
VERTEX
  8
0
 10
249.793731
 20
92.918409
 42
-0.065118
  0
VERTEX
  8
0
 10
251.755091
 20
93.556274
 42
-0.105732
  0
VERTEX
  8
0
 10
253.500000
 20
93.510361
 42
0.025485
  0
VERTEX
  8
0
 10
254.492521
 20
93.323564
 42
0.010185
  0
VERTEX
  8
0
 10
255.867187
 20
93.165195
 42
0.010048
  0
VERTEX
  8
0
 10
257.359156
 20
93.054236
 42
0.012485
  0
SEQEND
  0
POLYLINE
  8
0
 66
1
 70
1
  0
VERTEX
  8
0
 10
276.777494
 20
92.443296
 42
-0.078070
  0
VERTEX
  8
0
 10
277.954562
 20
91.309132
 42
-0.098413
  0
VERTEX
  8
0
 10
278.613926
 20
89.950881
 42
-0.054218
  0
VERTEX
  8
0
 10
278.923297
 20
87.867487
 42
-0.009772
  0
VERTEX
  8
0
 10
279.000000
 20
83.943296
 42
-0.006669
  0
VERTEX
  8
0
 10
278.945338
 20
79.845158
 42
-0.063530
  0
VERTEX
  8
0
 10
278.677988
 20
78.117912
 42
-0.184043
  0
VERTEX
  8
0
 10
278.070125
 20
77.309060
 42
-0.141512
  0
VERTEX
  8
0
 10
277.000000
 20
77.000000
 42
-0.127596
  0
VERTEX
  8
0
 10
275.938527
 20
77.275362
 42
-0.188394
  0
VERTEX
  8
0
 10
275.332378
 20
78.008694
 42
-0.071404
  0
VERTEX
  8
0
 10
275.058362
 20
79.551790
 42
-0.008295
  0
VERTEX
  8
0
 10
275.000000
 20
83.069551
 42
0.006764
  0
VERTEX
  8
0
 10
274.949143
 20
86.828905
 42
0.086700
  0
VERTEX
  8
0
 10
274.670486
 20
88.203415
 42
0.248829
  0
VERTEX
  8
0
 10
274.013462
 20
88.768210
 42
0.091097
  0
VERTEX
  8
0
 10
272.750000
 20
88.819551
 42
0.097407
  0
VERTEX
  8
0
 10
271.534611
 20
88.396067
 42
0.162301
  0
VERTEX
  8
0
 10
270.827231
 20
87.588757
 42
0.076094
  0
VERTEX
  8
0
 10
270.441644
 20
86.051971
 42
0.010457
  0
VERTEX
  8
0
 10
270.200096
 20
82.750000
 42
-0.008804
  0
VERTEX
  8
0
 10
269.956389
 20
79.260032
 42
-0.089936
  0
VERTEX
  8
0
 10
269.575864
 20
77.867313
 42
-0.205726
  0
VERTEX
  8
0
 10
268.834491
 20
77.218521
 42
-0.078437
  0
VERTEX
  8
0
 10
267.450096
 20
77.000000
 42
-0.097915
  0
VERTEX
  8
0
 10
266.040429
 20
77.278727
 42
-0.223898
  0
VERTEX
  8
0
 10
265.327148
 20
78.060135
 42
-0.070345
  0
VERTEX
  8
0
 10
265.047228
 20
79.807324
 42
-0.004601
  0
VERTEX
  8
0
 10
265.000000
 20
84.939635
 42
0.000000
  0
VERTEX
  8
0
 10
265.000000
 20
92.879269
 42
0.000000
  0
VERTEX
  8
0
 10
268.750000
 20
93.271532
 42
0.001454
  0
VERTEX
  8
0
 10
270.261065
 20
93.434038
 42
0.001679
  0
VERTEX
  8
0
 10
271.700264
 20
93.597947
 42
0.001501
  0
VERTEX
  8
0
 10
272.918568
 20
93.744554
 42
0.009852
  0
VERTEX
  8
0
 10
273.527494
 20
93.831897
 42
-0.113789
  0
VERTEX
  8
0
 10
274.067201
 20
93.797073
 42
-0.028194
  0
VERTEX
  8
0
 10
274.906022
 20
93.493338
 42
-0.027375
  0
VERTEX
  8
0
 10
275.851219
 20
93.026782
 42
-0.024444
  0
SEQEND
  0
POLYLINE
  8
0
 66
1
 70
1
  0
VERTEX
  8
0
 10
287.599123
 20
88.884707
 42
0.000000
  0
VERTEX
  8
0
 10
289.592272
 20
84.769415
 42
0.000000
  0
VERTEX
  8
0
 10
291.448010
 20
88.884707
 42
-0.023375
  0
VERTEX
  8
0
 10
292.470140
 20
90.895048
 42
-0.069846
  0
VERTEX
  8
0
 10
293.409724
 20
92.114277
 42
-0.101319
  0
VERTEX
  8
0
 10
294.426748
 20
92.770188
 42
-0.092980
  0
VERTEX
  8
0
 10
295.651874
 20
93.000000
 42
-0.023325
  0
VERTEX
  8
0
 10
296.551772
 20
92.957997
 42
-0.037269
  0
VERTEX
  8
0
 10
297.310238
 20
92.829527
 42
-0.043124
  0
VERTEX
  8
0
 10
297.853381
 20
92.644406
 42
-0.297356
  0
VERTEX
  8
0
 10
298.000000
 20
92.419668
 42
-0.124601
  0
VERTEX
  8
0
 10
297.383308
 20
89.983431
 42
-0.003372
  0
VERTEX
  8
0
 10
292.034874
 20
80.253281
 42
-0.003084
  0
VERTEX
  8
0
 10
286.524874
 20
70.528834
 42
-0.140341
  0
VERTEX
  8
0
 10
284.886321
 20
68.939161
 42
-0.090505
  0
VERTEX
  8
0
 10
282.810201
 20
68.272112
 42
-0.406131
  0
VERTEX
  8
0
 10
281.883771
 20
68.963612
 42
-0.142853
  0
VERTEX
  8
0
 10
282.142112
 20
71.007147
 42
-0.021716
  0
VERTEX
  8
0
 10
283.961160
 20
74.744546
 42
0.000000
  0
VERTEX
  8
0
 10
286.986968
 20
80.331103
 42
0.000000
  0
VERTEX
  8
0
 10
283.444543
 20
86.665552
 42
0.000000
  0
VERTEX
  8
0
 10
279.902118
 20
93.000000
 42
0.000000
  0
VERTEX
  8
0
 10
282.754046
 20
93.000000
 42
-0.063184
  0
VERTEX
  8
0
 10
284.306976
 20
92.802973
 42
-0.113416
  0
VERTEX
  8
0
 10
285.442064
 20
92.214534
 42
-0.082159
  0
VERTEX
  8
0
 10
286.434336
 20
91.042936
 42
-0.021937
  0
SEQEND
  0
POLYLINE
  8
0
 66
1
 70
1
  0
VERTEX
  8
0
 10
29.000000
 20
55.891592
 42
0.005907
  0
VERTEX
  8
0
 10
29.045990
 20
51.999163
 42
0.093571
  0
VERTEX
  8
0
 10
29.321002
 20
50.710328
 42
0.285401
  0
VERTEX
  8
0
 10
29.980814
 20
50.241321
 42
0.077111
  0
VERTEX
  8
0
 10
31.316166
 20
50.364505
 42
-0.066546
  0
VERTEX
  8
0
 10
32.388562
 20
50.486214
 42
-0.046986
  0
VERTEX
  8
0
 10
33.594878
 20
50.348352
 42
-0.045955
  0
VERTEX
  8
0
 10
34.786416
 20
49.980368
 42
-0.054962
  0
VERTEX
  8
0
 10
35.816166
 20
49.416209
 42
-0.080573
  0
VERTEX
  8
0
 10
36.966888
 20
48.296338
 42
-0.096784
  0
VERTEX
  8
0
 10
37.616294
 20
46.935392
 42
-0.053287
  0
VERTEX
  8
0
 10
37.923321
 20
44.844234
 42
-0.009827
  0
VERTEX
  8
0
 10
38.000000
 20
40.943296
 42
-0.006669
  0
VERTEX
  8
0
 10
37.945338
 20
36.845158
 42
-0.063530
  0
VERTEX
  8
0
 10
37.677988
 20
35.117912
 42
-0.184043
  0
VERTEX
  8
0
 10
37.070125
 20
34.309060
 42
-0.141512
  0
VERTEX
  8
0
 10
36.000000
 20
34.000000
 42
-0.126480
  0
VERTEX
  8
0
 10
34.939334
 20
34.272668
 42
-0.188641
  0
VERTEX
  8
0
 10
34.333333
 20
35.000000
 42
-0.072107
  0
VERTEX
  8
0
 10
34.058710
 20
36.528387
 42
-0.008455
  0
VERTEX
  8
0
 10
34.000000
 20
40.000000
 42
0.007344
  0
VERTEX
  8
0
 10
33.944747
 20
43.761772
 42
0.091609
  0
VERTEX
  8
0
 10
33.645833
 20
45.150000
 42
0.224968
  0
VERTEX
  8
0
 10
32.935971
 20
45.789676
 42
0.072846
  0
VERTEX
  8
0
 10
31.500000
 20
46.000000
 42
0.072846
  0
VERTEX
  8
0
 10
30.064029
 20
45.789676
 42
0.224968
  0
VERTEX
  8
0
 10
29.354167
 20
45.150000
 42
0.091609
  0
VERTEX
  8
0
 10
29.055253
 20
43.761772
 42
0.007344
  0
VERTEX
  8
0
 10
29.000000
 20
40.000000
 42
-0.007344
  0
VERTEX
  8
0
 10
28.944747
 20
36.238228
 42
-0.091609
  0
VERTEX
  8
0
 10
28.645833
 20
34.850000
 42
-0.224968
  0
VERTEX
  8
0
 10
27.935971
 20
34.210324
 42
-0.072846
  0
VERTEX
  8
0
 10
26.500000
 20
34.000000
 42
0.000000
  0
VERTEX
  8
0
 10
24.000000
 20
34.000000
 42
0.000000
  0
VERTEX
  8
0
 10
24.000000
 20
47.333333
 42
-0.004672
  0
VERTEX
  8
0
 10
24.048198
 20
52.491846
 42
-0.007224
  0
VERTEX
  8
0
 10
24.195833
 20
56.945833
 42
-0.002894
  0
VERTEX
  8
0
 10
24.398315
 20
60.736078
 42
-0.183581
  0
VERTEX
  8
0
 10
24.666667
 20
61.333333
 42
-0.097261
  0
VERTEX
  8
0
 10
25.048627
 20
61.589900
 42
-0.034257
  0
VERTEX
  8
0
 10
25.676042
 20
61.804167
 42
-0.032464
  0
VERTEX
  8
0
 10
26.415909
 20
61.950834
 42
-0.032710
  0
VERTEX
  8
0
 10
27.166667
 20
62.000000
 42
-0.155021
  0
VERTEX
  8
0
 10
28.111954
 20
61.699705
 42
-0.167550
  0
VERTEX
  8
0
 10
28.674967
 20
60.917035
 42
-0.064225
  0
VERTEX
  8
0
 10
28.940158
 20
59.307603
 42
-0.008758
  0
SEQEND
  0
POLYLINE
  8
0
 66
1
 70
1
  0
VERTEX
  8
0
 10
87.000000
 20
55.920545
 42
0.000000
  0
VERTEX
  8
0
 10
87.000000
 20
49.841089
 42
0.000000
  0
VERTEX
  8
0
 10
89.934853
 20
50.485691
 42
-0.119521
  0
VERTEX
  8
0
 10
93.056613
 20
50.417907
 42
-0.175626
  0
VERTEX
  8
0
 10
95.288578
 20
48.866797
 42
-0.115745
  0
VERTEX
  8
0
 10
96.602240
 20
45.627716
 42
-0.038727
  0
VERTEX
  8
0
 10
97.000000
 20
40.500000
 42
-0.006367
  0
VERTEX
  8
0
 10
96.947488
 20
36.376461
 42
-0.085635
  0
VERTEX
  8
0
 10
96.653846
 20
34.900000
 42
-0.226921
  0
VERTEX
  8
0
 10
95.940826
 20
34.225912
 42
-0.077921
  0
VERTEX
  8
0
 10
94.500000
 20
34.000000
 42
-0.072846
  0
VERTEX
  8
0
 10
93.064029
 20
34.210324
 42
-0.224968
  0
VERTEX
  8
0
 10
92.354167
 20
34.850000
 42
-0.091609
  0
VERTEX
  8
0
 10
92.055253
 20
36.238228
 42
-0.007344
  0
VERTEX
  8
0
 10
92.000000
 20
40.000000
 42
0.008800
  0
VERTEX
  8
0
 10
91.940273
 20
43.393488
 42
0.067708
  0
VERTEX
  8
0
 10
91.671125
 20
44.957612
 42
0.176099
  0
VERTEX
  8
0
 10
91.092222
 20
45.712456
 42
0.142945
  0
VERTEX
  8
0
 10
90.106989
 20
46.000000
 42
0.150990
  0
VERTEX
  8
0
 10
88.647501
 20
45.548981
 42
0.146648
  0
VERTEX
  8
0
 10
87.676663
 20
44.348783
 42
0.077589
  0
VERTEX
  8
0
 10
87.146919
 20
42.126936
 42
0.019799
  0
VERTEX
  8
0
 10
87.000000
 20
38.418213
 42
-0.014442
  0
VERTEX
  8
0
 10
86.929927
 20
35.992651
 42
-0.092087
  0
VERTEX
  8
0
 10
86.636832
 20
34.802277
 42
-0.187612
  0
VERTEX
  8
0
 10
86.033518
 20
34.211603
 42
-0.101320
  0
VERTEX
  8
0
 10
85.000000
 20
34.000000
 42
-0.235138
  0
VERTEX
  8
0
 10
83.887801
 20
34.553651
 42
-0.126958
  0
VERTEX
  8
0
 10
83.285714
 20
36.000000
 42
-0.033055
  0
VERTEX
  8
0
 10
83.042793
 20
39.198195
 42
-0.002431
  0
VERTEX
  8
0
 10
83.000000
 20
48.000000
 42
-0.002431
  0
VERTEX
  8
0
 10
83.042793
 20
56.801805
 42
-0.033055
  0
VERTEX
  8
0
 10
83.285714
 20
60.000000
 42
-0.126958
  0
VERTEX
  8
0
 10
83.887801
 20
61.446349
 42
-0.235138
  0
VERTEX
  8
0
 10
85.000000
 20
62.000000
 42
-0.127755
  0
VERTEX
  8
0
 10
86.061586
 20
61.724255
 42
-0.188358
  0
VERTEX
  8
0
 10
86.667756
 20
60.990068
 42
-0.071304
  0
VERTEX
  8
0
 10
86.941687
 20
59.444878
 42
-0.008272
  0
SEQEND
  0
POLYLINE
  8
0
 66
1
 70
1
  0
VERTEX
  8
0
 10
243.000000
 20
55.524751
 42
0.000000
  0
VERTEX
  8
0
 10
243.000000
 20
49.049502
 42
0.000000
  0
VERTEX
  8
0
 10
245.500000
 20
50.000000
 42
-0.122827
  0
VERTEX
  8
0
 10
249.129672
 20
50.433583
 42
-0.151264
  0
VERTEX
  8
0
 10
252.221025
 20
49.031544
 42
-0.130570
  0
VERTEX
  8
0
 10
254.286187
 20
45.914113
 42
-0.081533
  0
VERTEX
  8
0
 10
255.000000
 20
41.565741
 42
-0.081233
  0
VERTEX
  8
0
 10
254.423971
 20
38.043613
 42
-0.152701
  0
VERTEX
  8
0
 10
252.747835
 20
35.731576
 42
-0.121691
  0
VERTEX
  8
0
 10
249.738946
 20
34.465602
 42
-0.042562
  0
VERTEX
  8
0
 10
245.022709
 20
34.130198
 42
0.000000
  0
VERTEX
  8
0
 10
239.000000
 20
34.214978
 42
0.000000
  0
VERTEX
  8
0
 10
239.000000
 20
48.107489
 42
-0.002456
  0
VERTEX
  8
0
 10
239.042876
 20
56.837564
 42
-0.033302
  0
VERTEX
  8
0
 10
239.285991
 20
60.013436
 42
-0.127775
  0
VERTEX
  8
0
 10
239.888383
 20
61.449617
 42
-0.234004
  0
VERTEX
  8
0
 10
241.000000
 20
62.000000
 42
-0.134086
  0
VERTEX
  8
0
 10
242.065796
 20
61.708950
 42
-0.186638
  0
VERTEX
  8
0
 10
242.672783
 20
60.940594
 42
-0.067536
  0
VERTEX
  8
0
 10
242.943496
 20
59.311860
 42
-0.007460
  0
SEQEND
  0
POLYLINE
  8
0
 66
1
 70
1
  0
VERTEX
  8
0
 10
19.000000
 20
53.000000
 42
0.033607
  0
VERTEX
  8
0
 10
19.088963
 20
51.677925
 42
0.082504
  0
VERTEX
  8
0
 10
19.375000
 20
50.750000
 42
0.126510
  0
VERTEX
  8
0
 10
19.851045
 20
50.202091
 42
0.152103
  0
VERTEX
  8
0
 10
20.500000
 20
50.000000
 42
-0.130775
  0
VERTEX
  8
0
 10
21.075754
 20
49.846791
 42
-0.102140
  0
VERTEX
  8
0
 10
21.562500
 20
49.416667
 42
-0.088920
  0
VERTEX
  8
0
 10
21.888136
 20
48.769411
 42
-0.072314
  0
VERTEX
  8
0
 10
22.000000
 20
48.000000
 42
-0.072314
  0
VERTEX
  8
0
 10
21.888136
 20
47.230589
 42
-0.088920
  0
VERTEX
  8
0
 10
21.562500
 20
46.583333
 42
-0.102140
  0
VERTEX
  8
0
 10
21.075754
 20
46.153209
 42
-0.130775
  0
VERTEX
  8
0
 10
20.500000
 20
46.000000
 42
0.222027
  0
VERTEX
  8
0
 10
19.776970
 20
45.662288
 42
0.113455
  0
VERTEX
  8
0
 10
19.312500
 20
44.750000
 42
0.050675
  0
VERTEX
  8
0
 10
19.064452
 20
43.035942
 42
0.010614
  0
VERTEX
  8
0
 10
19.000000
 20
40.000000
 42
-0.008455
  0
VERTEX
  8
0
 10
18.941290
 20
36.528387
 42
-0.072107
  0
VERTEX
  8
0
 10
18.666667
 20
35.000000
 42
-0.188641
  0
VERTEX
  8
0
 10
18.060666
 20
34.272668
 42
-0.126480
  0
VERTEX
  8
0
 10
17.000000
 20
34.000000
 42
-0.126480
  0
VERTEX
  8
0
 10
15.939334
 20
34.272668
 42
-0.188641
  0
VERTEX
  8
0
 10
15.333333
 20
35.000000
 42
-0.072107
  0
VERTEX
  8
0
 10
15.058710
 20
36.528387
 42
-0.008455
  0
VERTEX
  8
0
 10
15.000000
 20
40.000000
 42
0.015416
  0
VERTEX
  8
0
 10
14.928566
 20
42.316313
 42
0.025878
  0
VERTEX
  8
0
 10
14.708333
 20
44.250000
 42
0.024068
  0
VERTEX
  8
0
 10
14.395008
 20
45.696775
 42
0.339565
  0
VERTEX
  8
0
 10
14.000000
 20
46.000000
 42
-0.191087
  0
VERTEX
  8
0
 10
13.618118
 20
46.151477
 42
-0.088204
  0
VERTEX
  8
0
 10
13.293750
 20
46.587500
 42
-0.068025
  0
VERTEX
  8
0
 10
13.073693
 20
47.234582
 42
-0.048028
  0
VERTEX
  8
0
 10
13.000000
 20
48.000000
 42
-0.048028
  0
VERTEX
  8
0
 10
13.073693
 20
48.765418
 42
-0.068025
  0
VERTEX
  8
0
 10
13.293750
 20
49.412500
 42
-0.088204
  0
VERTEX
  8
0
 10
13.618118
 20
49.848523
 42
-0.191087
  0
VERTEX
  8
0
 10
14.000000
 20
50.000000
 42
0.254951
  0
VERTEX
  8
0
 10
14.384262
 20
50.209557
 42
0.062710
  0
VERTEX
  8
0
 10
14.706250
 20
50.881250
 42
0.048861
  0
VERTEX
  8
0
 10
14.927234
 20
51.850749
 42
0.031626
  0
VERTEX
  8
0
 10
15.000000
 20
53.000000
 42
-0.030703
  0
VERTEX
  8
0
 10
15.092253
 20
54.500917
 42
-0.116834
  0
VERTEX
  8
0
 10
15.416667
 20
55.375000
 42
-0.166173
  0
VERTEX
  8
0
 10
16.024683
 20
55.840542
 42
-0.081208
  0
VERTEX
  8
0
 10
17.000000
 20
56.000000
 42
-0.081208
  0
VERTEX
  8
0
 10
17.975317
 20
55.840542
 42
-0.166173
  0
VERTEX
  8
0
 10
18.583333
 20
55.375000
 42
-0.116834
  0
VERTEX
  8
0
 10
18.907747
 20
54.500917
 42
-0.030703
  0
SEQEND
  0
POLYLINE
  8
0
 66
1
 70
1
  0
VERTEX
  8
0
 10
52.433725
 20
49.848243
 42
-0.046829
  0
VERTEX
  8
0
 10
53.439316
 20
49.270988
 42
-0.040750
  0
VERTEX
  8
0
 10
54.371527
 20
48.491893
 42
-0.042820
  0
VERTEX
  8
0
 10
55.100505
 20
47.639635
 42
-0.087254
  0
VERTEX
  8
0
 10
55.480778
 20
46.848243
 42
0.000215
  0
VERTEX
  8
0
 10
55.720450
 20
45.996501
 42
0.000118
  0
VERTEX
  8
0
 10
56.014149
 20
44.955421
 42
0.000118
  0
VERTEX
  8
0
 10
56.312448
 20
43.899944
 42
0.000190
  0
VERTEX
  8
0
 10
56.567388
 20
43.000000
 42
-0.106572
  0
VERTEX
  8
0
 10
56.637178
 20
41.912517
 42
-0.268084
  0
VERTEX
  8
0
 10
56.160454
 20
41.313382
 42
-0.086582
  0
VERTEX
  8
0
 10
54.874046
 20
41.049791
 42
-0.007343
  0
VERTEX
  8
0
 10
51.484054
 20
41.000000
 42
0.011544
  0
VERTEX
  8
0
 10
48.824997
 20
40.938602
 42
0.047045
  0
VERTEX
  8
0
 10
47.225692
 20
40.712910
 42
0.109657
  0
VERTEX
  8
0
 10
46.415196
 20
40.318738
 42
0.314230
  0
VERTEX
  8
0
 10
46.244995
 20
39.750000
 42
0.205572
  0
VERTEX
  8
0
 10
47.157315
 20
38.717409
 42
0.082741
  0
VERTEX
  8
0
 10
49.005746
 20
38.192770
 42
0.082510
  0
VERTEX
  8
0
 10
50.929309
 20
38.295198
 42
0.202547
  0
VERTEX
  8
0
 10
52.061239
 20
39.099087
 42
-0.100459
  0
VERTEX
  8
0
 10
52.560063
 20
39.630452
 42
-0.133036
  0
VERTEX
  8
0
 10
53.180110
 20
39.858341
 42
-0.094199
  0
VERTEX
  8
0
 10
53.994900
 20
39.776464
 42
-0.032938
  0
VERTEX
  8
0
 10
55.104379
 20
39.366629
 42
0.000000
  0
VERTEX
  8
0
 10
57.360098
 20
38.360098
 42
0.000000
  0
VERTEX
  8
0
 10
55.180049
 20
36.180049
 42
-0.111928
  0
VERTEX
  8
0
 10
52.389907
 20
34.421154
 42
-0.094553
  0
VERTEX
  8
0
 10
48.933264
 20
33.895204
 42
-0.096247
  0
VERTEX
  8
0
 10
45.578357
 20
34.678783
 42
-0.121322
  0
VERTEX
  8
0
 10
43.072580
 20
36.634859
 42
-0.098177
  0
VERTEX
  8
0
 10
41.269054
 20
40.178413
 42
-0.114695
  0
VERTEX
  8
0
 10
41.093291
 20
43.941798
 42
-0.117214
  0
VERTEX
  8
0
 10
42.589113
 20
47.336053
 42
-0.105853
  0
VERTEX
  8
0
 10
45.500000
 20
49.845268
 42
-0.039665
  0
VERTEX
  8
0
 10
47.291044
 20
50.647711
 42
-0.085582
  0
VERTEX
  8
0
 10
48.774935
 20
50.904230
 42
-0.078194
  0
VERTEX
  8
0
 10
50.343256
 20
50.658144
 42
-0.028962
  0
SEQEND
  0
POLYLINE
  8
0
 66
1
 70
1
  0
VERTEX
  8
0
 10
77.065741
 20
49.964816
 42
-0.099300
  0
VERTEX
  8
0
 10
78.818185
 20
48.520380
 42
-0.289891
  0
VERTEX
  8
0
 10
78.996375
 20
47.032363
 42
-0.239466
  0
VERTEX
  8
0
 10
77.667258
 20
46.010201
 42
-0.080655
  0
VERTEX
  8
0
 10
75.149648
 20
45.948399
 42
0.076930
  0
VERTEX
  8
0
 10
74.681803
 20
45.940380
 42
0.185919
  0
VERTEX
  8
0
 10
74.389651
 20
45.765916
 42
0.210354
  0
VERTEX
  8
0
 10
74.311340
 20
45.459425
 42
0.097575
  0
VERTEX
  8
0
 10
74.458665
 20
45.066882
 42
0.082481
  0
VERTEX
  8
0
 10
74.815464
 20
44.658562
 42
0.053447
  0
VERTEX
  8
0
 10
75.340861
 20
44.313396
 42
0.052190
  0
VERTEX
  8
0
 10
75.944682
 20
44.079075
 42
0.066571
  0
VERTEX
  8
0
 10
76.535964
 20
44.000000
 42
-0.128574
  0
VERTEX
  8
0
 10
77.194165
 20
43.827900
 42
-0.043570
  0
VERTEX
  8
0
 10
78.018558
 20
43.265625
 42
-0.039916
  0
VERTEX
  8
0
 10
78.860472
 20
42.456651
 42
-0.036396
  0
VERTEX
  8
0
 10
79.591957
 20
41.500000
 42
-0.024542
  0
VERTEX
  8
0
 10
80.492593
 20
39.966256
 42
-0.121059
  0
VERTEX
  8
0
 10
80.730020
 20
39.000000
 42
-0.121059
  0
VERTEX
  8
0
 10
80.492593
 20
38.033744
 42
-0.024542
  0
VERTEX
  8
0
 10
79.591957
 20
36.500000
 42
-0.160338
  0
VERTEX
  8
0
 10
76.979040
 20
34.418026
 42
-0.120070
  0
VERTEX
  8
0
 10
73.299270
 20
33.989914
 42
-0.139115
  0
VERTEX
  8
0
 10
70.206819
 20
35.296029
 42
-0.227485
  0
VERTEX
  8
0
 10
69.000000
 20
37.811291
 42
-0.165302
  0
VERTEX
  8
0
 10
69.211857
 20
38.434598
 42
-0.177619
  0
VERTEX
  8
0
 10
69.753687
 20
38.777283
 42
-0.081745
  0
VERTEX
  8
0
 10
70.767375
 20
38.827243
 42
-0.017893
  0
VERTEX
  8
0
 10
72.500000
 20
38.565978
 42
0.021639
  0
VERTEX
  8
0
 10
73.972595
 20
38.355192
 42
0.052425
  0
VERTEX
  8
0
 10
75.069965
 20
38.361614
 42
0.088427
  0
VERTEX
  8
0
 10
75.759102
 20
38.565014
 42
0.284146
  0
VERTEX
  8
0
 10
76.000000
 20
38.954687
 42
0.099052
  0
VERTEX
  8
0
 10
75.920187
 20
39.353618
 42
0.097948
  0
VERTEX
  8
0
 10
75.692898
 20
39.692939
 42
0.097941
  0
VERTEX
  8
0
 10
75.353531
 20
39.920199
 42
0.099024
  0
VERTEX
  8
0
 10
74.954545
 20
40.000000
 42
-0.129976
  0
VERTEX
  8
0
 10
74.402578
 20
40.145951
 42
-0.023507
  0
VERTEX
  8
0
 10
73.498130
 20
40.718063
 42
-0.023933
  0
VERTEX
  8
0
 10
72.477165
 20
41.508602
 42
-0.019669
  0
VERTEX
  8
0
 10
71.464621
 20
42.444470
 42
-0.072025
  0
VERTEX
  8
0
 10
70.035547
 20
44.357482
 42
-0.137834
  0
VERTEX
  8
0
 10
69.613307
 20
46.212116
 42
-0.138540
  0
VERTEX
  8
0
 10
70.219490
 20
48.008678
 42
-0.073087
  0
VERTEX
  8
0
 10
71.830866
 20
49.750000
 42
-0.043626
  0
VERTEX
  8
0
 10
73.140184
 20
50.628611
 42
-0.116224
  0
VERTEX
  8
0
 10
74.217002
 20
50.929438
 42
-0.103238
  0
VERTEX
  8
0
 10
75.392772
 20
50.733977
 42
-0.030238
  0
SEQEND
  0
POLYLINE
  8
0
 66
1
 70
1
  0
VERTEX
  8
0
 10
111.433725
 20
49.848243
 42
-0.046829
  0
VERTEX
  8
0
 10
112.439316
 20
49.270988
 42
-0.040750
  0
VERTEX
  8
0
 10
113.371527
 20
48.491893
 42
-0.042820
  0
VERTEX
  8
0
 10
114.100505
 20
47.639635
 42
-0.087254
  0
VERTEX
  8
0
 10
114.480778
 20
46.848243
 42
0.000215
  0
VERTEX
  8
0
 10
114.720450
 20
45.996501
 42
0.000118
  0
VERTEX
  8
0
 10
115.014149
 20
44.955421
 42
0.000118
  0
VERTEX
  8
0
 10
115.312448
 20
43.899944
 42
0.000190
  0
VERTEX
  8
0
 10
115.567388
 20
43.000000
 42
-0.106572
  0
VERTEX
  8
0
 10
115.637178
 20
41.912517
 42
-0.268084
  0
VERTEX
  8
0
 10
115.160454
 20
41.313382
 42
-0.086582
  0
VERTEX
  8
0
 10
113.874046
 20
41.049791
 42
-0.007343
  0
VERTEX
  8
0
 10
110.484054
 20
41.000000
 42
0.011544
  0
VERTEX
  8
0
 10
107.824997
 20
40.938602
 42
0.047045
  0
VERTEX
  8
0
 10
106.225692
 20
40.712910
 42
0.109657
  0
VERTEX
  8
0
 10
105.415196
 20
40.318738
 42
0.314230
  0
VERTEX
  8
0
 10
105.244995
 20
39.750000
 42
0.205572
  0
VERTEX
  8
0
 10
106.157315
 20
38.717409
 42
0.082741
  0
VERTEX
  8
0
 10
108.005746
 20
38.192770
 42
0.082510
  0
VERTEX
  8
0
 10
109.929309
 20
38.295198
 42
0.202547
  0
VERTEX
  8
0
 10
111.061239
 20
39.099087
 42
-0.100459
  0
VERTEX
  8
0
 10
111.560063
 20
39.630452
 42
-0.133036
  0
VERTEX
  8
0
 10
112.180110
 20
39.858341
 42
-0.094199
  0
VERTEX
  8
0
 10
112.994900
 20
39.776464
 42
-0.032938
  0
VERTEX
  8
0
 10
114.104379
 20
39.366629
 42
0.000000
  0
VERTEX
  8
0
 10
116.360098
 20
38.360098
 42
0.000000
  0
VERTEX
  8
0
 10
114.180049
 20
36.180049
 42
-0.110676
  0
VERTEX
  8
0
 10
112.035732
 20
34.820856
 42
-0.053552
  0
VERTEX
  8
0
 10
108.861772
 20
34.052578
 42
-0.053807
  0
VERTEX
  8
0
 10
105.647439
 20
33.978712
 42
-0.126721
  0
VERTEX
  8
0
 10
103.399704
 20
34.765313
 42
-0.134212
  0
VERTEX
  8
0
 10
101.414367
 20
37.050789
 42
-0.069364
  0
VERTEX
  8
0
 10
100.251307
 20
40.682867
 42
-0.069794
  0
VERTEX
  8
0
 10
100.130168
 20
44.463069
 42
-0.142470
  0
VERTEX
  8
0
 10
101.250000
 20
47.184547
 42
-0.056104
  0
VERTEX
  8
0
 10
102.574696
 20
48.509001
 42
-0.035700
  0
VERTEX
  8
0
 10
104.373798
 20
49.744719
 42
-0.035938
  0
VERTEX
  8
0
 10
106.231873
 20
50.662141
 42
-0.090626
  0
VERTEX
  8
0
 10
107.702947
 20
50.969591
 42
-0.062345
  0
VERTEX
  8
0
 10
108.330821
 20
50.907066
 42
-0.017050
  0
VERTEX
  8
0
 10
109.295079
 20
50.652739
 42
-0.016962
  0
VERTEX
  8
0
 10
110.377683
 20
50.286875
 42
-0.016928
  0
SEQEND
  0
POLYLINE
  8
0
 66
1
 70
1
  0
VERTEX
  8
0
 10
129.433725
 20
49.848243
 42
-0.046829
  0
VERTEX
  8
0
 10
130.439316
 20
49.270988
 42
-0.040750
  0
VERTEX
  8
0
 10
131.371527
 20
48.491893
 42
-0.042820
  0
VERTEX
  8
0
 10
132.100505
 20
47.639635
 42
-0.087254
  0
VERTEX
  8
0
 10
132.480778
 20
46.848243
 42
0.000215
  0
VERTEX
  8
0
 10
132.720450
 20
45.996501
 42
0.000118
  0
VERTEX
  8
0
 10
133.014149
 20
44.955421
 42
0.000118
  0
VERTEX
  8
0
 10
133.312448
 20
43.899944
 42
0.000190
  0
VERTEX
  8
0
 10
133.567388
 20
43.000000
 42
-0.106572
  0
VERTEX
  8
0
 10
133.637178
 20
41.912517
 42
-0.268084
  0
VERTEX
  8
0
 10
133.160454
 20
41.313382
 42
-0.086582
  0
VERTEX
  8
0
 10
131.874046
 20
41.049791
 42
-0.007343
  0
VERTEX
  8
0
 10
128.484054
 20
41.000000
 42
0.011544
  0
VERTEX
  8
0
 10
125.824997
 20
40.938602
 42
0.047045
  0
VERTEX
  8
0
 10
124.225692
 20
40.712910
 42
0.109657
  0
VERTEX
  8
0
 10
123.415196
 20
40.318738
 42
0.314230
  0
VERTEX
  8
0
 10
123.244995
 20
39.750000
 42
0.205572
  0
VERTEX
  8
0
 10
124.157315
 20
38.717409
 42
0.082741
  0
VERTEX
  8
0
 10
126.005746
 20
38.192770
 42
0.082510
  0
VERTEX
  8
0
 10
127.929309
 20
38.295198
 42
0.202547
  0
VERTEX
  8
0
 10
129.061239
 20
39.099087
 42
-0.100459
  0
VERTEX
  8
0
 10
129.560063
 20
39.630452
 42
-0.133036
  0
VERTEX
  8
0
 10
130.180110
 20
39.858341
 42
-0.094199
  0
VERTEX
  8
0
 10
130.994900
 20
39.776464
 42
-0.032938
  0
VERTEX
  8
0
 10
132.104379
 20
39.366629
 42
0.000000
  0
VERTEX
  8
0
 10
134.360098
 20
38.360098
 42
0.000000
  0
VERTEX
  8
0
 10
132.180049
 20
36.180049
 42
-0.111928
  0
VERTEX
  8
0
 10
129.389907
 20
34.421154
 42
-0.094553
  0
VERTEX
  8
0
 10
125.933264
 20
33.895204
 42
-0.096247
  0
VERTEX
  8
0
 10
122.578357
 20
34.678783
 42
-0.121322
  0
VERTEX
  8
0
 10
120.072580
 20
36.634859
 42
-0.098177
  0
VERTEX
  8
0
 10
118.269054
 20
40.178413
 42
-0.114695
  0
VERTEX
  8
0
 10
118.093291
 20
43.941798
 42
-0.117214
  0
VERTEX
  8
0
 10
119.589113
 20
47.336053
 42
-0.105853
  0
VERTEX
  8
0
 10
122.500000
 20
49.845268
 42
-0.039665
  0
VERTEX
  8
0
 10
124.291044
 20
50.647711
 42
-0.085582
  0
VERTEX
  8
0
 10
125.774935
 20
50.904230
 42
-0.078194
  0
VERTEX
  8
0
 10
127.343256
 20
50.658144
 42
-0.028962
  0
SEQEND
  0
POLYLINE
  8
0
 66
1
 70
1
  0
VERTEX
  8
0
 10
149.671509
 20
48.606133
 42
-0.039336
  0
VERTEX
  8
0
 10
151.049660
 20
47.218026
 42
-0.073665
  0
VERTEX
  8
0
 10
151.883099
 20
45.877084
 42
-0.069970
  0
VERTEX
  8
0
 10
152.317028
 20
44.305048
 42
-0.032414
  0
VERTEX
  8
0
 10
152.454545
 20
42.186007
 42
-0.067225
  0
VERTEX
  8
0
 10
151.956875
 20
38.501221
 42
-0.124960
  0
VERTEX
  8
0
 10
150.475392
 20
35.896433
 42
-0.137160
  0
VERTEX
  8
0
 10
148.043396
 20
34.463569
 42
-0.088953
  0
VERTEX
  8
0
 10
144.769822
 20
34.193341
 42
0.000000
  0
VERTEX
  8
0
 10
141.000000
 20
34.552852
 42
0.000000
  0
VERTEX
  8
0
 10
141.000000
 20
30.383415
 42
-0.054900
  0
VERTEX
  8
0
 10
140.707429
 20
27.726850
 42
-0.121472
  0
VERTEX
  8
0
 10
139.806081
 20
25.912790
 42
-0.192347
  0
VERTEX
  8
0
 10
138.467752
 20
25.202642
 42
-0.166865
  0
VERTEX
  8
0
 10
136.909758
 20
25.555773
 42
-0.234664
  0
VERTEX
  8
0
 10
136.545643
 20
26.141431
 42
-0.005570
  0
VERTEX
  8
0
 10
136.267241
 20
29.443643
 42
-0.011086
  0
VERTEX
  8
0
 10
136.065778
 20
33.406266
 42
-0.007157
  0
VERTEX
  8
0
 10
136.000000
 20
38.001519
 42
0.000000
  0
VERTEX
  8
0
 10
136.000000
 20
49.885004
 42
0.000000
  0
VERTEX
  8
0
 10
140.250000
 20
50.267795
 42
0.001424
  0
VERTEX
  8
0
 10
141.964714
 20
50.427160
 42
0.001631
  0
VERTEX
  8
0
 10
143.602369
 20
50.589461
 42
0.001469
  0
VERTEX
  8
0
 10
144.990627
 20
50.735743
 42
0.009335
  0
VERTEX
  8
0
 10
145.694236
 20
50.825293
 42
-0.136422
  0
VERTEX
  8
0
 10
146.329131
 20
50.744930
 42
-0.027972
  0
VERTEX
  8
0
 10
147.355183
 20
50.245481
 42
-0.027525
  0
VERTEX
  8
0
 10
148.518428
 20
49.509735
 42
-0.022843
  0
SEQEND
  0
POLYLINE
  8
0
 66
1
 70
1
  0
VERTEX
  8
0
 10
178.000000
 20
49.805939
 42
0.032811
  0
VERTEX
  8
0
 10
178.726054
 20
49.853635
 42
0.013783
  0
VERTEX
  8
0
 10
179.693154
 20
50.008475
 42
0.013567
  0
VERTEX
  8
0
 10
180.721624
 20
50.231405
 42
0.017182
  0
VERTEX
  8
0
 10
181.657546
 20
50.495424
 42
-0.071750
  0
VERTEX
  8
0
 10
182.759306
 20
50.680079
 42
-0.085621
  0
VERTEX
  8
0
 10
183.799650
 20
50.524950
 42
-0.075017
  0
VERTEX
  8
0
 10
184.830407
 20
50.003175
 42
-0.041786
  0
VERTEX
  8
0
 10
185.907546
 20
49.092454
 42
-0.066643
  0
VERTEX
  8
0
 10
186.959176
 20
47.715714
 42
-0.070202
  0
VERTEX
  8
0
 10
187.589042
 20
46.134358
 42
-0.046643
  0
VERTEX
  8
0
 10
187.909543
 20
43.949510
 42
-0.013109
  0
VERTEX
  8
0
 10
188.000000
 20
40.500000
 42
-0.006367
  0
VERTEX
  8
0
 10
187.947488
 20
36.376461
 42
-0.085635
  0
VERTEX
  8
0
 10
187.653846
 20
34.900000
 42
-0.226921
  0
VERTEX
  8
0
 10
186.940826
 20
34.225912
 42
-0.077921
  0
VERTEX
  8
0
 10
185.500000
 20
34.000000
 42
-0.073582
  0
VERTEX
  8
0
 10
184.063213
 20
34.212594
 42
-0.225326
  0
VERTEX
  8
0
 10
183.352909
 20
34.857332
 42
-0.090687
  0
VERTEX
  8
0
 10
183.054817
 20
36.258522
 42
-0.007184
  0
VERTEX
  8
0
 10
183.000000
 20
40.073324
 42
0.008037
  0
VERTEX
  8
0
 10
182.945132
 20
43.486609
 42
0.066037
  0
VERTEX
  8
0
 10
182.691673
 20
45.017930
 42
0.199387
  0
VERTEX
  8
0
 10
182.147272
 20
45.678181
 42
0.170556
  0
VERTEX
  8
0
 10
181.250000
 20
45.813606
 42
0.156356
  0
VERTEX
  8
0
 10
180.378512
 20
45.339474
 42
0.109640
  0
VERTEX
  8
0
 10
179.796097
 20
44.376452
 42
0.055818
  0
VERTEX
  8
0
 10
179.428174
 20
42.683502
 42
0.012571
  0
VERTEX
  8
0
 10
179.200096
 20
39.740282
 42
-0.010196
  0
VERTEX
  8
0
 10
178.968062
 20
36.549378
 42
-0.070260
  0
VERTEX
  8
0
 10
178.605718
 20
35.024345
 42
-0.167349
  0
VERTEX
  8
0
 10
177.971640
 20
34.279416
 42
-0.134295
  0
VERTEX
  8
0
 10
176.950096
 20
34.000000
 42
-0.113303
  0
VERTEX
  8
0
 10
175.944676
 20
34.230797
 42
-0.183827
  0
VERTEX
  8
0
 10
175.350667
 20
34.860907
 42
-0.084556
  0
VERTEX
  8
0
 10
175.060674
 20
36.136088
 42
-0.012920
  0
VERTEX
  8
0
 10
174.984687
 20
38.750000
 42
0.026092
  0
VERTEX
  8
0
 10
174.785351
 20
42.344674
 42
0.086923
  0
VERTEX
  8
0
 10
174.132064
 20
44.608196
 42
0.178458
  0
VERTEX
  8
0
 10
173.047612
 20
45.645557
 42
0.196580
  0
VERTEX
  8
0
 10
171.600925
 20
45.677102
 42
0.153541
  0
VERTEX
  8
0
 10
170.841975
 20
45.074448
 42
0.085243
  0
VERTEX
  8
0
 10
170.350122
 20
43.987410
 42
0.049520
  0
VERTEX
  8
0
 10
170.077450
 20
42.252272
 42
0.014230
  0
VERTEX
  8
0
 10
170.000000
 20
39.531385
 42
-0.009697
  0
VERTEX
  8
0
 10
169.938689
 20
36.370448
 42
-0.077193
  0
VERTEX
  8
0
 10
169.659607
 20
34.941423
 42
-0.189795
  0
VERTEX
  8
0
 10
169.054603
 20
34.254501
 42
-0.118955
  0
VERTEX
  8
0
 10
168.000000
 20
34.000000
 42
-0.156925
  0
VERTEX
  8
0
 10
166.922236
 20
34.346796
 42
-0.177149
  0
VERTEX
  8
0
 10
166.312999
 20
35.242080
 42
-0.056357
  0
VERTEX
  8
0
 10
166.051554
 20
37.177658
 42
-0.005416
  0
VERTEX
  8
0
 10
166.000000
 20
41.936642
 42
0.000000
  0
VERTEX
  8
0
 10
166.000000
 20
49.873283
 42
0.000000
  0
VERTEX
  8
0
 10
169.250000
 20
50.296149
 42
-0.018651
  0
VERTEX
  8
0
 10
170.640910
 20
50.424598
 42
-0.015302
  0
VERTEX
  8
0
 10
172.132812
 20
50.460690
 42
-0.015575
  0
VERTEX
  8
0
 10
173.507168
 20
50.409044
 42
-0.038949
  0
VERTEX
  8
0
 10
174.500000
 20
50.262477
 42
0.013634
  0
VERTEX
  8
0
 10
175.375417
 20
50.087611
 42
0.010046
  0
VERTEX
  8
0
 10
176.353125
 20
49.940047
 42
0.010168
  0
VERTEX
  8
0
 10
177.283864
 20
49.837842
 42
0.022263
  0
SEQEND
  0
POLYLINE
  8
0
 66
1
 70
1
  0
VERTEX
  8
0
 10
204.750000
 20
50.013655
 42
0.000000
  0
VERTEX
  8
0
 10
208.000000
 20
50.000000
 42
0.000000
  0
VERTEX
  8
0
 10
208.000000
 20
42.086964
 42
0.000000
  0
VERTEX
  8
0
 10
208.000000
 20
34.173928
 42
0.000000
  0
VERTEX
  8
0
 10
201.543155
 20
34.124372
 42
-0.011283
  0
VERTEX
  8
0
 10
197.785356
 20
34.180333
 42
-0.063529
  0
VERTEX
  8
0
 10
195.808813
 20
34.508120
 42
-0.101327
  0
VERTEX
  8
0
 10
194.421640
 20
35.253723
 42
-0.052328
  0
VERTEX
  8
0
 10
193.043155
 20
36.672267
 42
-0.083362
  0
VERTEX
  8
0
 10
191.716554
 20
39.099576
 42
-0.065283
  0
VERTEX
  8
0
 10
191.109156
 20
42.043679
 42
-0.068106
  0
VERTEX
  8
0
 10
191.289317
 20
44.902854
 42
-0.115549
  0
VERTEX
  8
0
 10
192.281803
 20
47.072592
 42
-0.057379
  0
VERTEX
  8
0
 10
193.882009
 20
48.710617
 42
-0.059561
  0
VERTEX
  8
0
 10
195.793731
 20
49.918409
 42
-0.065118
  0
VERTEX
  8
0
 10
197.755091
 20
50.556274
 42
-0.105732
  0
VERTEX
  8
0
 10
199.500000
 20
50.510361
 42
0.025485
  0
VERTEX
  8
0
 10
200.492521
 20
50.323564
 42
0.010185
  0
VERTEX
  8
0
 10
201.867188
 20
50.165195
 42
0.010048
  0
VERTEX
  8
0
 10
203.359156
 20
50.054236
 42
0.012485
  0
SEQEND
  0
POLYLINE
  8
0
 66
1
 70
1
  0
VERTEX
  8
0
 10
271.250000
 20
47.846575
 42
-0.048126
  0
VERTEX
  8
0
 10
271.920094
 20
46.879785
 42
-0.033961
  0
VERTEX
  8
0
 10
272.485937
 20
45.684117
 42
-0.034425
  0
VERTEX
  8
0
 10
272.873457
 20
44.454474
 42
-0.059187
  0
VERTEX
  8
0
 10
273.000000
 20
43.389216
 42
-0.076105
  0
VERTEX
  8
0
 10
272.794417
 20
42.046379
 42
-0.217082
  0
VERTEX
  8
0
 10
272.177781
 20
41.359224
 42
-0.094346
  0
VERTEX
  8
0
 10
270.859932
 20
41.059309
 42
-0.008908
  0
VERTEX
  8
0
 10
267.531385
 20
41.000000
 42
0.009505
  0
VERTEX
  8
0
 10
264.641939
 20
40.945064
 42
0.064952
  0
VERTEX
  8
0
 10
263.240422
 20
40.707741
 42
0.204598
  0
VERTEX
  8
0
 10
262.674798
 20
40.230268
 42
0.211180
  0
VERTEX
  8
0
 10
262.638374
 20
39.500000
 42
0.178939
  0
VERTEX
  8
0
 10
263.533051
 20
38.481027
 42
0.113697
  0
VERTEX
  8
0
 10
265.072206
 20
38.055538
 42
0.087543
  0
VERTEX
  8
0
 10
267.007290
 20
38.311193
 42
0.063147
  0
VERTEX
  8
0
 10
268.988609
 20
39.224959
 42
-0.033872
  0
VERTEX
  8
0
 10
270.021688
 20
39.776694
 42
-0.104210
  0
VERTEX
  8
0
 10
270.791894
 20
39.945002
 42
-0.130736
  0
VERTEX
  8
0
 10
271.460928
 20
39.772367
 42
-0.068324
  0
VERTEX
  8
0
 10
272.151412
 20
39.248588
 42
-0.266937
  0
VERTEX
  8
0
 10
272.592594
 20
37.614435
 42
-0.155913
  0
VERTEX
  8
0
 10
271.469703
 20
35.852325
 42
-0.097789
  0
VERTEX
  8
0
 10
268.943224
 20
34.474893
 42
-0.076195
  0
VERTEX
  8
0
 10
265.845012
 20
34.000000
 42
-0.075423
  0
VERTEX
  8
0
 10
262.389772
 20
34.524191
 42
-0.129504
  0
VERTEX
  8
0
 10
259.935253
 20
36.058596
 42
-0.123756
  0
VERTEX
  8
0
 10
258.485365
 20
38.661238
 42
-0.065595
  0
VERTEX
  8
0
 10
258.000000
 20
42.345012
 42
-0.131914
  0
VERTEX
  8
0
 10
259.298901
 20
47.182615
 42
-0.164617
  0
VERTEX
  8
0
 10
262.776656
 20
50.231979
 42
-0.172795
  0
VERTEX
  8
0
 10
267.255236
 20
50.462111
 42
-0.145427
  0
SEQEND
  0
POLYLINE
  8
0
 66
1
 70
1
  0
VERTEX
  8
0
 10
216.599123
 20
45.884707
 42
0.000000
  0
VERTEX
  8
0
 10
218.592272
 20
41.769415
 42
0.000000
  0
VERTEX
  8
0
 10
220.448010
 20
45.884707
 42
-0.023375
  0
VERTEX
  8
0
 10
221.470140
 20
47.895048
 42
-0.069846
  0
VERTEX
  8
0
 10
222.409724
 20
49.114277
 42
-0.101319
  0
VERTEX
  8
0
 10
223.426748
 20
49.770188
 42
-0.092980
  0
VERTEX
  8
0
 10
224.651874
 20
50.000000
 42
-0.020798
  0
VERTEX
  8
0
 10
225.551868
 20
49.962548
 42
-0.033516
  0
VERTEX
  8
0
 10
226.310238
 20
49.847788
 42
-0.036584
  0
VERTEX
  8
0
 10
226.861157
 20
49.683190
 42
-0.311346
  0
VERTEX
  8
0
 10
227.000000
 20
49.481831
 42
-0.119689
  0
VERTEX
  8
0
 10
226.619222
 20
47.913918
 42
-0.001479
  0
VERTEX
  8
0
 10
221.806402
 20
38.656828
 42
-0.003068
  0
VERTEX
  8
0
 10
217.167682
 20
29.929441
 42
-0.046658
  0
VERTEX
  8
0
 10
215.270543
 20
27.083241
 42
-0.037827
  0
VERTEX
  8
0
 10
214.300673
 20
26.056230
 42
-0.073931
  0
VERTEX
  8
0
 10
213.367806
 20
25.430551
 42
-0.095149
  0
VERTEX
  8
0
 10
212.463540
 20
25.196306
 42
-0.107955
  0
VERTEX
  8
0
 10
211.579500
 20
25.331120
 42
-0.148927
  0
VERTEX
  8
0
 10
210.797260
 20
25.940842
 42
-0.207797
  0
VERTEX
  8
0
 10
210.620439
 20
26.798738
 42
-0.066008
  0
VERTEX
  8
0
 10
211.142636
 20
28.282875
 42
-0.006560
  0
VERTEX
  8
0
 10
212.898961
 20
31.629706
 42
0.000000
  0
VERTEX
  8
0
 10
215.950438
 20
37.263656
 42
0.000000
  0
VERTEX
  8
0
 10
212.389153
 20
43.631828
 42
0.000000
  0
VERTEX
  8
0
 10
208.827868
 20
50.000000
 42
0.000000
  0
VERTEX
  8
0
 10
211.716922
 20
50.000000
 42
-0.061417
  0
VERTEX
  8
0
 10
213.294847
 20
49.805443
 42
-0.114245
  0
VERTEX
  8
0
 10
214.436476
 20
49.221415
 42
-0.083190
  0
VERTEX
  8
0
 10
215.429150
 20
48.053411
 42
-0.021853
  0
SEQEND
  0
POLYLINE
  8
0
 66
1
 70
1
  0
VERTEX
  8
0
 10
281.836910
 20
36.608344
 42
-0.125415
  0
VERTEX
  8
0
 10
281.752964
 20
35.193770
 42
-0.142974
  0
VERTEX
  8
0
 10
280.997183
 20
34.071860
 42
-0.142458
  0
VERTEX
  8
0
 10
279.754052
 20
33.530174
 42
-0.124216
  0
VERTEX
  8
0
 10
278.340684
 20
33.699509
 42
-0.177539
  0
VERTEX
  8
0
 10
277.493050
 20
34.439685
 42
-0.091612
  0
VERTEX
  8
0
 10
277.045795
 20
35.794576
 42
-0.087897
  0
VERTEX
  8
0
 10
277.103858
 20
37.274357
 42
-0.143686
  0
VERTEX
  8
0
 10
277.701236
 20
38.367903
 42
-0.173252
  0
VERTEX
  8
0
 10
278.776249
 20
38.877023
 42
-0.126027
  0
VERTEX
  8
0
 10
280.095168
 20
38.675626
 42
-0.115176
  0
VERTEX
  8
0
 10
281.244313
 20
37.834946
 42
-0.130636
  0
SEQEND
  0
POLYLINE
  8
0
 66
1
 70
1
  0
VERTEX
  8
0
 10
291.836910
 20
36.608344
 42
-0.125415
  0
VERTEX
  8
0
 10
291.752964
 20
35.193770
 42
-0.142974
  0
VERTEX
  8
0
 10
290.997183
 20
34.071860
 42
-0.142458
  0
VERTEX
  8
0
 10
289.754052
 20
33.530174
 42
-0.124216
  0
VERTEX
  8
0
 10
288.340684
 20
33.699509
 42
-0.177539
  0
VERTEX
  8
0
 10
287.493050
 20
34.439685
 42
-0.091612
  0
VERTEX
  8
0
 10
287.045795
 20
35.794576
 42
-0.087897
  0
VERTEX
  8
0
 10
287.103858
 20
37.274357
 42
-0.143686
  0
VERTEX
  8
0
 10
287.701236
 20
38.367903
 42
-0.173252
  0
VERTEX
  8
0
 10
288.776249
 20
38.877023
 42
-0.126027
  0
VERTEX
  8
0
 10
290.095168
 20
38.675626
 42
-0.115176
  0
VERTEX
  8
0
 10
291.244313
 20
37.834946
 42
-0.130636
  0
SEQEND
  0
POLYLINE
  8
0
 66
1
 70
1
  0
VERTEX
  8
0
 10
301.836910
 20
36.608344
 42
-0.125415
  0
VERTEX
  8
0
 10
301.752964
 20
35.193770
 42
-0.142974
  0
VERTEX
  8
0
 10
300.997183
 20
34.071860
 42
-0.142458
  0
VERTEX
  8
0
 10
299.754052
 20
33.530174
 42
-0.124216
  0
VERTEX
  8
0
 10
298.340684
 20
33.699509
 42
-0.177539
  0
VERTEX
  8
0
 10
297.493050
 20
34.439685
 42
-0.091612
  0
VERTEX
  8
0
 10
297.045795
 20
35.794576
 42
-0.087897
  0
VERTEX
  8
0
 10
297.103858
 20
37.274357
 42
-0.143686
  0
VERTEX
  8
0
 10
297.701236
 20
38.367903
 42
-0.173252
  0
VERTEX
  8
0
 10
298.776249
 20
38.877023
 42
-0.126027
  0
VERTEX
  8
0
 10
300.095168
 20
38.675626
 42
-0.115176
  0
VERTEX
  8
0
 10
301.244313
 20
37.834946
 42
-0.130636
  0
SEQEND
  0
POLYLINE
  8
0
 66
1
 70
1
  0
VERTEX
  8
0
 10
225.010777
 20
131.512986
 42
0.084755
  0
VERTEX
  8
0
 10
224.569444
 20
130.748611
 42
0.051243
  0
VERTEX
  8
0
 10
224.307994
 20
129.733652
 42
0.048233
  0
VERTEX
  8
0
 10
224.247949
 20
128.608786
 42
0.050754
  0
VERTEX
  8
0
 10
224.407385
 20
127.512986
 42
0.154287
  0
VERTEX
  8
0
 10
225.565186
 20
125.633285
 42
0.178426
  0
VERTEX
  8
0
 10
227.524472
 20
124.897065
 42
0.161951
  0
VERTEX
  8
0
 10
229.641180
 20
125.586355
 42
0.127521
  0
VERTEX
  8
0
 10
231.168461
 20
127.470386
 42
0.162757
  0
VERTEX
  8
0
 10
231.465542
 20
130.293633
 42
0.195436
  0
VERTEX
  8
0
 10
229.959863
 20
132.476396
 42
0.200580
  0
VERTEX
  8
0
 10
227.394718
 20
132.956525
 42
0.168364
  0
SEQEND
  0
POLYLINE
  8
0
 66
1
 70
1
  0
VERTEX
  8
0
 10
94.000000
 20
132.000000
 42
0.191087
  0
VERTEX
  8
0
 10
94.151477
 20
131.618118
 42
0.088204
  0
VERTEX
  8
0
 10
94.587500
 20
131.293750
 42
0.068025
  0
VERTEX
  8
0
 10
95.234582
 20
131.073693
 42
0.048028
  0
VERTEX
  8
0
 10
96.000000
 20
131.000000
 42
0.048028
  0
VERTEX
  8
0
 10
96.765418
 20
131.073693
 42
0.068025
  0
VERTEX
  8
0
 10
97.412500
 20
131.293750
 42
0.088204
  0
VERTEX
  8
0
 10
97.848523
 20
131.618118
 42
0.191087
  0
VERTEX
  8
0
 10
98.000000
 20
132.000000
 42
0.191087
  0
VERTEX
  8
0
 10
97.848523
 20
132.381882
 42
0.088204
  0
VERTEX
  8
0
 10
97.412500
 20
132.706250
 42
0.068025
  0
VERTEX
  8
0
 10
96.765418
 20
132.926307
 42
0.048028
  0
VERTEX
  8
0
 10
96.000000
 20
133.000000
 42
0.048028
  0
VERTEX
  8
0
 10
95.234582
 20
132.926307
 42
0.068025
  0
VERTEX
  8
0
 10
94.587500
 20
132.706250
 42
0.088204
  0
VERTEX
  8
0
 10
94.151477
 20
132.381882
 42
0.191087
  0
SEQEND
  0
POLYLINE
  8
0
 66
1
 70
1
  0
VERTEX
  8
0
 10
127.000000
 20
132.000000
 42
0.191087
  0
VERTEX
  8
0
 10
127.151477
 20
131.618118
 42
0.088204
  0
VERTEX
  8
0
 10
127.587500
 20
131.293750
 42
0.068025
  0
VERTEX
  8
0
 10
128.234582
 20
131.073693
 42
0.048028
  0
VERTEX
  8
0
 10
129.000000
 20
131.000000
 42
0.048028
  0
VERTEX
  8
0
 10
129.765418
 20
131.073693
 42
0.068025
  0
VERTEX
  8
0
 10
130.412500
 20
131.293750
 42
0.088204
  0
VERTEX
  8
0
 10
130.848523
 20
131.618118
 42
0.191087
  0
VERTEX
  8
0
 10
131.000000
 20
132.000000
 42
0.191087
  0
VERTEX
  8
0
 10
130.848523
 20
132.381882
 42
0.088204
  0
VERTEX
  8
0
 10
130.412500
 20
132.706250
 42
0.068025
  0
VERTEX
  8
0
 10
129.765418
 20
132.926307
 42
0.048028
  0
VERTEX
  8
0
 10
129.000000
 20
133.000000
 42
0.048028
  0
VERTEX
  8
0
 10
128.234582
 20
132.926307
 42
0.068025
  0
VERTEX
  8
0
 10
127.587500
 20
132.706250
 42
0.088204
  0
VERTEX
  8
0
 10
127.151477
 20
132.381882
 42
0.191087
  0
SEQEND
  0
POLYLINE
  8
0
 66
1
 70
1
  0
VERTEX
  8
0
 10
187.389534
 20
131.572726
 42
0.081380
  0
VERTEX
  8
0
 10
186.921239
 20
129.309167
 42
0.115888
  0
VERTEX
  8
0
 10
187.305829
 20
127.300141
 42
0.133351
  0
VERTEX
  8
0
 10
188.480204
 20
125.862739
 42
0.127183
  0
VERTEX
  8
0
 10
190.241546
 20
125.184393
 42
0.149505
  0
VERTEX
  8
0
 10
192.499822
 20
125.600456
 42
0.138382
  0
VERTEX
  8
0
 10
194.220625
 20
127.216532
 42
0.144650
  0
VERTEX
  8
0
 10
194.797446
 20
129.434334
 42
0.166480
  0
VERTEX
  8
0
 10
194.024577
 20
131.470386
 42
0.130666
  0
VERTEX
  8
0
 10
192.502790
 20
132.552701
 42
0.085943
  0
VERTEX
  8
0
 10
190.379264
 20
132.954246
 42
0.095110
  0
VERTEX
  8
0
 10
188.430720
 20
132.611280
 42
0.213276
  0
SEQEND
  0
POLYLINE
  8
0
 66
1
 70
1
  0
VERTEX
  8
0
 10
252.000000
 20
132.000000
 42
0.226478
  0
VERTEX
  8
0
 10
252.182831
 20
131.617064
 42
0.074992
  0
VERTEX
  8
0
 10
252.734375
 20
131.293750
 42
0.057076
  0
VERTEX
  8
0
 10
253.542644
 20
131.073116
 42
0.038131
  0
VERTEX
  8
0
 10
254.500000
 20
131.000000
 42
0.038131
  0
VERTEX
  8
0
 10
255.457356
 20
131.073116
 42
0.057076
  0
VERTEX
  8
0
 10
256.265625
 20
131.293750
 42
0.074992
  0
VERTEX
  8
0
 10
256.817169
 20
131.617064
 42
0.226478
  0
VERTEX
  8
0
 10
257.000000
 20
132.000000
 42
0.226478
  0
VERTEX
  8
0
 10
256.817169
 20
132.382936
 42
0.074992
  0
VERTEX
  8
0
 10
256.265625
 20
132.706250
 42
0.057076
  0
VERTEX
  8
0
 10
255.457356
 20
132.926884
 42
0.038131
  0
VERTEX
  8
0
 10
254.500000
 20
133.000000
 42
0.038131
  0
VERTEX
  8
0
 10
253.542644
 20
132.926884
 42
0.057076
  0
VERTEX
  8
0
 10
252.734375
 20
132.706250
 42
0.074992
  0
VERTEX
  8
0
 10
252.182831
 20
132.382936
 42
0.226478
  0
SEQEND
  0
POLYLINE
  8
0
 66
1
 70
1
  0
VERTEX
  8
0
 10
54.000000
 20
88.000000
 42
0.191087
  0
VERTEX
  8
0
 10
54.151477
 20
87.618118
 42
0.088204
  0
VERTEX
  8
0
 10
54.587500
 20
87.293750
 42
0.068025
  0
VERTEX
  8
0
 10
55.234582
 20
87.073693
 42
0.048028
  0
VERTEX
  8
0
 10
56.000000
 20
87.000000
 42
0.048028
  0
VERTEX
  8
0
 10
56.765418
 20
87.073693
 42
0.068025
  0
VERTEX
  8
0
 10
57.412500
 20
87.293750
 42
0.088204
  0
VERTEX
  8
0
 10
57.848523
 20
87.618118
 42
0.191087
  0
VERTEX
  8
0
 10
58.000000
 20
88.000000
 42
0.191087
  0
VERTEX
  8
0
 10
57.848523
 20
88.381882
 42
0.088204
  0
VERTEX
  8
0
 10
57.412500
 20
88.706250
 42
0.068025
  0
VERTEX
  8
0
 10
56.765418
 20
88.926307
 42
0.048028
  0
VERTEX
  8
0
 10
56.000000
 20
89.000000
 42
0.048028
  0
VERTEX
  8
0
 10
55.234582
 20
88.926307
 42
0.068025
  0
VERTEX
  8
0
 10
54.587500
 20
88.706250
 42
0.088204
  0
VERTEX
  8
0
 10
54.151477
 20
88.381882
 42
0.191087
  0
SEQEND
  0
POLYLINE
  8
0
 66
1
 70
1
  0
VERTEX
  8
0
 10
106.200000
 20
87.800000
 42
0.150132
  0
VERTEX
  8
0
 10
105.074768
 20
85.676926
 42
0.167143
  0
VERTEX
  8
0
 10
105.401590
 20
83.389259
 42
0.152832
  0
VERTEX
  8
0
 10
107.117505
 20
81.642331
 42
0.123380
  0
VERTEX
  8
0
 10
109.680948
 20
81.000000
 42
0.175671
  0
VERTEX
  8
0
 10
111.277509
 20
81.578801
 42
0.112464
  0
VERTEX
  8
0
 10
112.486020
 20
83.164497
 42
0.097691
  0
VERTEX
  8
0
 10
112.998730
 20
85.330106
 42
0.101374
  0
VERTEX
  8
0
 10
112.639232
 20
87.497764
 42
0.201921
  0
VERTEX
  8
0
 10
111.653089
 20
88.525204
 42
0.090375
  0
VERTEX
  8
0
 10
109.793181
 20
88.955124
 42
0.082825
  0
VERTEX
  8
0
 10
107.738437
 20
88.710762
 42
0.126101
  0
SEQEND
  0
POLYLINE
  8
0
 66
1
 70
1
  0
VERTEX
  8
0
 10
171.200000
 20
87.800000
 42
0.150132
  0
VERTEX
  8
0
 10
170.074768
 20
85.676926
 42
0.167143
  0
VERTEX
  8
0
 10
170.401590
 20
83.389259
 42
0.152832
  0
VERTEX
  8
0
 10
172.117505
 20
81.642331
 42
0.123380
  0
VERTEX
  8
0
 10
174.680948
 20
81.000000
 42
0.175671
  0
VERTEX
  8
0
 10
176.277509
 20
81.578801
 42
0.112464
  0
VERTEX
  8
0
 10
177.486020
 20
83.164497
 42
0.097691
  0
VERTEX
  8
0
 10
177.998730
 20
85.330106
 42
0.101374
  0
VERTEX
  8
0
 10
177.639232
 20
87.497764
 42
0.201921
  0
VERTEX
  8
0
 10
176.653089
 20
88.525204
 42
0.090375
  0
VERTEX
  8
0
 10
174.793181
 20
88.955124
 42
0.082825
  0
VERTEX
  8
0
 10
172.738437
 20
88.710762
 42
0.126101
  0
SEQEND
  0
POLYLINE
  8
0
 66
1
 70
1
  0
VERTEX
  8
0
 10
250.389534
 20
87.572726
 42
0.081467
  0
VERTEX
  8
0
 10
249.923025
 20
85.315821
 42
0.114963
  0
VERTEX
  8
0
 10
250.304728
 20
83.305780
 42
0.132606
  0
VERTEX
  8
0
 10
251.470087
 20
81.865443
 42
0.128721
  0
VERTEX
  8
0
 10
253.215122
 20
81.186943
 42
0.041653
  0
VERTEX
  8
0
 10
254.637230
 20
81.142081
 42
0.135361
  0
VERTEX
  8
0
 10
255.524289
 20
81.436841
 42
0.139423
  0
VERTEX
  8
0
 10
256.119689
 20
82.138241
 42
0.045250
  0
VERTEX
  8
0
 10
256.572969
 20
83.434707
 42
0.030687
  0
VERTEX
  8
0
 10
256.776573
 20
84.525401
 42
0.026728
  0
VERTEX
  8
0
 10
256.857557
 20
85.684569
 42
0.027647
  0
VERTEX
  8
0
 10
256.816301
 20
86.742643
 42
0.068144
  0
VERTEX
  8
0
 10
256.639232
 20
87.497764
 42
0.212918
  0
VERTEX
  8
0
 10
255.566729
 20
88.569021
 42
0.088543
  0
VERTEX
  8
0
 10
253.511864
 20
88.961273
 42
0.089103
  0
VERTEX
  8
0
 10
251.458912
 20
88.617861
 42
0.218614
  0
SEQEND
  0
POLYLINE
  8
0
 66
1
 70
1
  0
VERTEX
  8
0
 10
244.200000
 20
44.800000
 42
0.151344
  0
VERTEX
  8
0
 10
243.119471
 20
42.749544
 42
0.151828
  0
VERTEX
  8
0
 10
243.389195
 20
40.450241
 42
0.147864
  0
VERTEX
  8
0
 10
244.927911
 20
38.666306
 42
0.142316
  0
VERTEX
  8
0
 10
247.221439
 20
38.000000
 42
0.187207
  0
VERTEX
  8
0
 10
248.915549
 20
38.657336
 42
0.105822
  0
VERTEX
  8
0
 10
250.212778
 20
40.475656
 42
0.103669
  0
VERTEX
  8
0
 10
250.668489
 20
42.698433
 42
0.173804
  0
VERTEX
  8
0
 10
250.024577
 20
44.470386
 42
0.100212
  0
VERTEX
  8
0
 10
248.732255
 20
45.511842
 42
0.105901
  0
VERTEX
  8
0
 10
247.161814
 20
45.942325
 42
0.107002
  0
VERTEX
  8
0
 10
245.565838
 20
45.690229
 42
0.104261
  0
SEQEND
  0
POLYLINE
  8
0
 66
1
 70
1
  0
VERTEX
  8
0
 10
47.000000
 20
45.000000
 42
0.191087
  0
VERTEX
  8
0
 10
47.151477
 20
44.618118
 42
0.088204
  0
VERTEX
  8
0
 10
47.587500
 20
44.293750
 42
0.068025
  0
VERTEX
  8
0
 10
48.234582
 20
44.073693
 42
0.048028
  0
VERTEX
  8
0
 10
49.000000
 20
44.000000
 42
0.048028
  0
VERTEX
  8
0
 10
49.765418
 20
44.073693
 42
0.068025
  0
VERTEX
  8
0
 10
50.412500
 20
44.293750
 42
0.088204
  0
VERTEX
  8
0
 10
50.848523
 20
44.618118
 42
0.191087
  0
VERTEX
  8
0
 10
51.000000
 20
45.000000
 42
0.191087
  0
VERTEX
  8
0
 10
50.848523
 20
45.381882
 42
0.088204
  0
VERTEX
  8
0
 10
50.412500
 20
45.706250
 42
0.068025
  0
VERTEX
  8
0
 10
49.765418
 20
45.926307
 42
0.048028
  0
VERTEX
  8
0
 10
49.000000
 20
46.000000
 42
0.048028
  0
VERTEX
  8
0
 10
48.234582
 20
45.926307
 42
0.068025
  0
VERTEX
  8
0
 10
47.587500
 20
45.706250
 42
0.088204
  0
VERTEX
  8
0
 10
47.151477
 20
45.381882
 42
0.191087
  0
SEQEND
  0
POLYLINE
  8
0
 66
1
 70
1
  0
VERTEX
  8
0
 10
106.000000
 20
45.000000
 42
0.191087
  0
VERTEX
  8
0
 10
106.151477
 20
44.618118
 42
0.088204
  0
VERTEX
  8
0
 10
106.587500
 20
44.293750
 42
0.068025
  0
VERTEX
  8
0
 10
107.234582
 20
44.073693
 42
0.048028
  0
VERTEX
  8
0
 10
108.000000
 20
44.000000
 42
0.048028
  0
VERTEX
  8
0
 10
108.765418
 20
44.073693
 42
0.068025
  0
VERTEX
  8
0
 10
109.412500
 20
44.293750
 42
0.088204
  0
VERTEX
  8
0
 10
109.848523
 20
44.618118
 42
0.191087
  0
VERTEX
  8
0
 10
110.000000
 20
45.000000
 42
0.191087
  0
VERTEX
  8
0
 10
109.848523
 20
45.381882
 42
0.088204
  0
VERTEX
  8
0
 10
109.412500
 20
45.706250
 42
0.068025
  0
VERTEX
  8
0
 10
108.765418
 20
45.926307
 42
0.048028
  0
VERTEX
  8
0
 10
108.000000
 20
46.000000
 42
0.048028
  0
VERTEX
  8
0
 10
107.234582
 20
45.926307
 42
0.068025
  0
VERTEX
  8
0
 10
106.587500
 20
45.706250
 42
0.088204
  0
VERTEX
  8
0
 10
106.151477
 20
45.381882
 42
0.191087
  0
SEQEND
  0
POLYLINE
  8
0
 66
1
 70
1
  0
VERTEX
  8
0
 10
124.000000
 20
45.000000
 42
0.191087
  0
VERTEX
  8
0
 10
124.151477
 20
44.618118
 42
0.088204
  0
VERTEX
  8
0
 10
124.587500
 20
44.293750
 42
0.068025
  0
VERTEX
  8
0
 10
125.234582
 20
44.073693
 42
0.048028
  0
VERTEX
  8
0
 10
126.000000
 20
44.000000
 42
0.048028
  0
VERTEX
  8
0
 10
126.765418
 20
44.073693
 42
0.068025
  0
VERTEX
  8
0
 10
127.412500
 20
44.293750
 42
0.088204
  0
VERTEX
  8
0
 10
127.848523
 20
44.618118
 42
0.191087
  0
VERTEX
  8
0
 10
128.000000
 20
45.000000
 42
0.191087
  0
VERTEX
  8
0
 10
127.848523
 20
45.381882
 42
0.088204
  0
VERTEX
  8
0
 10
127.412500
 20
45.706250
 42
0.068025
  0
VERTEX
  8
0
 10
126.765418
 20
45.926307
 42
0.048028
  0
VERTEX
  8
0
 10
126.000000
 20
46.000000
 42
0.048028
  0
VERTEX
  8
0
 10
125.234582
 20
45.926307
 42
0.068025
  0
VERTEX
  8
0
 10
124.587500
 20
45.706250
 42
0.088204
  0
VERTEX
  8
0
 10
124.151477
 20
45.381882
 42
0.191087
  0
SEQEND
  0
POLYLINE
  8
0
 66
1
 70
1
  0
VERTEX
  8
0
 10
141.712576
 20
45.379243
 42
0.170227
  0
VERTEX
  8
0
 10
141.009492
 20
43.916944
 42
0.060279
  0
VERTEX
  8
0
 10
141.031775
 20
41.560985
 42
0.060915
  0
VERTEX
  8
0
 10
141.603999
 20
39.334376
 42
0.210833
  0
VERTEX
  8
0
 10
142.635923
 20
38.309468
 42
0.134571
  0
VERTEX
  8
0
 10
144.419347
 20
38.132558
 42
0.139700
  0
VERTEX
  8
0
 10
146.014660
 20
38.895844
 42
0.122285
  0
VERTEX
  8
0
 10
147.114378
 20
40.491058
 42
0.090295
  0
VERTEX
  8
0
 10
147.500000
 20
42.608986
 42
0.037168
  0
VERTEX
  8
0
 10
147.387988
 20
44.113758
 42
0.131708
  0
VERTEX
  8
0
 10
147.004988
 20
44.993735
 42
0.146597
  0
VERTEX
  8
0
 10
146.260669
 20
45.510921
 42
0.050053
  0
VERTEX
  8
0
 10
144.962576
 20
45.795910
 42
0.028384
  0
VERTEX
  8
0
 10
143.938939
 20
45.856725
 42
0.032536
  0
VERTEX
  8
0
 10
142.961202
 20
45.795577
 42
0.034438
  0
VERTEX
  8
0
 10
142.153747
 20
45.634956
 42
0.130786
  0
SEQEND
  0
POLYLINE
  8
0
 66
1
 70
1
  0
VERTEX
  8
0
 10
196.389534
 20
44.572726
 42
0.081467
  0
VERTEX
  8
0
 10
195.923025
 20
42.315821
 42
0.114963
  0
VERTEX
  8
0
 10
196.304728
 20
40.305780
 42
0.132606
  0
VERTEX
  8
0
 10
197.470087
 20
38.865443
 42
0.128721
  0
VERTEX
  8
0
 10
199.215122
 20
38.186943
 42
0.041653
  0
VERTEX
  8
0
 10
200.637230
 20
38.142081
 42
0.135361
  0
VERTEX
  8
0
 10
201.524289
 20
38.436841
 42
0.139423
  0
VERTEX
  8
0
 10
202.119689
 20
39.138241
 42
0.045250
  0
VERTEX
  8
0
 10
202.572969
 20
40.434707
 42
0.030687
  0
VERTEX
  8
0
 10
202.776573
 20
41.525401
 42
0.026728
  0
VERTEX
  8
0
 10
202.857557
 20
42.684569
 42
0.027647
  0
VERTEX
  8
0
 10
202.816301
 20
43.742643
 42
0.068144
  0
VERTEX
  8
0
 10
202.639232
 20
44.497764
 42
0.212918
  0
VERTEX
  8
0
 10
201.566729
 20
45.569021
 42
0.088543
  0
VERTEX
  8
0
 10
199.511864
 20
45.961273
 42
0.089103
  0
VERTEX
  8
0
 10
197.458912
 20
45.617861
 42
0.218614
  0
SEQEND
  0
POLYLINE
  8
0
 66
1
 70
1
  0
VERTEX
  8
0
 10
263.000000
 20
45.000000
 42
0.226478
  0
VERTEX
  8
0
 10
263.182831
 20
44.617064
 42
0.074992
  0
VERTEX
  8
0
 10
263.734375
 20
44.293750
 42
0.057076
  0
VERTEX
  8
0
 10
264.542644
 20
44.073116
 42
0.038131
  0
VERTEX
  8
0
 10
265.500000
 20
44.000000
 42
0.038131
  0
VERTEX
  8
0
 10
266.457356
 20
44.073116
 42
0.057076
  0
VERTEX
  8
0
 10
267.265625
 20
44.293750
 42
0.074992
  0
VERTEX
  8
0
 10
267.817169
 20
44.617064
 42
0.226478
  0
VERTEX
  8
0
 10
268.000000
 20
45.000000
 42
0.226478
  0
VERTEX
  8
0
 10
267.817169
 20
45.382936
 42
0.074992
  0
VERTEX
  8
0
 10
267.265625
 20
45.706250
 42
0.057076
  0
VERTEX
  8
0
 10
266.457356
 20
45.926884
 42
0.038131
  0
VERTEX
  8
0
 10
265.500000
 20
46.000000
 42
0.038131
  0
VERTEX
  8
0
 10
264.542644
 20
45.926884
 42
0.057076
  0
VERTEX
  8
0
 10
263.734375
 20
45.706250
 42
0.074992
  0
VERTEX
  8
0
 10
263.182831
 20
45.382936
 42
0.226478
  0
SEQEND
  0
ENDSEC
  0
EOF
