  0
SECTION
  2
HEADER
  9
$ACADVER
  1
AC1006
  9
$EXTMIN
 10
0.000000
 20
0.000000
 30
0.000000
  9
$EXTMAX
 10
449.000000
 20
463.000000
 30
0.000000
  0
ENDSEC
  0
SECTION
  2
ENTITIES
  0
POLYLINE
  8
0
 66
1
 70
1
  0
VERTEX
  8
0
 10
120.796988
 20
432.319723
 42
0.165231
  0
VERTEX
  8
0
 10
119.040377
 20
431.156535
 42
0.182621
  0
VERTEX
  8
0
 10
118.445949
 20
429.215283
 42
0.101407
  0
VERTEX
  8
0
 10
119.215722
 20
426.392672
 42
0.033701
  0
VERTEX
  8
0
 10
121.415455
 20
422.687281
 42
-0.010192
  0
VERTEX
  8
0
 10
122.788298
 20
420.604336
 42
-0.013491
  0
VERTEX
  8
0
 10
123.947040
 20
418.650831
 42
-0.010847
  0
VERTEX
  8
0
 10
124.825924
 20
416.989922
 42
-0.116779
  0
VERTEX
  8
0
 10
125.000000
 20
416.254761
 42
-0.189569
  0
VERTEX
  8
0
 10
124.776691
 20
415.686935
 42
-0.040976
  0
VERTEX
  8
0
 10
123.982330
 20
414.962332
 42
-0.037309
  0
VERTEX
  8
0
 10
122.862043
 20
414.223516
 42
-0.028171
  0
VERTEX
  8
0
 10
121.535591
 20
413.579318
 42
0.085751
  0
VERTEX
  8
0
 10
118.790685
 20
411.832046
 42
0.153711
  0
VERTEX
  8
0
 10
117.457334
 20
409.544946
 42
0.124702
  0
VERTEX
  8
0
 10
117.533375
 20
406.544689
 42
0.047467
  0
VERTEX
  8
0
 10
119.051066
 20
402.612200
 42
-0.015650
  0
VERTEX
  8
0
 10
120.252529
 20
400.005480
 42
-0.068009
  0
VERTEX
  8
0
 10
120.696785
 20
398.367063
 42
-0.090351
  0
VERTEX
  8
0
 10
120.621952
 20
396.907825
 42
-0.040334
  0
VERTEX
  8
0
 10
120.029192
 20
395.070475
 42
0.051871
  0
VERTEX
  8
0
 10
119.508334
 20
393.318976
 42
0.031550
  0
VERTEX
  8
0
 10
119.244544
 20
391.173209
 42
0.026202
  0
VERTEX
  8
0
 10
119.226875
 20
388.593835
 42
0.015287
  0
VERTEX
  8
0
 10
119.462106
 20
385.509252
 42
-0.011443
  0
VERTEX
  8
0
 10
119.671755
 20
383.013309
 42
-0.019262
  0
VERTEX
  8
0
 10
119.718820
 20
380.912093
 42
-0.014119
  0
VERTEX
  8
0
 10
119.645862
 20
379.268483
 42
-0.393107
  0
VERTEX
  8
0
 10
119.357145
 20
379.000000
 42
-0.118815
  0
VERTEX
  8
0
 10
118.789452
 20
379.136832
 42
-0.001720
  0
VERTEX
  8
0
 10
115.685104
 20
380.739135
 42
-0.004622
  0
VERTEX
  8
0
 10
112.092741
 20
382.651415
 42
-0.003019
  0
VERTEX
  8
0
 10
107.982854
 20
384.920459
 42
0.013486
  0
VERTEX
  8
0
 10
100.516302
 20
388.841081
 42
0.023840
  0
VERTEX
  8
0
 10
94.132229
 20
391.607281
 42
0.018630
  0
VERTEX
  8
0
 10
86.529739
 20
394.160037
 42
0.005255
  0
VERTEX
  8
0
 10
74.500000
 20
397.569610
 42
-0.008625
  0
VERTEX
  8
0
 10
69.608194
 20
398.991778
 42
-0.003459
  0
VERTEX
  8
0
 10
62.965022
 20
401.098500
 42
-0.003422
  0
VERTEX
  8
0
 10
55.836162
 20
403.467700
 42
-0.004317
  0
VERTEX
  8
0
 10
49.274543
 20
405.761754
 42
0.006144
  0
VERTEX
  8
0
 10
43.329736
 20
407.815810
 42
0.009141
  0
VERTEX
  8
0
 10
38.073729
 20
409.453840
 42
0.004871
  0
VERTEX
  8
0
 10
33.626980
 20
410.704099
 42
0.159008
  0
VERTEX
  8
0
 10
32.524543
 20
410.647791
 42
0.099900
  0
VERTEX
  8
0
 10
31.941595
 20
410.277793
 42
0.066842
  0
VERTEX
  8
0
 10
31.447834
 20
409.657908
 42
0.063657
  0
VERTEX
  8
0
 10
31.113896
 20
408.893758
 42
0.071334
  0
VERTEX
  8
0
 10
31.000000
 20
408.099494
 42
0.188028
  0
VERTEX
  8
0
 10
31.462540
 20
406.913002
 42
0.047589
  0
VERTEX
  8
0
 10
33.030261
 20
405.503631
 42
0.029899
  0
VERTEX
  8
0
 10
35.734562
 20
403.741997
 42
0.008370
  0
VERTEX
  8
0
 10
40.162466
 20
401.318109
 42
-0.016370
  0
VERTEX
  8
0
 10
47.335605
 20
397.240975
 42
-0.052262
  0
VERTEX
  8
0
 10
51.700376
 20
393.895104
 42
-0.067213
  0
VERTEX
  8
0
 10
54.666929
 20
390.212538
 42
-0.041989
  0
VERTEX
  8
0
 10
57.129469
 20
385.241893
 42
-0.027552
  0
VERTEX
  8
0
 10
58.317422
 20
381.668566
 42
-0.035567
  0
VERTEX
  8
0
 10
58.986407
 20
378.277209
 42
-0.024567
  0
VERTEX
  8
0
 10
59.308189
 20
373.967976
 42
-0.006349
  0
VERTEX
  8
0
 10
59.396786
 20
367.000000
 42
-0.027919
  0
VERTEX
  8
0
 10
58.718373
 20
354.856090
 42
-0.052454
  0
VERTEX
  8
0
 10
56.610163
 20
345.268382
 42
-0.049571
  0
VERTEX
  8
0
 10
52.459323
 20
335.981358
 42
-0.022359
  0
VERTEX
  8
0
 10
45.317929
 20
324.693437
 42
0.015090
  0
VERTEX
  8
0
 10
40.768021
 20
317.727863
 42
0.182591
  0
VERTEX
  8
0
 10
40.183129
 20
314.640720
 42
0.298086
  0
VERTEX
  8
0
 10
41.906756
 20
312.802955
 42
0.037236
  0
VERTEX
  8
0
 10
47.571872
 20
311.867794
 42
-0.026530
  0
VERTEX
  8
0
 10
52.950724
 20
311.097678
 42
-0.052206
  0
VERTEX
  8
0
 10
57.073875
 20
309.824162
 42
-0.062871
  0
VERTEX
  8
0
 10
60.319901
 20
307.924579
 42
-0.061992
  0
VERTEX
  8
0
 10
63.009392
 20
305.269980
 42
-0.043078
  0
VERTEX
  8
0
 10
64.154906
 20
303.529156
 42
-0.081094
  0
VERTEX
  8
0
 10
64.705165
 20
301.943722
 42
-0.057454
  0
VERTEX
  8
0
 10
64.821380
 20
299.923029
 42
-0.013075
  0
VERTEX
  8
0
 10
64.534960
 20
296.500000
 42
0.003458
  0
VERTEX
  8
0
 10
64.268363
 20
293.913541
 42
0.002703
  0
VERTEX
  8
0
 10
64.013531
 20
291.101923
 42
0.002733
  0
VERTEX
  8
0
 10
63.804738
 20
288.481667
 42
0.006672
  0
VERTEX
  8
0
 10
63.687273
 20
286.549101
 42
0.000000
  0
VERTEX
  8
0
 10
63.500000
 20
282.598201
 42
0.000000
  0
VERTEX
  8
0
 10
69.000000
 20
281.429018
 42
-0.010661
  0
VERTEX
  8
0
 10
73.931885
 20
280.270177
 42
-0.057314
  0
VERTEX
  8
0
 10
76.502323
 20
279.283219
 42
-0.094629
  0
VERTEX
  8
0
 10
78.150572
 20
277.977906
 42
-0.058829
  0
VERTEX
  8
0
 10
79.536985
 20
275.928479
 42
-0.061796
  0
VERTEX
  8
0
 10
80.607548
 20
273.030040
 42
-0.068623
  0
VERTEX
  8
0
 10
80.885533
 20
270.060801
 42
-0.060522
  0
VERTEX
  8
0
 10
80.349183
 20
266.831329
 42
-0.035141
  0
VERTEX
  8
0
 10
78.978038
 20
263.140796
 42
0.030471
  0
VERTEX
  8
0
 10
77.010318
 20
257.992169
 42
0.217501
  0
VERTEX
  8
0
 10
77.332512
 20
255.411385
 42
0.232210
  0
VERTEX
  8
0
 10
79.466202
 20
254.067921
 42
0.034580
  0
VERTEX
  8
0
 10
84.689821
 20
253.877350
 42
-0.031736
  0
VERTEX
  8
0
 10
89.889973
 20
253.717211
 42
-0.053824
  0
VERTEX
  8
0
 10
94.152020
 20
252.845343
 42
-0.062188
  0
VERTEX
  8
0
 10
97.681665
 20
251.211417
 42
-0.063521
  0
VERTEX
  8
0
 10
100.673154
 20
248.769321
 42
-0.065892
  0
VERTEX
  8
0
 10
104.729851
 20
243.178494
 42
-0.067634
  0
VERTEX
  8
0
 10
107.148514
 20
236.773090
 42
-0.060583
  0
VERTEX
  8
0
 10
107.929936
 20
229.355897
 42
-0.039110
  0
VERTEX
  8
0
 10
107.116145
 20
220.745550
 42
0.028229
  0
VERTEX
  8
0
 10
106.287961
 20
213.636241
 42
0.261415
  0
VERTEX
  8
0
 10
107.591067
 20
210.951366
 42
0.309946
  0
VERTEX
  8
0
 10
110.325586
 20
210.933763
 42
0.035322
  0
VERTEX
  8
0
 10
115.447805
 20
214.952732
 42
-0.010585
  0
VERTEX
  8
0
 10
119.767566
 20
218.701392
 42
-0.043955
  0
VERTEX
  8
0
 10
122.602429
 20
220.664686
 42
-0.053480
  0
VERTEX
  8
0
 10
125.459523
 20
221.909862
 42
-0.020923
  0
VERTEX
  8
0
 10
129.619928
 20
223.026876
 42
-0.025872
  0
VERTEX
  8
0
 10
132.268749
 20
223.478104
 42
-0.032051
  0
VERTEX
  8
0
 10
134.766271
 20
223.610391
 42
-0.029336
  0
VERTEX
  8
0
 10
137.431244
 20
223.424025
 42
-0.016936
  0
VERTEX
  8
0
 10
140.604768
 20
222.904252
 42
0.000000
  0
VERTEX
  8
0
 10
146.716244
 20
221.689485
 42
0.000000
  0
VERTEX
  8
0
 10
147.310789
 20
211.594742
 42
0.021854
  0
VERTEX
  8
0
 10
148.229342
 20
202.667225
 42
0.023417
  0
VERTEX
  8
0
 10
149.911931
 20
194.060208
 42
0.024089
  0
VERTEX
  8
0
 10
152.334167
 20
185.885017
 42
0.026562
  0
VERTEX
  8
0
 10
155.466609
 20
178.250000
 42
0.011357
  0
VERTEX
  8
0
 10
157.200360
 20
174.795531
 42
0.037243
  0
VERTEX
  8
0
 10
158.561075
 20
172.636308
 42
0.060297
  0
VERTEX
  8
0
 10
159.734237
 20
171.395097
 42
0.175037
  0
VERTEX
  8
0
 10
160.828265
 20
171.000000
 42
0.102660
  0
VERTEX
  8
0
 10
162.393675
 20
171.324834
 42
0.112264
  0
VERTEX
  8
0
 10
163.643519
 20
172.241481
 42
0.084134
  0
VERTEX
  8
0
 10
164.620745
 20
173.847846
 42
0.036058
  0
VERTEX
  8
0
 10
165.381165
 20
176.250000
 42
-0.050825
  0
VERTEX
  8
0
 10
166.095835
 20
178.295986
 42
-0.305848
  0
VERTEX
  8
0
 10
167.013258
 20
178.845360
 42
-0.201377
  0
VERTEX
  8
0
 10
168.200858
 20
178.269466
 42
-0.025773
  0
VERTEX
  8
0
 10
170.000000
 20
176.000000
 42
0.043101
  0
VERTEX
  8
0
 10
171.762890
 20
173.927821
 42
0.157521
  0
VERTEX
  8
0
 10
173.283679
 20
173.160569
 42
0.163175
  0
VERTEX
  8
0
 10
174.932092
 20
173.441365
 42
0.047144
  0
VERTEX
  8
0
 10
177.112788
 20
174.890247
 42
-0.038586
  0
VERTEX
  8
0
 10
178.328905
 20
175.728547
 42
-0.075349
  0
VERTEX
  8
0
 10
179.421614
 20
176.159901
 42
-0.085151
  0
VERTEX
  8
0
 10
180.501001
 20
176.220055
 42
-0.062356
  0
VERTEX
  8
0
 10
181.668985
 20
175.935752
 42
0.147420
  0
VERTEX
  8
0
 10
184.290954
 20
175.750360
 42
0.163487
  0
VERTEX
  8
0
 10
186.454372
 20
177.065620
 42
0.112966
  0
VERTEX
  8
0
 10
187.925874
 20
179.923694
 42
0.052126
  0
VERTEX
  8
0
 10
188.539163
 20
184.085001
 42
-0.001881
  0
VERTEX
  8
0
 10
188.635126
 20
186.172866
 42
-0.002992
  0
VERTEX
  8
0
 10
188.734650
 20
187.958581
 42
-0.000671
  0
VERTEX
  8
0
 10
188.833318
 20
189.522661
 42
-0.136277
  0
VERTEX
  8
0
 10
188.883817
 20
189.667616
 42
-0.327562
  0
VERTEX
  8
0
 10
189.007765
 20
189.710291
 42
-0.000508
  0
VERTEX
  8
0
 10
191.389309
 20
188.967007
 42
-0.003481
  0
VERTEX
  8
0
 10
194.078386
 20
188.104139
 42
-0.002108
  0
VERTEX
  8
0
 10
197.250000
 20
187.047188
 42
0.010378
  0
VERTEX
  8
0
 10
200.917986
 20
185.891853
 42
0.007093
  0
VERTEX
  8
0
 10
205.128197
 20
184.725737
 42
0.007152
  0
VERTEX
  8
0
 10
209.220184
 20
183.716939
 42
0.014327
  0
VERTEX
  8
0
 10
212.484289
 20
183.059501
 42
-0.015905
  0
VERTEX
  8
0
 10
217.254868
 20
182.082968
 42
-0.098957
  0
VERTEX
  8
0
 10
219.511411
 20
181.045369
 42
-0.166884
  0
VERTEX
  8
0
 10
220.609697
 20
179.480023
 42
-0.068919
  0
VERTEX
  8
0
 10
220.984687
 20
176.884357
 42
0.101260
  0
VERTEX
  8
0
 10
221.816227
 20
172.938278
 42
0.022204
  0
VERTEX
  8
0
 10
224.872606
 20
166.673930
 42
0.023936
  0
VERTEX
  8
0
 10
228.604131
 20
160.535236
 42
0.060583
  0
VERTEX
  8
0
 10
232.022879
 20
156.598295
 42
0.024592
  0
VERTEX
  8
0
 10
235.394312
 20
153.840928
 42
0.165007
  0
VERTEX
  8
0
 10
237.425801
 20
153.191762
 42
0.222783
  0
VERTEX
  8
0
 10
239.085128
 20
154.005987
 42
0.047907
  0
VERTEX
  8
0
 10
240.888618
 20
156.755863
 42
-0.031961
  0
VERTEX
  8
0
 10
241.681231
 20
158.052629
 42
-0.196819
  0
VERTEX
  8
0
 10
242.326743
 20
158.466013
 42
-0.149320
  0
VERTEX
  8
0
 10
243.181556
 20
158.366819
 42
-0.016320
  0
VERTEX
  8
0
 10
244.988662
 20
157.505863
 42
0.028831
  0
VERTEX
  8
0
 10
246.281301
 20
156.929221
 42
0.021768
  0
VERTEX
  8
0
 10
247.758269
 20
156.442347
 42
0.022184
  0
VERTEX
  8
0
 10
249.190522
 20
156.106183
 42
0.046578
  0
VERTEX
  8
0
 10
250.327895
 20
156.000000
 42
0.126249
  0
VERTEX
  8
0
 10
252.835032
 20
156.643300
 42
0.195009
  0
VERTEX
  8
0
 10
254.228830
 20
158.355389
 42
0.079930
  0
VERTEX
  8
0
 10
254.716765
 20
161.854022
 42
0.010903
  0
VERTEX
  8
0
 10
254.400173
 20
169.254127
 42
-0.005458
  0
VERTEX
  8
0
 10
254.110602
 20
174.646761
 42
-0.025603
  0
VERTEX
  8
0
 10
254.136885
 20
177.751492
 42
-0.044906
  0
VERTEX
  8
0
 10
254.422397
 20
179.648137
 42
-0.197005
  0
VERTEX
  8
0
 10
255.074669
 20
180.546148
 42
-0.096787
  0
VERTEX
  8
0
 10
255.999489
 20
180.894887
 42
-0.008940
  0
VERTEX
  8
0
 10
258.431049
 20
181.261758
 42
-0.011259
  0
VERTEX
  8
0
 10
261.373133
 20
181.584772
 42
-0.008599
  0
VERTEX
  8
0
 10
264.604087
 20
181.810130
 42
0.000000
  0
VERTEX
  8
0
 10
272.782928
 20
182.239410
 42
0.000000
  0
VERTEX
  8
0
 10
273.885523
 20
177.098185
 42
0.034266
  0
VERTEX
  8
0
 10
275.265969
 20
172.293320
 42
0.028555
  0
VERTEX
  8
0
 10
277.361555
 20
167.410008
 42
0.029543
  0
VERTEX
  8
0
 10
279.833923
 20
163.107181
 42
0.059982
  0
VERTEX
  8
0
 10
282.345499
 20
160.127840
 42
0.041958
  0
VERTEX
  8
0
 10
283.976726
 20
158.844244
 42
0.096054
  0
VERTEX
  8
0
 10
285.417011
 20
158.250002
 42
0.066579
  0
VERTEX
  8
0
 10
287.288613
 20
158.124742
 42
0.012683
  0
VERTEX
  8
0
 10
290.694484
 20
158.437251
 42
0.004920
  0
VERTEX
  8
0
 10
293.052148
 20
158.737586
 42
0.005370
  0
VERTEX
  8
0
 10
295.335508
 20
159.076339
 42
0.005049
  0
VERTEX
  8
0
 10
297.282846
 20
159.406846
 42
0.026388
  0
VERTEX
  8
0
 10
298.341289
 20
159.655772
 42
0.167746
  0
VERTEX
  8
0
 10
299.954957
 20
160.798423
 42
0.049337
  0
VERTEX
  8
0
 10
301.493769
 20
163.463363
 42
0.047307
  0
VERTEX
  8
0
 10
302.620705
 20
166.747882
 42
0.059062
  0
VERTEX
  8
0
 10
303.000000
 20
169.947645
 42
-0.062589
  0
VERTEX
  8
0
 10
303.411833
 20
173.224752
 42
-0.035075
  0
VERTEX
  8
0
 10
304.677432
 20
177.041900
 42
-0.033490
  0
VERTEX
  8
0
 10
306.335996
 20
180.412969
 42
-0.139703
  0
VERTEX
  8
0
 10
307.946149
 20
181.971180
 42
-0.092895
  0
VERTEX
  8
0
 10
308.918881
 20
182.278637
 42
-0.022877
  0
VERTEX
  8
0
 10
310.597216
 20
182.404979
 42
-0.022628
  0
VERTEX
  8
0
 10
312.565659
 20
182.373763
 42
-0.020921
  0
VERTEX
  8
0
 10
314.575897
 20
182.166094
 42
-0.011161
  0
VERTEX
  8
0
 10
317.638055
 20
181.649596
 42
-0.120813
  0
VERTEX
  8
0
 10
318.769679
 20
181.130774
 42
-0.207215
  0
VERTEX
  8
0
 10
319.238521
 20
180.255604
 42
-0.043220
  0
VERTEX
  8
0
 10
319.232778
 20
178.474087
 42
0.006944
  0
VERTEX
  8
0
 10
318.511115
 20
168.961857
 42
0.014874
  0
VERTEX
  8
0
 10
318.274942
 20
161.604322
 42
0.018350
  0
VERTEX
  8
0
 10
318.466174
 20
156.039903
 42
0.062953
  0
VERTEX
  8
0
 10
319.171925
 20
152.500000
 42
0.066377
  0
VERTEX
  8
0
 10
320.623504
 20
149.533636
 42
0.225582
  0
VERTEX
  8
0
 10
322.422313
 20
148.456811
 42
0.234385
  0
VERTEX
  8
0
 10
324.339223
 20
149.188825
 42
0.070721
  0
VERTEX
  8
0
 10
326.162455
 20
151.829122
 42
-0.009270
  0
VERTEX
  8
0
 10
327.669281
 20
154.711625
 42
-0.134561
  0
VERTEX
  8
0
 10
328.461330
 20
155.532161
 42
-0.215030
  0
VERTEX
  8
0
 10
329.411030
 20
155.638915
 42
-0.028972
  0
VERTEX
  8
0
 10
331.329996
 20
154.895505
 42
-0.028579
  0
VERTEX
  8
0
 10
332.663924
 20
154.193113
 42
-0.141177
  0
VERTEX
  8
0
 10
333.235922
 20
153.577247
 42
-0.185375
  0
VERTEX
  8
0
 10
333.310033
 20
152.848862
 42
-0.056611
  0
VERTEX
  8
0
 10
332.893792
 20
151.801548
 42
0.080707
  0
VERTEX
  8
0
 10
332.514391
 20
150.695090
 42
0.088681
  0
VERTEX
  8
0
 10
332.523035
 20
149.562470
 42
0.064204
  0
VERTEX
  8
0
 10
332.954235
 20
148.229040
 42
0.023017
  0
VERTEX
  8
0
 10
333.890684
 20
146.460704
 42
0.000000
  0
VERTEX
  8
0
 10
335.912229
 20
143.034440
 42
0.000000
  0
VERTEX
  8
0
 10
332.706115
 20
142.180982
 42
0.037436
  0
VERTEX
  8
0
 10
330.749309
 20
141.499776
 42
0.188438
  0
VERTEX
  8
0
 10
329.942917
 20
140.698294
 42
0.107515
  0
VERTEX
  8
0
 10
329.658861
 20
139.309386
 42
0.008548
  0
VERTEX
  8
0
 10
329.770493
 20
135.535020
 42
-0.016962
  0
VERTEX
  8
0
 10
329.811156
 20
132.344015
 42
-0.053752
  0
VERTEX
  8
0
 10
329.537662
 20
130.228696
 42
-0.066622
  0
VERTEX
  8
0
 10
328.859594
 20
128.475423
 42
-0.037400
  0
VERTEX
  8
0
 10
327.611820
 20
126.557716
 42
0.020027
  0
VERTEX
  8
0
 10
326.569656
 20
125.071534
 42
0.011914
  0
VERTEX
  8
0
 10
325.443758
 20
123.225554
 42
0.011915
  0
VERTEX
  8
0
 10
324.407545
 20
121.328894
 42
0.020107
  0
VERTEX
  8
0
 10
323.642354
 20
119.686458
 42
-0.059946
  0
VERTEX
  8
0
 10
322.285190
 20
117.291347
 42
-0.168286
  0
VERTEX
  8
0
 10
320.718746
 20
116.214916
 42
-0.090827
  0
VERTEX
  8
0
 10
318.204921
 20
115.994477
 42
-0.010632
  0
VERTEX
  8
0
 10
312.586866
 20
116.643148
 42
-0.023806
  0
VERTEX
  8
0
 10
309.857497
 20
117.150590
 42
-0.095354
  0
VERTEX
  8
0
 10
308.314259
 20
117.842643
 42
-0.097445
  0
VERTEX
  8
0
 10
307.155474
 20
119.050113
 42
-0.025464
  0
VERTEX
  8
0
 10
305.815087
 20
121.393148
 42
0.025992
  0
VERTEX
  8
0
 10
304.606737
 20
123.500217
 42
0.007263
  0
VERTEX
  8
0
 10
302.500762
 20
126.664789
 42
0.007306
  0
VERTEX
  8
0
 10
300.010412
 20
130.180392
 42
0.007621
  0
VERTEX
  8
0
 10
297.452433
 20
133.572091
 42
0.021367
  0
VERTEX
  8
0
 10
289.265758
 20
143.210291
 42
0.061765
  0
VERTEX
  8
0
 10
282.582414
 20
148.845903
 42
0.167774
  0
VERTEX
  8
0
 10
278.207203
 20
149.938538
 42
0.348562
  0
VERTEX
  8
0
 10
275.808471
 20
147.665449
 42
-0.079103
  0
VERTEX
  8
0
 10
275.531113
 20
146.766841
 42
-0.053287
  0
VERTEX
  8
0
 10
274.956340
 20
145.857612
 42
-0.052513
  0
VERTEX
  8
0
 10
274.189652
 20
145.075017
 42
-0.069364
  0
VERTEX
  8
0
 10
273.340772
 20
144.551956
 42
0.073572
  0
VERTEX
  8
0
 10
272.405282
 20
143.964664
 42
0.033690
  0
VERTEX
  8
0
 10
271.373137
 20
142.954090
 42
0.032444
  0
VERTEX
  8
0
 10
270.410310
 20
141.723034
 42
0.038495
  0
VERTEX
  8
0
 10
269.674549
 20
140.443711
 42
-0.043790
  0
VERTEX
  8
0
 10
268.824245
 20
139.000737
 42
-0.062697
  0
VERTEX
  8
0
 10
267.818204
 20
137.910483
 42
-0.066822
  0
VERTEX
  8
0
 10
266.626925
 20
137.152157
 42
-0.059076
  0
VERTEX
  8
0
 10
265.227346
 20
136.695469
 42
0.056297
  0
VERTEX
  8
0
 10
263.823903
 20
136.246107
 42
0.072975
  0
VERTEX
  8
0
 10
262.686240
 20
135.520046
 42
0.069810
  0
VERTEX
  8
0
 10
261.769348
 20
134.469722
 42
0.046429
  0
VERTEX
  8
0
 10
261.022249
 20
133.053714
 42
-0.052786
  0
VERTEX
  8
0
 10
259.884210
 20
130.961476
 42
-0.211816
  0
VERTEX
  8
0
 10
258.671095
 20
130.218232
 42
-0.101160
  0
VERTEX
  8
0
 10
256.740708
 20
130.352434
 42
-0.007896
  0
VERTEX
  8
0
 10
251.759449
 20
131.821750
 42
-0.032734
  0
VERTEX
  8
0
 10
248.586566
 20
133.045363
 42
-0.036722
  0
VERTEX
  8
0
 10
245.725822
 20
134.634026
 42
-0.029772
  0
VERTEX
  8
0
 10
242.683465
 20
136.898549
 42
-0.012695
  0
VERTEX
  8
0
 10
238.882396
 20
140.264613
 42
0.035075
  0
VERTEX
  8
0
 10
231.903612
 20
145.908626
 42
0.033178
  0
VERTEX
  8
0
 10
224.077719
 20
150.638017
 42
0.031525
  0
VERTEX
  8
0
 10
215.309424
 20
154.493207
 42
0.025699
  0
VERTEX
  8
0
 10
205.510545
 20
157.522399
 42
0.018441
  0
VERTEX
  8
0
 10
198.788040
 20
158.966161
 42
0.028186
  0
VERTEX
  8
0
 10
192.867681
 20
159.669921
 42
0.014332
  0
VERTEX
  8
0
 10
184.592096
 20
159.945568
 42
0.001667
  0
VERTEX
  8
0
 10
166.062997
 20
159.969638
 42
-0.001621
  0
VERTEX
  8
0
 10
147.406074
 20
159.992127
 42
-0.014645
  0
VERTEX
  8
0
 10
139.252917
 20
160.267279
 42
-0.029459
  0
VERTEX
  8
0
 10
133.462412
 20
160.976801
 42
-0.019183
  0
VERTEX
  8
0
 10
126.884702
 20
162.442076
 42
-0.009613
  0
VERTEX
  8
0
 10
122.664462
 20
163.640880
 42
-0.006602
  0
VERTEX
  8
0
 10
117.924642
 20
165.154992
 42
-0.006658
  0
VERTEX
  8
0
 10
113.398510
 20
166.734285
 42
-0.013436
  0
VERTEX
  8
0
 10
109.884702
 20
168.121088
 42
0.011974
  0
VERTEX
  8
0
 10
106.837433
 20
169.334071
 42
0.012618
  0
VERTEX
  8
0
 10
103.788006
 20
170.377378
 42
0.012327
  0
VERTEX
  8
0
 10
101.119151
 20
171.144126
 42
0.054146
  0
VERTEX
  8
0
 10
99.500000
 20
171.383739
 42
0.192764
  0
VERTEX
  8
0
 10
97.040112
 20
170.507707
 42
0.326915
  0
VERTEX
  8
0
 10
96.593480
 20
168.471147
 42
0.072657
  0
VERTEX
  8
0
 10
99.178660
 20
164.357737
 42
0.009668
  0
VERTEX
  8
0
 10
106.005495
 20
156.659686
 42
-0.007889
  0
VERTEX
  8
0
 10
110.008653
 20
152.177887
 42
-0.013357
  0
VERTEX
  8
0
 10
113.198725
 20
148.285486
 42
-0.010207
  0
VERTEX
  8
0
 10
115.584352
 20
145.077531
 42
-0.156002
  0
VERTEX
  8
0
 10
116.000000
 20
143.777763
 42
-0.231513
  0
VERTEX
  8
0
 10
113.864501
 20
139.412904
 42
-0.031815
  0
VERTEX
  8
0
 10
105.248764
 20
133.554301
 42
-0.034031
  0
VERTEX
  8
0
 10
94.240451
 20
128.024297
 42
-0.035369
  0
VERTEX
  8
0
 10
82.722798
 20
124.120618
 42
0.003864
  0
VERTEX
  8
0
 10
79.672829
 20
123.296845
 42
0.005308
  0
VERTEX
  8
0
 10
76.944390
 20
122.505937
 42
0.003486
  0
VERTEX
  8
0
 10
74.669997
 20
121.803055
 42
0.061796
  0
VERTEX
  8
0
 10
73.972798
 20
121.483188
 42
0.222894
  0
VERTEX
  8
0
 10
73.076479
 20
120.110937
 42
0.166272
  0
VERTEX
  8
0
 10
73.421763
 20
118.311136
 42
0.083124
  0
VERTEX
  8
0
 10
75.242961
 20
116.081627
 42
0.029227
  0
VERTEX
  8
0
 10
78.513918
 20
113.534854
 42
-0.035011
  0
VERTEX
  8
0
 10
82.080668
 20
110.690964
 42
-0.078248
  0
VERTEX
  8
0
 10
84.232438
 20
107.983380
 42
-0.126511
  0
VERTEX
  8
0
 10
84.873738
 20
105.607616
 42
-0.199728
  0
VERTEX
  8
0
 10
84.097379
 20
103.676784
 42
-0.037411
  0
VERTEX
  8
0
 10
83.235948
 20
102.922105
 42
-0.001585
  0
VERTEX
  8
0
 10
79.984770
 20
100.493960
 42
-0.002717
  0
VERTEX
  8
0
 10
76.103293
 20
97.646771
 42
-0.001929
  0
VERTEX
  8
0
 10
71.720595
 20
94.494142
 42
0.005444
  0
VERTEX
  8
0
 10
65.803647
 20
90.174443
 42
0.027691
  0
VERTEX
  8
0
 10
62.677161
 20
87.557737
 42
0.052439
  0
VERTEX
  8
0
 10
61.017866
 20
85.641964
 42
0.153437
  0
VERTEX
  8
0
 10
60.500000
 20
83.994142
 42
0.065480
  0
VERTEX
  8
0
 10
60.664021
 20
82.747055
 42
0.112448
  0
VERTEX
  8
0
 10
61.150939
 20
81.824199
 42
0.096276
  0
VERTEX
  8
0
 10
62.051290
 20
81.111798
 42
0.038937
  0
VERTEX
  8
0
 10
63.500000
 20
80.500000
 42
-0.020154
  0
VERTEX
  8
0
 10
66.414762
 20
79.396039
 42
-0.087155
  0
VERTEX
  8
0
 10
67.961103
 20
78.391247
 42
-0.132146
  0
VERTEX
  8
0
 10
68.736294
 20
77.149098
 42
-0.073925
  0
VERTEX
  8
0
 10
69.000000
 20
75.375242
 42
-0.073050
  0
VERTEX
  8
0
 10
68.628687
 20
72.847306
 42
-0.053525
  0
VERTEX
  8
0
 10
67.526663
 20
70.230789
 42
-0.027443
  0
VERTEX
  8
0
 10
65.256398
 20
66.613284
 42
-0.004652
  0
VERTEX
  8
0
 10
60.488763
 20
60.000000
 42
0.020127
  0
VERTEX
  8
0
 10
54.189538
 20
50.666452
 42
0.040270
  0
VERTEX
  8
0
 10
50.137872
 20
42.747873
 42
0.053069
  0
VERTEX
  8
0
 10
48.269450
 20
36.403445
 42
0.169537
  0
VERTEX
  8
0
 10
48.943195
 20
32.106141
 42
0.123034
  0
VERTEX
  8
0
 10
50.362554
 20
30.539877
 42
0.205875
  0
VERTEX
  8
0
 10
52.081984
 20
30.220505
 42
0.107397
  0
VERTEX
  8
0
 10
54.369454
 20
31.287357
 42
0.023589
  0
VERTEX
  8
0
 10
57.713023
 20
34.089593
 42
-0.040320
  0
VERTEX
  8
0
 10
62.961597
 20
38.197764
 42
-0.048539
  0
VERTEX
  8
0
 10
68.497391
 20
41.125779
 42
-0.049882
  0
VERTEX
  8
0
 10
74.361045
 20
42.874525
 42
-0.046790
  0
VERTEX
  8
0
 10
80.583724
 20
43.477797
 42
-0.014857
  0
VERTEX
  8
0
 10
84.752166
 20
43.366988
 42
-0.052345
  0
VERTEX
  8
0
 10
87.395301
 20
42.938048
 42
-0.055896
  0
VERTEX
  8
0
 10
89.801770
 20
41.984812
 42
-0.018627
  0
VERTEX
  8
0
 10
93.083724
 20
40.079117
 42
0.007044
  0
VERTEX
  8
0
 10
100.427824
 20
35.584105
 42
0.023588
  0
VERTEX
  8
0
 10
105.412368
 20
32.938312
 42
0.036284
  0
VERTEX
  8
0
 10
109.160763
 20
31.491865
 42
0.072869
  0
VERTEX
  8
0
 10
112.289838
 20
31.018115
 42
0.070339
  0
VERTEX
  8
0
 10
116.149271
 20
31.544945
 42
0.054592
  0
VERTEX
  8
0
 10
120.082415
 20
33.139596
 42
0.051838
  0
VERTEX
  8
0
 10
123.775386
 20
35.654426
 42
0.049920
  0
VERTEX
  8
0
 10
126.924075
 20
38.904136
 42
-0.037724
  0
VERTEX
  8
0
 10
130.420870
 20
42.693504
 42
-0.065921
  0
VERTEX
  8
0
 10
133.895844
 20
45.166287
 42
-0.070854
  0
VERTEX
  8
0
 10
137.710997
 20
46.538833
 42
-0.051013
  0
VERTEX
  8
0
 10
142.219359
 20
47.000000
 42
-0.021781
  0
VERTEX
  8
0
 10
145.249987
 20
46.867916
 42
-0.055505
  0
VERTEX
  8
0
 10
147.404005
 20
46.435744
 42
-0.059091
  0
VERTEX
  8
0
 10
149.330830
 20
45.559173
 42
-0.027480
  0
VERTEX
  8
0
 10
151.601325
 20
44.006053
 42
0.004358
  0
VERTEX
  8
0
 10
158.020788
 20
39.164643
 42
0.035512
  0
VERTEX
  8
0
 10
161.121486
 20
37.192650
 42
0.095507
  0
VERTEX
  8
0
 10
163.054861
 20
36.583922
 42
0.204614
  0
VERTEX
  8
0
 10
164.525730
 20
37.021354
 42
0.108314
  0
VERTEX
  8
0
 10
165.244657
 20
37.943323
 42
0.078220
  0
VERTEX
  8
0
 10
165.619109
 20
39.196416
 42
0.047536
  0
VERTEX
  8
0
 10
165.691121
 20
41.030000
 42
0.013218
  0
VERTEX
  8
0
 10
165.454757
 20
43.899608
 42
-0.019242
  0
VERTEX
  8
0
 10
165.234295
 20
47.037700
 42
-0.051102
  0
VERTEX
  8
0
 10
165.392325
 20
49.276938
 42
-0.054828
  0
VERTEX
  8
0
 10
165.992019
 20
51.345921
 42
-0.024980
  0
VERTEX
  8
0
 10
167.196951
 20
53.894664
 42
-0.059594
  0
VERTEX
  8
0
 10
169.934546
 20
57.806472
 42
-0.092764
  0
VERTEX
  8
0
 10
173.186197
 20
60.310037
 42
-0.090396
  0
VERTEX
  8
0
 10
177.187022
 20
61.507583
 42
-0.054075
  0
VERTEX
  8
0
 10
182.166156
 20
61.519980
 42
0.014046
  0
VERTEX
  8
0
 10
184.700666
 20
61.323250
 42
0.033508
  0
VERTEX
  8
0
 10
186.587482
 20
61.356491
 42
0.045091
  0
VERTEX
  8
0
 10
187.905937
 20
61.589233
 42
0.190344
  0
VERTEX
  8
0
 10
188.537271
 20
62.060305
 42
0.116566
  0
VERTEX
  8
0
 10
188.823281
 20
62.919082
 42
0.004922
  0
VERTEX
  8
0
 10
189.080167
 20
66.141059
 42
0.008245
  0
VERTEX
  8
0
 10
189.285546
 20
69.995921
 42
0.005749
  0
VERTEX
  8
0
 10
189.395487
 20
74.350476
 42
-0.006991
  0
VERTEX
  8
0
 10
189.576686
 20
80.884130
 42
-0.033071
  0
VERTEX
  8
0
 10
189.979648
 20
84.606780
 42
-0.046914
  0
VERTEX
  8
0
 10
190.802179
 20
87.605564
 42
-0.024490
  0
VERTEX
  8
0
 10
192.349526
 20
91.161470
 42
-0.042902
  0
VERTEX
  8
0
 10
195.560032
 20
96.455292
 42
-0.038008
  0
VERTEX
  8
0
 10
199.747792
 20
101.358218
 42
-0.038213
  0
VERTEX
  8
0
 10
204.602727
 20
105.544187
 42
-0.044699
  0
VERTEX
  8
0
 10
209.800916
 20
108.701362
 42
-0.022809
  0
VERTEX
  8
0
 10
213.322817
 20
110.235720
 42
-0.047246
  0
VERTEX
  8
0
 10
216.210677
 20
111.037557
 42
-0.035733
  0
VERTEX
  8
0
 10
219.671756
 20
111.402239
 42
-0.008386
  0
VERTEX
  8
0
 10
225.500000
 20
111.500000
 42
-0.012905
  0
VERTEX
  8
0
 10
231.641131
 20
111.341469
 42
-0.035008
  0
VERTEX
  8
0
 10
235.961654
 20
110.813466
 42
-0.028472
  0
VERTEX
  8
0
 10
240.637984
 20
109.626763
 42
-0.006284
  0
VERTEX
  8
0
 10
248.500000
 20
107.038648
 42
-0.015165
  0
VERTEX
  8
0
 10
255.358726
 20
104.449835
 42
-0.007345
  0
VERTEX
  8
0
 10
263.974752
 20
100.746631
 42
-0.006738
  0
VERTEX
  8
0
 10
273.632212
 20
96.269517
 42
-0.005641
  0
VERTEX
  8
0
 10
283.759377
 20
91.266444
 42
0.004891
  0
VERTEX
  8
0
 10
292.929366
 20
86.719132
 42
0.005075
  0
VERTEX
  8
0
 10
302.075347
 20
82.408655
 42
0.004901
  0
VERTEX
  8
0
 10
310.062443
 20
78.837310
 42
0.021852
  0
VERTEX
  8
0
 10
314.853765
 20
76.995592
 42
0.056344
  0
VERTEX
  8
0
 10
331.081925
 20
73.524671
 42
0.057015
  0
VERTEX
  8
0
 10
347.609039
 20
73.785298
 42
0.049432
  0
VERTEX
  8
0
 10
365.574938
 20
77.962705
 42
0.028382
  0
VERTEX
  8
0
 10
386.212291
 20
86.301219
 42
0.023387
  0
VERTEX
  8
0
 10
395.589389
 20
91.272871
 42
0.050840
  0
VERTEX
  8
0
 10
402.137748
 20
96.106457
 42
0.057789
  0
VERTEX
  8
0
 10
407.052950
 20
101.734502
 42
0.039638
  0
VERTEX
  8
0
 10
411.293391
 20
109.085846
 42
0.029566
  0
VERTEX
  8
0
 10
414.665989
 20
117.412161
 42
0.036864
  0
VERTEX
  8
0
 10
416.746655
 20
125.491723
 42
0.034081
  0
VERTEX
  8
0
 10
417.719832
 20
134.285689
 42
0.020316
  0
VERTEX
  8
0
 10
417.735144
 20
144.820424
 42
0.016069
  0
VERTEX
  8
0
 10
417.011150
 20
154.956307
 42
0.033930
  0
VERTEX
  8
0
 10
415.668433
 20
162.718992
 42
0.035651
  0
VERTEX
  8
0
 10
413.337829
 20
169.985153
 42
0.019684
  0
VERTEX
  8
0
 10
409.524967
 20
178.500000
 42
0.048238
  0
VERTEX
  8
0
 10
401.478847
 20
191.426132
 42
0.047964
  0
VERTEX
  8
0
 10
391.091288
 20
202.598063
 42
0.041872
  0
VERTEX
  8
0
 10
377.502471
 20
212.762366
 42
0.024465
  0
VERTEX
  8
0
 10
359.738303
 20
222.689544
 42
0.021599
  0
VERTEX
  8
0
 10
343.218970
 20
230.016918
 42
0.039909
  0
VERTEX
  8
0
 10
329.173845
 20
234.277436
 42
0.033741
  0
VERTEX
  8
0
 10
313.135054
 20
236.657048
 42
0.011343
  0
VERTEX
  8
0
 10
289.500000
 20
238.009281
 42
-0.005866
  0
VERTEX
  8
0
 10
270.471033
 20
238.888990
 42
-0.023406
  0
VERTEX
  8
0
 10
258.861957
 20
240.109287
 42
-0.036052
  0
VERTEX
  8
0
 10
250.189246
 20
242.081552
 42
-0.035260
  0
VERTEX
  8
0
 10
241.822757
 20
245.289818
 42
-0.032192
  0
VERTEX
  8
0
 10
234.933771
 20
249.062467
 42
-0.047268
  0
VERTEX
  8
0
 10
229.481400
 20
253.292802
 42
-0.049438
  0
VERTEX
  8
0
 10
225.096896
 20
258.315307
 42
-0.039988
  0
VERTEX
  8
0
 10
221.422230
 20
264.460180
 42
-0.012472
  0
VERTEX
  8
0
 10
219.250657
 20
269.144699
 42
-0.054078
  0
VERTEX
  8
0
 10
218.343469
 20
272.066180
 42
-0.048932
  0
VERTEX
  8
0
 10
218.039635
 20
275.246524
 42
-0.009012
  0
VERTEX
  8
0
 10
218.160945
 20
281.144861
 42
-0.011139
  0
VERTEX
  8
0
 10
218.467444
 20
286.174389
 42
-0.028731
  0
VERTEX
  8
0
 10
218.977092
 20
289.775620
 42
-0.034814
  0
VERTEX
  8
0
 10
219.825667
 20
292.870222
 42
-0.024881
  0
VERTEX
  8
0
 10
221.181240
 20
296.196498
 42
-0.082027
  0
VERTEX
  8
0
 10
227.420168
 20
305.307605
 42
-0.069100
  0
VERTEX
  8
0
 10
236.604804
 20
312.564780
 42
-0.061260
  0
VERTEX
  8
0
 10
248.488879
 20
317.706716
 42
-0.043932
  0
VERTEX
  8
0
 10
262.692991
 20
320.559112
 42
-0.045383
  0
VERTEX
  8
0
 10
270.198955
 20
320.706760
 42
-0.169010
  0
VERTEX
  8
0
 10
274.477783
 20
318.867916
 42
-0.156104
  0
VERTEX
  8
0
 10
276.888715
 20
314.660464
 42
-0.037152
  0
VERTEX
  8
0
 10
278.000000
 20
306.561494
 42
0.019643
  0
VERTEX
  8
0
 10
278.619302
 20
300.473265
 42
0.216470
  0
VERTEX
  8
0
 10
279.904108
 20
298.455560
 42
0.224479
  0
VERTEX
  8
0
 10
282.238495
 20
298.136628
 42
0.021151
  0
VERTEX
  8
0
 10
287.821550
 20
300.162897
 42
-0.024810
  0
VERTEX
  8
0
 10
291.100318
 20
301.325795
 42
-0.033345
  0
VERTEX
  8
0
 10
294.171748
 20
302.027346
 42
-0.027913
  0
VERTEX
  8
0
 10
297.701969
 20
302.388977
 42
-0.011568
  0
VERTEX
  8
0
 10
302.500000
 20
302.500000
 42
-0.010011
  0
VERTEX
  8
0
 10
308.125874
 20
302.387342
 42
-0.051000
  0
VERTEX
  8
0
 10
311.221170
 20
301.944968
 42
-0.055319
  0
VERTEX
  8
0
 10
314.049922
 20
300.898286
 42
-0.013049
  0
VERTEX
  8
0
 10
318.500000
 20
298.518858
 42
0.035113
  0
VERTEX
  8
0
 10
332.929317
 20
291.603493
 42
0.015211
  0
VERTEX
  8
0
 10
352.968206
 20
284.372598
 42
0.013815
  0
VERTEX
  8
0
 10
372.676668
 20
278.528789
 42
0.065249
  0
VERTEX
  8
0
 10
384.341862
 20
277.000000
 42
0.048180
  0
VERTEX
  8
0
 10
388.462996
 20
277.398037
 42
0.051906
  0
VERTEX
  8
0
 10
392.324951
 20
278.577004
 42
0.056675
  0
VERTEX
  8
0
 10
395.528075
 20
280.382345
 42
0.091325
  0
VERTEX
  8
0
 10
397.684598
 20
282.641388
 42
0.127892
  0
VERTEX
  8
0
 10
398.901074
 20
286.244081
 42
0.032249
  0
VERTEX
  8
0
 10
398.943258
 20
292.484702
 42
0.031842
  0
VERTEX
  8
0
 10
398.190669
 20
298.654544
 42
0.138506
  0
VERTEX
  8
0
 10
396.570563
 20
301.922028
 42
-0.022363
  0
VERTEX
  8
0
 10
395.436790
 20
303.293379
 42
-0.182948
  0
VERTEX
  8
0
 10
395.212971
 20
304.059515
 42
-0.155414
  0
VERTEX
  8
0
 10
395.533058
 20
304.847101
 42
-0.014952
  0
VERTEX
  8
0
 10
396.920217
 20
306.415075
 42
-0.048001
  0
VERTEX
  8
0
 10
398.014227
 20
307.375911
 42
-0.030543
  0
VERTEX
  8
0
 10
399.447885
 20
308.282116
 42
-0.030571
  0
VERTEX
  8
0
 10
400.978344
 20
309.005418
 42
-0.048769
  0
VERTEX
  8
0
 10
402.366654
 20
309.409006
 42
0.088518
  0
VERTEX
  8
0
 10
405.458454
 20
310.579910
 42
0.048149
  0
VERTEX
  8
0
 10
408.738385
 20
312.995668
 42
0.046922
  0
VERTEX
  8
0
 10
411.620602
 20
316.114598
 42
0.064193
  0
VERTEX
  8
0
 10
413.531866
 20
319.422022
 42
0.122538
  0
VERTEX
  8
0
 10
414.360018
 20
324.831311
 42
0.136181
  0
VERTEX
  8
0
 10
412.489747
 20
329.760607
 42
0.113570
  0
VERTEX
  8
0
 10
407.972491
 20
333.653449
 42
0.069042
  0
VERTEX
  8
0
 10
401.312922
 20
336.063674
 42
-0.028279
  0
VERTEX
  8
0
 10
398.580943
 20
336.807821
 42
-0.013029
  0
VERTEX
  8
0
 10
395.115133
 20
338.067176
 42
-0.012857
  0
VERTEX
  8
0
 10
391.529160
 20
339.584569
 42
-0.017392
  0
VERTEX
  8
0
 10
388.376892
 20
341.149472
 42
0.008098
  0
VERTEX
  8
0
 10
385.539878
 20
342.624206
 42
0.010717
  0
VERTEX
  8
0
 10
382.907912
 20
343.868907
 42
0.008288
  0
VERTEX
  8
0
 10
380.683022
 20
344.819397
 42
0.097094
  0
VERTEX
  8
0
 10
379.761750
 20
345.000000
 42
-0.139348
  0
VERTEX
  8
0
 10
377.670314
 20
345.594417
 42
-0.056951
  0
VERTEX
  8
0
 10
375.329188
 20
347.440072
 42
-0.053523
  0
VERTEX
  8
0
 10
373.254526
 20
349.992707
 42
-0.065562
  0
VERTEX
  8
0
 10
371.933506
 20
352.765637
 42
0.065123
  0
VERTEX
  8
0
 10
370.965421
 20
354.802313
 42
0.018416
  0
VERTEX
  8
0
 10
368.947623
 20
357.685634
 42
0.016904
  0
VERTEX
  8
0
 10
366.244464
 20
361.019957
 42
0.011902
  0
VERTEX
  8
0
 10
362.993228
 20
364.588928
 42
-0.011051
  0
VERTEX
  8
0
 10
359.128259
 20
368.817138
 42
-0.025242
  0
VERTEX
  8
0
 10
356.452443
 20
372.208726
 42
-0.031709
  0
VERTEX
  8
0
 10
354.532260
 20
375.311996
 42
-0.033134
  0
VERTEX
  8
0
 10
353.051306
 20
378.588928
 42
-0.041067
  0
VERTEX
  8
0
 10
351.005046
 20
385.810154
 42
-0.016636
  0
VERTEX
  8
0
 10
349.366069
 20
395.916647
 42
-0.016547
  0
VERTEX
  8
0
 10
348.339542
 20
406.757188
 42
-0.023052
  0
VERTEX
  8
0
 10
348.191194
 20
416.500000
 42
0.004822
  0
VERTEX
  8
0
 10
348.306750
 20
421.942792
 42
0.032548
  0
VERTEX
  8
0
 10
348.162622
 20
424.634801
 42
0.082828
  0
VERTEX
  8
0
 10
347.757272
 20
426.024342
 42
0.288009
  0
VERTEX
  8
0
 10
347.000000
 20
426.500000
 42
0.161471
  0
VERTEX
  8
0
 10
346.307286
 20
426.270304
 42
0.044365
  0
VERTEX
  8
0
 10
345.438735
 20
425.494538
 42
0.039979
  0
VERTEX
  8
0
 10
344.555760
 20
424.387279
 42
0.032583
  0
VERTEX
  8
0
 10
343.791438
 20
423.077152
 42
-0.033553
  0
VERTEX
  8
0
 10
341.927484
 20
419.896329
 42
-0.081750
  0
VERTEX
  8
0
 10
340.060513
 20
417.933127
 42
-0.063049
  0
VERTEX
  8
0
 10
337.374978
 20
416.390326
 42
-0.014079
  0
VERTEX
  8
0
 10
332.430888
 20
414.487694
 42
-0.056856
  0
VERTEX
  8
0
 10
323.083332
 20
412.342227
 42
-0.088284
  0
VERTEX
  8
0
 10
314.847793
 20
412.870745
 42
-0.095436
  0
VERTEX
  8
0
 10
307.753794
 20
416.128437
 42
-0.077278
  0
VERTEX
  8
0
 10
301.759274
 20
422.000000
 42
0.022001
  0
VERTEX
  8
0
 10
298.440214
 20
426.058481
 42
0.332722
  0
VERTEX
  8
0
 10
296.760414
 20
426.397063
 42
0.269325
  0
VERTEX
  8
0
 10
295.684580
 20
424.828316
 42
0.016888
  0
VERTEX
  8
0
 10
295.444389
 20
419.000000
 42
-0.014476
  0
VERTEX
  8
0
 10
295.281030
 20
414.509812
 42
-0.051661
  0
VERTEX
  8
0
 10
294.799362
 20
411.679132
 42
-0.052071
  0
VERTEX
  8
0
 10
293.749611
 20
409.018686
 42
-0.014871
  0
VERTEX
  8
0
 10
291.582032
 20
405.140027
 42
-0.009245
  0
VERTEX
  8
0
 10
289.919580
 20
402.475601
 42
-0.007897
  0
VERTEX
  8
0
 10
288.072136
 20
399.729011
 42
-0.007977
  0
VERTEX
  8
0
 10
286.312844
 20
397.284750
 42
-0.022351
  0
VERTEX
  8
0
 10
284.979096
 20
395.650574
 42
0.000000
  0
VERTEX
  8
0
 10
282.182907
 20
392.521096
 42
0.000000
  0
VERTEX
  8
0
 10
276.256431
 20
398.173996
 42
0.026014
  0
VERTEX
  8
0
 10
270.122344
 20
403.443860
 42
0.021130
  0
VERTEX
  8
0
 10
263.043855
 20
408.449210
 42
0.018380
  0
VERTEX
  8
0
 10
254.621876
 20
413.457373
 42
0.011369
  0
VERTEX
  8
0
 10
244.390366
 20
418.744889
 42
0.006694
  0
VERTEX
  8
0
 10
237.606597
 20
421.945707
 42
0.028757
  0
VERTEX
  8
0
 10
233.443573
 20
423.560281
 42
0.040953
  0
VERTEX
  8
0
 10
229.878089
 20
424.397444
 42
0.025015
  0
VERTEX
  8
0
 10
225.573862
 20
424.823821
 42
0.033112
  0
VERTEX
  8
0
 10
218.287102
 20
424.696422
 42
0.122795
  0
VERTEX
  8
0
 10
213.969929
 20
423.227088
 42
0.244241
  0
VERTEX
  8
0
 10
212.454765
 20
420.576362
 42
0.144427
  0
VERTEX
  8
0
 10
213.366115
 20
416.957363
 42
-0.026776
  0
VERTEX
  8
0
 10
214.010431
 20
415.719822
 42
-0.060122
  0
VERTEX
  8
0
 10
214.329303
 20
414.711839
 42
-0.093453
  0
VERTEX
  8
0
 10
214.329244
 20
413.966063
 42
-0.210734
  0
VERTEX
  8
0
 10
214.015877
 20
413.509813
 42
0.144369
  0
VERTEX
  8
0
 10
213.624344
 20
413.072713
 42
0.041085
  0
VERTEX
  8
0
 10
213.298414
 20
412.210950
 42
0.037703
  0
VERTEX
  8
0
 10
213.074814
 20
411.130613
 42
0.032191
  0
VERTEX
  8
0
 10
213.000000
 20
409.969808
 42
0.103828
  0
VERTEX
  8
0
 10
213.379001
 20
408.164351
 42
0.070730
  0
VERTEX
  8
0
 10
214.488284
 20
406.375424
 42
0.038029
  0
VERTEX
  8
0
 10
216.679397
 20
404.126155
 42
0.007824
  0
VERTEX
  8
0
 10
220.893698
 20
400.527035
 42
-0.010723
  0
VERTEX
  8
0
 10
225.306300
 20
396.714099
 42
-0.027647
  0
VERTEX
  8
0
 10
228.271516
 20
393.725355
 42
-0.036169
  0
VERTEX
  8
0
 10
229.968617
 20
391.510725
 42
-0.409560
  0
VERTEX
  8
0
 10
229.773539
 20
390.527620
 42
-0.083459
  0
VERTEX
  8
0
 10
229.541234
 20
390.420817
 42
-0.000380
  0
VERTEX
  8
0
 10
226.936602
 20
389.717756
 42
-0.001793
  0
VERTEX
  8
0
 10
223.969733
 20
388.930735
 42
-0.001130
  0
VERTEX
  8
0
 10
220.500000
 20
388.032000
 42
0.006446
  0
VERTEX
  8
0
 10
216.453693
 20
386.937885
 42
0.003956
  0
VERTEX
  8
0
 10
211.713214
 20
385.549622
 42
0.003965
  0
VERTEX
  8
0
 10
207.042972
 20
384.101214
 42
0.007060
  0
VERTEX
  8
0
 10
203.225836
 20
382.824473
 42
0.000000
  0
VERTEX
  8
0
 10
194.951673
 20
379.926442
 42
0.000000
  0
VERTEX
  8
0
 10
186.458858
 20
383.906309
 42
-0.026903
  0
VERTEX
  8
0
 10
176.692432
 20
389.140958
 42
-0.026981
  0
VERTEX
  8
0
 10
167.554406
 20
395.389395
 42
-0.022766
  0
VERTEX
  8
0
 10
157.908809
 20
403.501133
 42
-0.011538
  0
VERTEX
  8
0
 10
146.491712
 20
414.524036
 42
0.005581
  0
VERTEX
  8
0
 10
135.231334
 20
425.657849
 42
0.040736
  0
VERTEX
  8
0
 10
129.367888
 20
430.469203
 42
0.093996
  0
VERTEX
  8
0
 10
125.077161
 20
432.376522
 42
0.122668
  0
SEQEND
  0
POLYLINE
  8
0
 66
1
 70
1
  0
VERTEX
  8
0
 10
156.771097
 20
394.767128
 42
0.010013
  0
VERTEX
  8
0
 10
162.301821
 20
390.391630
 42
0.009841
  0
VERTEX
  8
0
 10
168.034812
 20
386.215137
 42
0.010347
  0
VERTEX
  8
0
 10
173.401613
 20
382.627785
 42
0.021600
  0
VERTEX
  8
0
 10
177.750000
 20
380.107146
 42
-0.047912
  0
VERTEX
  8
0
 10
179.550340
 20
378.933031
 42
-0.294526
  0
VERTEX
  8
0
 10
179.886671
 20
377.932538
 42
-0.291125
  0
VERTEX
  8
0
 10
179.113492
 20
377.204045
 42
-0.047300
  0
VERTEX
  8
0
 10
176.961387
 20
377.000000
 42
-0.094946
  0
VERTEX
  8
0
 10
175.042523
 20
377.367692
 42
-0.033868
  0
VERTEX
  8
0
 10
172.515588
 20
378.577014
 42
-0.023931
  0
VERTEX
  8
0
 10
169.213475
 20
380.656132
 42
-0.008591
  0
VERTEX
  8
0
 10
164.711387
 20
383.917748
 42
-0.012564
  0
VERTEX
  8
0
 10
157.057034
 20
389.972809
 42
-0.017879
  0
VERTEX
  8
0
 10
150.596130
 20
395.756492
 42
-0.018432
  0
VERTEX
  8
0
 10
144.715429
 20
401.845018
 42
-0.014715
  0
VERTEX
  8
0
 10
138.823795
 20
408.815039
 42
-0.001480
  0
VERTEX
  8
0
 10
132.257236
 20
417.114397
 42
-0.297621
  0
VERTEX
  8
0
 10
132.169170
 20
418.114222
 42
-0.510250
  0
VERTEX
  8
0
 10
132.864419
 20
418.209701
 42
-0.001642
  0
VERTEX
  8
0
 10
139.894297
 20
410.818692
 42
0.007762
  0
VERTEX
  8
0
 10
143.961205
 20
406.646343
 42
0.005582
  0
VERTEX
  8
0
 10
148.625365
 20
402.110005
 42
0.005639
  0
VERTEX
  8
0
 10
153.161315
 20
397.892248
 42
0.012115
  0
SEQEND
  0
POLYLINE
  8
0
 66
1
 70
1
  0
VERTEX
  8
0
 10
239.201791
 20
407.228967
 42
-0.023894
  0
VERTEX
  8
0
 10
245.298287
 20
403.990074
 42
-0.018652
  0
VERTEX
  8
0
 10
251.598539
 20
399.921249
 42
-0.011355
  0
VERTEX
  8
0
 10
257.113805
 20
395.870846
 42
-0.232732
  0
VERTEX
  8
0
 10
258.000000
 20
394.070071
 42
-0.357795
  0
VERTEX
  8
0
 10
257.691387
 20
393.694010
 42
-0.007715
  0
VERTEX
  8
0
 10
255.181907
 20
393.234873
 42
-0.014090
  0
VERTEX
  8
0
 10
252.084605
 20
392.806755
 42
-0.008586
  0
VERTEX
  8
0
 10
248.406491
 20
392.467395
 42
0.000000
  0
VERTEX
  8
0
 10
238.812983
 20
391.748140
 42
0.000000
  0
VERTEX
  8
0
 10
234.511684
 20
396.665170
 42
0.015511
  0
VERTEX
  8
0
 10
232.565085
 20
398.755862
 42
0.011125
  0
VERTEX
  8
0
 10
230.267992
 20
400.973513
 42
0.011252
  0
VERTEX
  8
0
 10
227.984179
 20
402.988936
 42
0.023639
  0
VERTEX
  8
0
 10
226.105193
 20
404.427101
 42
-0.023043
  0
VERTEX
  8
0
 10
223.420385
 20
406.476973
 42
-0.114462
  0
VERTEX
  8
0
 10
222.287060
 20
407.984313
 42
-0.202678
  0
VERTEX
  8
0
 10
222.263775
 20
409.367988
 42
-0.098253
  0
VERTEX
  8
0
 10
223.250000
 20
410.876615
 42
-0.193476
  0
VERTEX
  8
0
 10
225.201223
 20
411.733278
 42
-0.064156
  0
VERTEX
  8
0
 10
228.371465
 20
411.425867
 42
-0.040427
  0
VERTEX
  8
0
 10
232.875961
 20
410.004712
 42
-0.013538
  0
SEQEND
  0
POLYLINE
  8
0
 66
1
 70
1
  0
VERTEX
  8
0
 10
340.952220
 20
374.656229
 42
-0.015890
  0
VERTEX
  8
0
 10
341.369643
 20
373.143879
 42
-0.022866
  0
VERTEX
  8
0
 10
341.634351
 20
371.780737
 42
-0.019923
  0
VERTEX
  8
0
 10
341.752295
 20
370.674725
 42
-0.216227
  0
VERTEX
  8
0
 10
341.598291
 20
370.264957
 42
-0.337241
  0
VERTEX
  8
0
 10
341.189069
 20
370.209428
 42
-0.014021
  0
VERTEX
  8
0
 10
339.845870
 20
371.021346
 42
-0.019351
  0
VERTEX
  8
0
 10
338.223255
 20
372.156468
 42
-0.011935
  0
VERTEX
  8
0
 10
336.401432
 20
373.608728
 42
0.004010
  0
VERTEX
  8
0
 10
334.310175
 20
375.330673
 42
0.002586
  0
VERTEX
  8
0
 10
331.860969
 20
377.293721
 42
0.002599
  0
VERTEX
  8
0
 10
329.445785
 20
379.188707
 42
0.004895
  0
VERTEX
  8
0
 10
327.473422
 20
380.689044
 42
-0.017987
  0
VERTEX
  8
0
 10
325.651600
 20
382.151709
 42
-0.012790
  0
VERTEX
  8
0
 10
323.714032
 20
383.913899
 42
-0.012936
  0
VERTEX
  8
0
 10
321.949481
 20
385.692916
 42
-0.026658
  0
VERTEX
  8
0
 10
320.683819
 20
387.189044
 42
-0.034092
  0
VERTEX
  8
0
 10
318.295309
 20
390.829253
 42
-0.008121
  0
VERTEX
  8
0
 10
314.843460
 20
397.203993
 42
-0.004407
  0
VERTEX
  8
0
 10
311.455375
 20
403.853650
 42
-0.116122
  0
VERTEX
  8
0
 10
311.000000
 20
405.787979
 42
-0.372526
  0
VERTEX
  8
0
 10
311.331697
 20
406.171396
 42
-0.010310
  0
VERTEX
  8
0
 10
313.686166
 20
406.464329
 42
-0.016201
  0
VERTEX
  8
0
 10
316.663121
 20
406.675334
 42
-0.009385
  0
VERTEX
  8
0
 10
320.250000
 20
406.745618
 42
0.013101
  0
VERTEX
  8
0
 10
324.165208
 20
406.851450
 42
0.012565
  0
VERTEX
  8
0
 10
328.124580
 20
407.162322
 42
0.012869
  0
VERTEX
  8
0
 10
331.630071
 20
407.617843
 42
0.037714
  0
VERTEX
  8
0
 10
334.000000
 20
408.173625
 42
0.000000
  0
VERTEX
  8
0
 10
338.500000
 20
409.594011
 42
0.000000
  0
VERTEX
  8
0
 10
339.129324
 20
394.047005
 42
0.006086
  0
VERTEX
  8
0
 10
339.457732
 20
387.812728
 42
0.007233
  0
VERTEX
  8
0
 10
339.924396
 20
381.937825
 42
0.006367
  0
VERTEX
  8
0
 10
340.451896
 20
377.001977
 42
0.045501
  0
SEQEND
  0
POLYLINE
  8
0
 66
1
 70
1
  0
VERTEX
  8
0
 10
135.784284
 20
402.411761
 42
0.017805
  0
VERTEX
  8
0
 10
140.275029
 20
397.108403
 42
0.009586
  0
VERTEX
  8
0
 10
146.161243
 20
390.882938
 42
0.009544
  0
VERTEX
  8
0
 10
152.397368
 20
384.773429
 42
0.015048
  0
VERTEX
  8
0
 10
158.000000
 20
379.800139
 42
-0.015590
  0
VERTEX
  8
0
 10
160.048871
 20
377.977445
 42
-0.025988
  0
VERTEX
  8
0
 10
161.640284
 20
376.305115
 42
-0.024214
  0
VERTEX
  8
0
 10
162.714724
 20
374.921364
 42
-0.360511
  0
VERTEX
  8
0
 10
162.669050
 20
374.353139
 42
-0.168992
  0
VERTEX
  8
0
 10
161.964993
 20
374.001018
 42
-0.006159
  0
VERTEX
  8
0
 10
158.948159
 20
373.647610
 42
-0.010653
  0
VERTEX
  8
0
 10
155.317462
 20
373.345601
 42
-0.007208
  0
VERTEX
  8
0
 10
151.169050
 20
373.149362
 42
-0.018318
  0
VERTEX
  8
0
 10
143.757043
 20
373.177368
 42
-0.022495
  0
VERTEX
  8
0
 10
136.862137
 20
373.767575
 42
-0.022364
  0
VERTEX
  8
0
 10
131.207973
 20
374.767838
 42
-0.115271
  0
VERTEX
  8
0
 10
128.363469
 20
376.139594
 42
-0.147237
  0
VERTEX
  8
0
 10
127.881674
 20
376.844513
 42
-0.016682
  0
VERTEX
  8
0
 10
127.353132
 20
378.726311
 42
-0.019047
  0
VERTEX
  8
0
 10
126.873755
 20
381.062729
 42
-0.014400
  0
VERTEX
  8
0
 10
126.520004
 20
383.657802
 42
-0.014297
  0
VERTEX
  8
0
 10
126.246559
 20
387.152206
 42
-0.036541
  0
VERTEX
  8
0
 10
126.306310
 20
389.689295
 42
-0.045521
  0
VERTEX
  8
0
 10
126.714928
 20
391.842117
 42
-0.036286
  0
VERTEX
  8
0
 10
127.528186
 20
394.062506
 42
0.020683
  0
VERTEX
  8
0
 10
128.499130
 20
396.477491
 42
0.097944
  0
VERTEX
  8
0
 10
128.714507
 20
397.945796
 42
0.086390
  0
VERTEX
  8
0
 10
128.369848
 20
399.472919
 42
0.014130
  0
VERTEX
  8
0
 10
127.121651
 20
402.248702
 42
-0.006043
  0
VERTEX
  8
0
 10
125.419514
 20
405.875981
 42
-0.112496
  0
VERTEX
  8
0
 10
125.166679
 20
407.106700
 42
-0.302535
  0
VERTEX
  8
0
 10
125.644934
 20
407.792446
 42
-0.052280
  0
VERTEX
  8
0
 10
127.250000
 20
408.236272
 42
-0.069746
  0
VERTEX
  8
0
 10
129.361515
 20
408.291277
 42
-0.122013
  0
VERTEX
  8
0
 10
130.991834
 20
407.684965
 42
-0.066319
  0
VERTEX
  8
0
 10
132.759887
 20
406.098503
 42
-0.010006
  0
SEQEND
  0
POLYLINE
  8
0
 66
1
 70
1
  0
VERTEX
  8
0
 10
300.465326
 20
401.750000
 42
-0.055266
  0
VERTEX
  8
0
 10
300.764230
 20
400.201040
 42
-0.003221
  0
VERTEX
  8
0
 10
301.119479
 20
395.393895
 42
-0.004853
  0
VERTEX
  8
0
 10
301.450690
 20
389.651913
 42
-0.003550
  0
VERTEX
  8
0
 10
301.711231
 20
383.271769
 42
-0.003169
  0
VERTEX
  8
0
 10
301.963284
 20
374.066516
 42
-0.020371
  0
VERTEX
  8
0
 10
301.871558
 20
369.411135
 42
-0.041739
  0
VERTEX
  8
0
 10
301.454955
 20
366.535415
 42
-0.088415
  0
VERTEX
  8
0
 10
300.573637
 20
364.472040
 42
-0.036843
  0
VERTEX
  8
0
 10
299.675307
 20
363.299356
 42
-0.089438
  0
VERTEX
  8
0
 10
298.820510
 20
362.628996
 42
-0.113870
  0
VERTEX
  8
0
 10
297.921830
 20
362.390036
 42
-0.085320
  0
VERTEX
  8
0
 10
296.904018
 20
362.530464
 42
-0.050927
  0
VERTEX
  8
0
 10
293.745422
 20
363.899899
 42
-0.002861
  0
VERTEX
  8
0
 10
284.444320
 20
369.183265
 42
-0.001427
  0
VERTEX
  8
0
 10
274.705973
 20
374.826021
 42
-0.122915
  0
VERTEX
  8
0
 10
273.497576
 20
376.003922
 42
-0.330221
  0
VERTEX
  8
0
 10
273.542656
 20
376.537293
 42
-0.015306
  0
VERTEX
  8
0
 10
274.860771
 20
377.944207
 42
-0.020299
  0
VERTEX
  8
0
 10
276.652533
 20
379.602628
 42
-0.012582
  0
VERTEX
  8
0
 10
278.880542
 20
381.408079
 42
0.022155
  0
VERTEX
  8
0
 10
283.845029
 20
385.590929
 42
0.021087
  0
VERTEX
  8
0
 10
288.505938
 20
390.263294
 42
0.021868
  0
VERTEX
  8
0
 10
292.561022
 20
395.094572
 42
0.030968
  0
VERTEX
  8
0
 10
295.695834
 20
399.750000
 42
-0.014603
  0
VERTEX
  8
0
 10
297.616603
 20
402.814255
 42
-0.147204
  0
VERTEX
  8
0
 10
298.766802
 20
403.762337
 42
-0.366278
  0
VERTEX
  8
0
 10
299.667890
 20
403.478510
 42
-0.065694
  0
SEQEND
  0
POLYLINE
  8
0
 66
1
 70
1
  0
VERTEX
  8
0
 10
271.000000
 20
392.884990
 42
-0.191165
  0
VERTEX
  8
0
 10
270.747140
 20
392.247791
 42
-0.269625
  0
VERTEX
  8
0
 10
270.174989
 20
392.077970
 42
-0.099769
  0
VERTEX
  8
0
 10
269.198529
 20
392.534184
 42
-0.024907
  0
VERTEX
  8
0
 10
267.828741
 20
393.654988
 42
-0.027386
  0
VERTEX
  8
0
 10
266.230479
 20
395.269067
 42
-0.279829
  0
VERTEX
  8
0
 10
266.068978
 20
396.156510
 42
-0.436974
  0
VERTEX
  8
0
 10
266.709145
 20
396.413072
 42
-0.034332
  0
VERTEX
  8
0
 10
268.500000
 20
395.408043
 42
-0.022966
  0
VERTEX
  8
0
 10
269.457217
 20
394.716021
 42
-0.029533
  0
VERTEX
  8
0
 10
270.265625
 20
393.991195
 42
-0.030100
  0
VERTEX
  8
0
 10
270.848225
 20
393.327776
 42
-0.166628
  0
SEQEND
  0
POLYLINE
  8
0
 66
1
 70
1
  0
VERTEX
  8
0
 10
79.398534
 20
388.513559
 42
-0.008737
  0
VERTEX
  8
0
 10
87.619936
 20
386.083859
 42
-0.018998
  0
VERTEX
  8
0
 10
93.816978
 20
383.872058
 42
-0.016902
  0
VERTEX
  8
0
 10
100.255482
 20
381.038303
 42
-0.005610
  0
VERTEX
  8
0
 10
109.500000
 20
376.462323
 42
0.031019
  0
VERTEX
  8
0
 10
125.659696
 20
369.461134
 42
0.054849
  0
VERTEX
  8
0
 10
139.768037
 20
366.049953
 42
0.053779
  0
VERTEX
  8
0
 10
154.470089
 20
365.753105
 42
0.028627
  0
VERTEX
  8
0
 10
172.500000
 20
368.376826
 42
-0.006642
  0
VERTEX
  8
0
 10
180.090416
 20
369.824504
 42
-0.017907
  0
VERTEX
  8
0
 10
185.526942
 20
370.587119
 42
-0.022232
  0
VERTEX
  8
0
 10
190.284290
 20
370.868601
 42
-0.016642
  0
VERTEX
  8
0
 10
195.534288
 20
370.770735
 42
-0.011878
  0
VERTEX
  8
0
 10
199.172543
 20
370.494888
 42
-0.013581
  0
VERTEX
  8
0
 10
202.633723
 20
370.054387
 42
-0.012777
  0
VERTEX
  8
0
 10
205.536892
 20
369.528192
 42
-0.071758
  0
VERTEX
  8
0
 10
207.016131
 20
368.991367
 42
0.081175
  0
VERTEX
  8
0
 10
210.369111
 20
367.845126
 42
0.031621
  0
VERTEX
  8
0
 10
215.256401
 20
367.334089
 42
0.025189
  0
VERTEX
  8
0
 10
219.922825
 20
367.377969
 42
0.294230
  0
VERTEX
  8
0
 10
221.325126
 20
368.404882
 42
0.192154
  0
VERTEX
  8
0
 10
221.302141
 20
370.136565
 42
0.076197
  0
VERTEX
  8
0
 10
220.046597
 20
372.207335
 42
0.063586
  0
VERTEX
  8
0
 10
217.902237
 20
374.191611
 42
0.056024
  0
VERTEX
  8
0
 10
215.237712
 20
375.674038
 42
-0.020651
  0
VERTEX
  8
0
 10
213.675008
 20
376.404154
 42
-0.080149
  0
VERTEX
  8
0
 10
212.819526
 20
377.038877
 42
-0.184770
  0
VERTEX
  8
0
 10
212.567608
 20
377.623129
 42
-0.209766
  0
VERTEX
  8
0
 10
212.787856
 20
378.187856
 42
-0.135640
  0
VERTEX
  8
0
 10
215.241447
 20
379.578922
 42
-0.006767
  0
VERTEX
  8
0
 10
224.327305
 20
381.731211
 42
-0.011927
  0
VERTEX
  8
0
 10
233.752426
 20
383.594808
 42
-0.023507
  0
VERTEX
  8
0
 10
241.326289
 20
384.541500
 42
0.000000
  0
VERTEX
  8
0
 10
249.500000
 20
385.174953
 42
0.000000
  0
VERTEX
  8
0
 10
251.500000
 20
381.888295
 42
-0.001262
  0
VERTEX
  8
0
 10
252.353429
 20
380.477828
 42
-0.001015
  0
VERTEX
  8
0
 10
253.264163
 20
378.957060
 42
-0.001026
  0
VERTEX
  8
0
 10
254.099818
 20
377.548652
 42
-0.002629
  0
VERTEX
  8
0
 10
254.697151
 20
376.524932
 42
-0.077567
  0
VERTEX
  8
0
 10
255.201787
 20
375.216545
 42
-0.011361
  0
VERTEX
  8
0
 10
255.742146
 20
372.415440
 42
-0.012607
  0
VERTEX
  8
0
 10
256.225711
 20
369.048255
 42
-0.010520
  0
VERTEX
  8
0
 10
256.573473
 20
365.451396
 42
-0.006771
  0
VERTEX
  8
0
 10
256.859541
 20
360.828806
 42
-0.029371
  0
VERTEX
  8
0
 10
256.830814
 20
358.082623
 42
-0.051805
  0
VERTEX
  8
0
 10
256.529888
 20
356.357533
 42
-0.160517
  0
VERTEX
  8
0
 10
255.876322
 20
355.390932
 42
-0.095619
  0
VERTEX
  8
0
 10
254.930961
 20
354.913949
 42
-0.010347
  0
VERTEX
  8
0
 10
252.554295
 20
354.292051
 42
-0.012395
  0
VERTEX
  8
0
 10
249.664192
 20
353.674696
 42
-0.009693
  0
VERTEX
  8
0
 10
246.500000
 20
353.143674
 42
0.045592
  0
VERTEX
  8
0
 10
228.757395
 20
348.839213
 42
0.046744
  0
VERTEX
  8
0
 10
212.244916
 20
341.414658
 42
0.049347
  0
VERTEX
  8
0
 10
198.268254
 20
331.550445
 42
0.067211
  0
VERTEX
  8
0
 10
188.068470
 20
320.000000
 42
0.036974
  0
VERTEX
  8
0
 10
182.170516
 20
309.584457
 42
0.047178
  0
VERTEX
  8
0
 10
178.419550
 20
299.213583
 42
0.044646
  0
VERTEX
  8
0
 10
176.548255
 20
287.872301
 42
0.028493
  0
VERTEX
  8
0
 10
176.316619
 20
274.500000
 42
0.007452
  0
VERTEX
  8
0
 10
176.695984
 20
267.552991
 42
0.020027
  0
VERTEX
  8
0
 10
177.236770
 20
262.634340
 42
0.025412
  0
VERTEX
  8
0
 10
178.076591
 20
258.499184
 42
0.020955
  0
VERTEX
  8
0
 10
179.376858
 20
254.190447
 42
0.051242
  0
VERTEX
  8
0
 10
185.639979
 20
240.795836
 42
0.060119
  0
VERTEX
  8
0
 10
194.229019
 20
229.725979
 42
0.059021
  0
VERTEX
  8
0
 10
205.348481
 20
220.863393
 42
0.046774
  0
VERTEX
  8
0
 10
219.118249
 20
214.014644
 42
0.032512
  0
VERTEX
  8
0
 10
231.772420
 20
210.057714
 42
0.029928
  0
VERTEX
  8
0
 10
245.187416
 20
207.641182
 42
0.021899
  0
VERTEX
  8
0
 10
262.123505
 20
206.375474
 42
0.007701
  0
VERTEX
  8
0
 10
286.500000
 20
206.000000
 42
-0.005644
  0
VERTEX
  8
0
 10
309.473346
 20
205.740654
 42
-0.022358
  0
VERTEX
  8
0
 10
323.560409
 20
204.791359
 42
-0.032971
  0
VERTEX
  8
0
 10
334.543651
 20
202.816417
 42
-0.026666
  0
VERTEX
  8
0
 10
346.000000
 20
199.308304
 42
-0.014263
  0
VERTEX
  8
0
 10
359.538342
 20
193.916727
 42
-0.031688
  0
VERTEX
  8
0
 10
369.427364
 20
188.882586
 42
-0.040107
  0
VERTEX
  8
0
 10
377.012350
 20
183.531489
 42
-0.045353
  0
VERTEX
  8
0
 10
383.312071
 20
177.234118
 42
-0.080656
  0
VERTEX
  8
0
 10
390.862556
 20
164.464227
 42
-0.065511
  0
VERTEX
  8
0
 10
394.680847
 20
149.007219
 42
-0.064768
  0
VERTEX
  8
0
 10
394.390837
 20
132.907737
 42
-0.074971
  0
VERTEX
  8
0
 10
389.906149
 20
118.255929
 42
-0.060524
  0
VERTEX
  8
0
 10
386.046062
 20
112.201622
 42
-0.034478
  0
VERTEX
  8
0
 10
380.074155
 20
105.885849
 42
-0.033667
  0
VERTEX
  8
0
 10
373.014931
 20
100.210668
 42
-0.043670
  0
VERTEX
  8
0
 10
365.822603
 20
96.068289
 42
-0.052393
  0
VERTEX
  8
0
 10
349.895450
 20
90.602711
 42
-0.068526
  0
VERTEX
  8
0
 10
334.579361
 20
89.235339
 42
-0.062076
  0
VERTEX
  8
0
 10
318.331289
 20
92.054408
 42
-0.034402
  0
VERTEX
  8
0
 10
299.500000
 20
99.240811
 42
0.008100
  0
VERTEX
  8
0
 10
283.358859
 20
106.393695
 42
0.013187
  0
VERTEX
  8
0
 10
269.411984
 20
111.876588
 42
0.014855
  0
VERTEX
  8
0
 10
256.522970
 20
116.126232
 42
0.015697
  0
VERTEX
  8
0
 10
243.637585
 20
119.517994
 42
0.036564
  0
VERTEX
  8
0
 10
233.520389
 20
121.077083
 42
0.006295
  0
VERTEX
  8
0
 10
214.142198
 20
122.381550
 42
0.006995
  0
VERTEX
  8
0
 10
194.533581
 20
123.178796
 42
0.024709
  0
VERTEX
  8
0
 10
181.933761
 20
122.891939
 42
0.021165
  0
VERTEX
  8
0
 10
174.331574
 20
122.017701
 42
0.010544
  0
VERTEX
  8
0
 10
164.790862
 20
120.302216
 42
0.010309
  0
VERTEX
  8
0
 10
155.595948
 20
118.249819
 42
0.029707
  0
VERTEX
  8
0
 10
149.357103
 20
116.322484
 42
-0.009835
  0
VERTEX
  8
0
 10
148.282425
 20
115.943113
 42
-0.357139
  0
VERTEX
  8
0
 10
148.054087
 20
116.030722
 42
-0.300583
  0
VERTEX
  8
0
 10
148.071566
 20
116.296850
 42
-0.008240
  0
VERTEX
  8
0
 10
148.824893
 20
117.255473
 42
-0.103989
  0
VERTEX
  8
0
 10
151.816841
 20
119.680075
 42
-0.009842
  0
VERTEX
  8
0
 10
160.340775
 20
123.840996
 42
-0.013651
  0
VERTEX
  8
0
 10
169.593477
 20
127.831042
 42
-0.023705
  0
VERTEX
  8
0
 10
177.500000
 20
130.560747
 42
-0.015932
  0
VERTEX
  8
0
 10
182.347927
 20
131.815015
 42
-0.017365
  0
VERTEX
  8
0
 10
187.129167
 20
132.717613
 42
-0.016052
  0
VERTEX
  8
0
 10
192.277382
 20
133.337112
 42
-0.010468
  0
VERTEX
  8
0
 10
198.249655
 20
133.736178
 42
-0.030206
  0
VERTEX
  8
0
 10
211.716057
 20
133.539422
 42
-0.029825
  0
VERTEX
  8
0
 10
225.118907
 20
131.723934
 42
-0.021370
  0
VERTEX
  8
0
 10
241.592872
 20
127.744790
 42
-0.006900
  0
VERTEX
  8
0
 10
265.629724
 20
120.479231
 42
0.006854
  0
VERTEX
  8
0
 10
282.281768
 20
115.444187
 42
0.015977
  0
VERTEX
  8
0
 10
294.909927
 20
112.246984
 42
0.020117
  0
VERTEX
  8
0
 10
305.728565
 20
110.325332
 42
0.020962
  0
VERTEX
  8
0
 10
316.519121
 20
109.311895
 42
0.020558
  0
VERTEX
  8
0
 10
326.311495
 20
109.207933
 42
0.032887
  0
VERTEX
  8
0
 10
334.632520
 20
110.011264
 42
0.036989
  0
VERTEX
  8
0
 10
342.014859
 20
111.786099
 42
0.038516
  0
VERTEX
  8
0
 10
348.951743
 20
114.612247
 42
0.076109
  0
VERTEX
  8
0
 10
359.007210
 20
121.727326
 42
0.089559
  0
VERTEX
  8
0
 10
365.819646
 20
131.180908
 42
0.093040
  0
VERTEX
  8
0
 10
368.730805
 20
142.113523
 42
0.089641
  0
VERTEX
  8
0
 10
367.540023
 20
153.510322
 42
0.054962
  0
VERTEX
  8
0
 10
364.473157
 20
160.913889
 42
0.056754
  0
VERTEX
  8
0
 10
359.893356
 20
167.384630
 42
0.049276
  0
VERTEX
  8
0
 10
353.390875
 20
173.358036
 42
0.028032
  0
VERTEX
  8
0
 10
344.500000
 20
179.291590
 42
0.056999
  0
VERTEX
  8
0
 10
331.410396
 20
185.114590
 42
0.045501
  0
VERTEX
  8
0
 10
316.306083
 20
188.393306
 42
0.031067
  0
VERTEX
  8
0
 10
296.118241
 20
189.620247
 42
0.009897
  0
VERTEX
  8
0
 10
266.000000
 20
188.981447
 42
-0.009309
  0
VERTEX
  8
0
 10
239.261708
 20
188.382869
 42
-0.027731
  0
VERTEX
  8
0
 10
220.974879
 20
189.328807
 42
-0.037645
  0
VERTEX
  8
0
 10
206.291548
 20
192.036894
 42
-0.034840
  0
VERTEX
  8
0
 10
191.781710
 20
196.962950
 42
-0.055756
  0
VERTEX
  8
0
 10
178.987842
 20
204.091379
 42
-0.048958
  0
VERTEX
  8
0
 10
167.460015
 20
214.152603
 42
-0.048107
  0
VERTEX
  8
0
 10
157.923806
 20
226.458957
 42
-0.049624
  0
VERTEX
  8
0
 10
151.029449
 20
240.237554
 42
0.000000
  0
VERTEX
  8
0
 10
147.920408
 20
248.379306
 42
0.000000
  0
VERTEX
  8
0
 10
149.917802
 20
254.955291
 42
-0.030480
  0
VERTEX
  8
0
 10
153.022699
 20
263.309745
 42
-0.013535
  0
VERTEX
  8
0
 10
158.072808
 20
273.930927
 42
-0.013582
  0
VERTEX
  8
0
 10
163.801756
 20
284.466048
 42
-0.025018
  0
VERTEX
  8
0
 10
169.108367
 20
292.650111
 42
0.021792
  0
VERTEX
  8
0
 10
174.389254
 20
300.680589
 42
0.032255
  0
VERTEX
  8
0
 10
178.232005
 20
308.177886
 42
0.030210
  0
VERTEX
  8
0
 10
181.245648
 20
316.465979
 42
0.016278
  0
VERTEX
  8
0
 10
183.996472
 20
326.984461
 42
-0.007195
  0
VERTEX
  8
0
 10
185.268027
 20
332.234346
 42
-0.007484
  0
VERTEX
  8
0
 10
186.674530
 20
337.376656
 42
-0.007249
  0
VERTEX
  8
0
 10
188.021156
 20
341.785286
 42
-0.032125
  0
VERTEX
  8
0
 10
189.014311
 20
344.307060
 42
-0.038264
  0
VERTEX
  8
0
 10
191.557820
 20
348.791959
 42
-0.033497
  0
VERTEX
  8
0
 10
194.860361
 20
353.052875
 42
-0.035005
  0
VERTEX
  8
0
 10
198.394533
 20
356.510750
 42
-0.077335
  0
VERTEX
  8
0
 10
201.603426
 20
358.478767
 42
0.035789
  0
VERTEX
  8
0
 10
202.903400
 20
359.134744
 42
0.044146
  0
VERTEX
  8
0
 10
204.002256
 20
359.931080
 42
0.050153
  0
VERTEX
  8
0
 10
204.766635
 20
360.743026
 42
0.165232
  0
VERTEX
  8
0
 10
205.000000
 20
361.429921
 42
0.375396
  0
VERTEX
  8
0
 10
203.000252
 20
363.718092
 42
0.053630
  0
VERTEX
  8
0
 10
196.246180
 20
363.901640
 42
0.038671
  0
VERTEX
  8
0
 10
186.467871
 20
362.350788
 42
0.019778
  0
VERTEX
  8
0
 10
174.500000
 20
358.985091
 42
-0.029319
  0
VERTEX
  8
0
 10
160.405871
 20
355.309930
 42
-0.076012
  0
VERTEX
  8
0
 10
149.946815
 20
354.841829
 42
-0.079330
  0
VERTEX
  8
0
 10
140.091249
 20
357.519995
 42
-0.034056
  0
VERTEX
  8
0
 10
128.038533
 20
363.975839
 42
0.010052
  0
VERTEX
  8
0
 10
120.813828
 20
368.303875
 42
0.035598
  0
VERTEX
  8
0
 10
115.946411
 20
370.645861
 42
0.033188
  0
VERTEX
  8
0
 10
110.628520
 20
372.354841
 42
0.007915
  0
VERTEX
  8
0
 10
101.574477
 20
374.462929
 42
-0.020935
  0
VERTEX
  8
0
 10
92.278553
 20
376.884095
 42
-0.033900
  0
VERTEX
  8
0
 10
84.648791
 20
379.794636
 42
-0.035561
  0
VERTEX
  8
0
 10
77.743675
 20
383.596543
 42
-0.026229
  0
VERTEX
  8
0
 10
70.673275
 20
388.717490
 42
-0.067146
  0
VERTEX
  8
0
 10
69.240013
 20
390.233272
 42
-0.619140
  0
VERTEX
  8
0
 10
69.560054
 20
390.839968
 42
-0.058195
  0
VERTEX
  8
0
 10
72.058565
 20
390.488824
 42
-0.003499
  0
SEQEND
  0
POLYLINE
  8
0
 66
1
 70
1
  0
VERTEX
  8
0
 10
313.883713
 20
384.960415
 42
0.031079
  0
VERTEX
  8
0
 10
315.646138
 20
382.681086
 42
0.014048
  0
VERTEX
  8
0
 10
318.216995
 20
379.912758
 42
0.013847
  0
VERTEX
  8
0
 10
321.102720
 20
377.133650
 42
0.018406
  0
VERTEX
  8
0
 10
323.883713
 20
374.781348
 42
-0.004773
  0
VERTEX
  8
0
 10
326.651227
 20
372.566987
 42
-0.004208
  0
VERTEX
  8
0
 10
329.495524
 20
370.206160
 42
-0.004230
  0
VERTEX
  8
0
 10
332.024158
 20
368.034233
 42
-0.012756
  0
VERTEX
  8
0
 10
333.696794
 20
366.495802
 42
0.027762
  0
VERTEX
  8
0
 10
335.375367
 20
365.042396
 42
0.010212
  0
VERTEX
  8
0
 10
337.894651
 20
363.175690
 42
0.010086
  0
VERTEX
  8
0
 10
340.735215
 20
361.244428
 42
0.011936
  0
VERTEX
  8
0
 10
343.498257
 20
359.538753
 42
-0.012516
  0
VERTEX
  8
0
 10
346.096104
 20
357.930897
 42
-0.015272
  0
VERTEX
  8
0
 10
348.439514
 20
356.293788
 42
-0.013831
  0
VERTEX
  8
0
 10
350.311867
 20
354.816528
 42
-0.096233
  0
VERTEX
  8
0
 10
351.044915
 20
353.916076
 42
0.041740
  0
VERTEX
  8
0
 10
352.349643
 20
351.901992
 42
0.062921
  0
VERTEX
  8
0
 10
353.824335
 20
350.422981
 42
0.081321
  0
VERTEX
  8
0
 10
355.278130
 20
349.630845
 42
0.177588
  0
VERTEX
  8
0
 10
356.528939
 20
349.649478
 42
0.280382
  0
VERTEX
  8
0
 10
357.818597
 20
351.319226
 42
0.098949
  0
VERTEX
  8
0
 10
357.546910
 20
354.458930
 42
0.072683
  0
VERTEX
  8
0
 10
355.846900
 20
358.178628
 42
0.065453
  0
VERTEX
  8
0
 10
353.102379
 20
361.407348
 42
-0.040315
  0
VERTEX
  8
0
 10
352.297907
 20
362.262886
 42
-0.037270
  0
VERTEX
  8
0
 10
351.617574
 20
363.258279
 42
-0.039420
  0
VERTEX
  8
0
 10
351.148118
 20
364.239508
 42
-0.092121
  0
VERTEX
  8
0
 10
351.000000
 20
365.036616
 42
-0.650551
  0
VERTEX
  8
0
 10
352.175718
 20
365.557816
 42
-0.016773
  0
VERTEX
  8
0
 10
357.690292
 20
360.212691
 42
-0.019166
  0
VERTEX
  8
0
 10
363.271804
 20
353.964886
 42
-0.071584
  0
VERTEX
  8
0
 10
366.008844
 20
349.479368
 42
-0.014602
  0
VERTEX
  8
0
 10
367.037451
 20
346.872001
 42
-0.071127
  0
VERTEX
  8
0
 10
367.359150
 20
345.321198
 42
-0.096646
  0
VERTEX
  8
0
 10
367.183215
 20
343.977260
 42
-0.039504
  0
VERTEX
  8
0
 10
366.459871
 20
342.275084
 42
0.016833
  0
VERTEX
  8
0
 10
365.905325
 20
341.118632
 42
0.017341
  0
VERTEX
  8
0
 10
365.435729
 20
339.938774
 42
0.017345
  0
VERTEX
  8
0
 10
365.100753
 20
338.890963
 42
0.067585
  0
VERTEX
  8
0
 10
365.006161
 20
338.218615
 42
0.195317
  0
VERTEX
  8
0
 10
365.496868
 20
336.993494
 42
0.168762
  0
VERTEX
  8
0
 10
366.739816
 20
336.362625
 42
0.124636
  0
VERTEX
  8
0
 10
368.432934
 20
336.554233
 42
0.093996
  0
VERTEX
  8
0
 10
370.037245
 20
337.533706
 42
-0.007373
  0
VERTEX
  8
0
 10
371.318135
 20
338.658991
 42
-0.214095
  0
VERTEX
  8
0
 10
371.727236
 20
338.778516
 42
-0.356460
  0
VERTEX
  8
0
 10
371.959752
 20
338.528121
 42
-0.015890
  0
VERTEX
  8
0
 10
372.000000
 20
337.261976
 42
0.121035
  0
VERTEX
  8
0
 10
372.386211
 20
335.689895
 42
0.174487
  0
VERTEX
  8
0
 10
373.430658
 20
334.729487
 42
0.185714
  0
VERTEX
  8
0
 10
374.794533
 20
334.687515
 42
0.136231
  0
VERTEX
  8
0
 10
376.049332
 20
335.559441
 42
-0.068308
  0
VERTEX
  8
0
 10
377.507024
 20
336.894911
 42
-0.311085
  0
VERTEX
  8
0
 10
378.596988
 20
336.897171
 42
-0.229366
  0
VERTEX
  8
0
 10
379.236825
 20
335.776417
 42
-0.046041
  0
VERTEX
  8
0
 10
379.179609
 20
333.412763
 42
0.014088
  0
VERTEX
  8
0
 10
378.988974
 20
331.253158
 42
0.155678
  0
VERTEX
  8
0
 10
379.200117
 20
330.422805
 42
0.251053
  0
VERTEX
  8
0
 10
379.804729
 20
330.075842
 42
0.039856
  0
VERTEX
  8
0
 10
381.217184
 20
330.147417
 42
-0.066856
  0
VERTEX
  8
0
 10
382.306188
 20
330.143919
 42
-0.049073
  0
VERTEX
  8
0
 10
383.482100
 20
329.862635
 42
-0.048864
  0
VERTEX
  8
0
 10
384.586620
 20
329.355397
 42
-0.064398
  0
VERTEX
  8
0
 10
385.463482
 20
328.679375
 42
0.027360
  0
VERTEX
  8
0
 10
386.610910
 20
327.651092
 42
0.190884
  0
VERTEX
  8
0
 10
387.316676
 20
327.433736
 42
0.153942
  0
VERTEX
  8
0
 10
388.063973
 20
327.735656
 42
0.016186
  0
VERTEX
  8
0
 10
389.496283
 20
328.996508
 42
-0.041107
  0
VERTEX
  8
0
 10
390.705282
 20
329.958326
 42
-0.076738
  0
VERTEX
  8
0
 10
391.836299
 20
330.486203
 42
-0.081261
  0
VERTEX
  8
0
 10
393.028807
 20
330.631611
 42
-0.051314
  0
VERTEX
  8
0
 10
394.419440
 20
330.430863
 42
0.000000
  0
VERTEX
  8
0
 10
397.099728
 20
329.758154
 42
0.000000
  0
VERTEX
  8
0
 10
394.956474
 20
328.256960
 42
0.061244
  0
VERTEX
  8
0
 10
393.909502
 20
327.313674
 42
0.099487
  0
VERTEX
  8
0
 10
393.320040
 20
326.276451
 42
0.077696
  0
VERTEX
  8
0
 10
393.094807
 20
324.910229
 42
0.025852
  0
VERTEX
  8
0
 10
393.183036
 20
322.877883
 42
-0.020414
  0
VERTEX
  8
0
 10
393.275941
 20
321.167224
 42
-0.056950
  0
VERTEX
  8
0
 10
393.155701
 20
319.972968
 42
-0.101276
  0
VERTEX
  8
0
 10
392.839916
 20
319.258142
 42
-0.242849
  0
VERTEX
  8
0
 10
392.339773
 20
319.000000
 42
-0.058902
  0
VERTEX
  8
0
 10
389.966421
 20
319.280562
 42
-0.003355
  0
VERTEX
  8
0
 10
382.799909
 20
321.049873
 42
-0.005425
  0
VERTEX
  8
0
 10
375.751741
 20
322.921869
 42
-0.019651
  0
VERTEX
  8
0
 10
371.333377
 20
324.335993
 42
0.018147
  0
VERTEX
  8
0
 10
369.389998
 20
324.964431
 42
0.009965
  0
VERTEX
  8
0
 10
366.970895
 20
325.599009
 42
0.009922
  0
VERTEX
  8
0
 10
364.486986
 20
326.146031
 42
0.015625
  0
VERTEX
  8
0
 10
362.333377
 20
326.506131
 42
-0.013768
  0
VERTEX
  8
0
 10
360.137603
 20
326.864908
 42
-0.007962
  0
VERTEX
  8
0
 10
357.517844
 20
327.410762
 42
-0.007953
  0
VERTEX
  8
0
 10
354.904911
 20
328.042581
 42
-0.013221
  0
VERTEX
  8
0
 10
352.727368
 20
328.667791
 42
0.030999
  0
VERTEX
  8
0
 10
350.012127
 20
329.343949
 42
0.029565
  0
VERTEX
  8
0
 10
347.190761
 20
329.692647
 42
0.024467
  0
VERTEX
  8
0
 10
343.904493
 20
329.741719
 42
0.012019
  0
VERTEX
  8
0
 10
339.727368
 20
329.499047
 42
-0.014024
  0
VERTEX
  8
0
 10
335.488204
 20
329.269816
 42
-0.021641
  0
VERTEX
  8
0
 10
331.819205
 20
329.333291
 42
-0.023005
  0
VERTEX
  8
0
 10
328.340514
 20
329.705445
 42
-0.019144
  0
VERTEX
  8
0
 10
324.687947
 20
330.411163
 42
0.007753
  0
VERTEX
  8
0
 10
318.797770
 20
331.689028
 42
0.058342
  0
VERTEX
  8
0
 10
315.960217
 20
331.921036
 42
0.180662
  0
VERTEX
  8
0
 10
314.569200
 20
331.345283
 42
0.208153
  0
VERTEX
  8
0
 10
314.000000
 20
330.037261
 42
0.156949
  0
VERTEX
  8
0
 10
314.353930
 20
328.937504
 42
0.041062
  0
VERTEX
  8
0
 10
315.570169
 20
327.507505
 42
0.031963
  0
VERTEX
  8
0
 10
317.489481
 20
325.824071
 42
0.014892
  0
VERTEX
  8
0
 10
320.172751
 20
323.882687
 42
-0.016821
  0
VERTEX
  8
0
 10
323.073695
 20
321.766720
 42
-0.007456
  0
VERTEX
  8
0
 10
326.762775
 20
318.791179
 42
-0.007370
  0
VERTEX
  8
0
 10
330.580190
 20
315.520647
 42
-0.009864
  0
VERTEX
  8
0
 10
333.938757
 20
312.436299
 42
0.014095
  0
VERTEX
  8
0
 10
337.540873
 20
309.184026
 42
0.018058
  0
VERTEX
  8
0
 10
341.042062
 20
306.409603
 42
0.020053
  0
VERTEX
  8
0
 10
344.320126
 20
304.196233
 42
0.034364
  0
VERTEX
  8
0
 10
347.237304
 20
302.658596
 42
-0.017750
  0
VERTEX
  8
0
 10
349.763631
 20
301.432363
 42
-0.010943
  0
VERTEX
  8
0
 10
352.648730
 20
299.821336
 42
-0.010970
  0
VERTEX
  8
0
 10
355.434431
 20
298.101545
 42
-0.019276
  0
VERTEX
  8
0
 10
357.647494
 20
296.542988
 42
0.031062
  0
VERTEX
  8
0
 10
359.975077
 20
294.984487
 42
0.019244
  0
VERTEX
  8
0
 10
362.880052
 20
293.437138
 42
0.018928
  0
VERTEX
  8
0
 10
365.984082
 20
292.076587
 42
0.024568
  0
VERTEX
  8
0
 10
368.926196
 20
291.081577
 42
0.000137
  0
VERTEX
  8
0
 10
371.896403
 20
290.238019
 42
0.000084
  0
VERTEX
  8
0
 10
375.404883
 20
289.243266
 42
0.000084
  0
VERTEX
  8
0
 10
378.882633
 20
288.258485
 42
0.000149
  0
VERTEX
  8
0
 10
381.750000
 20
287.447985
 42
-0.011682
  0
VERTEX
  8
0
 10
384.145490
 20
286.710797
 42
-0.018296
  0
VERTEX
  8
0
 10
386.164062
 20
285.954467
 42
-0.012871
  0
VERTEX
  8
0
 10
387.744647
 20
285.247059
 42
-0.288700
  0
VERTEX
  8
0
 10
388.000000
 20
284.841673
 42
-0.467224
  0
VERTEX
  8
0
 10
385.983271
 20
283.154601
 42
-0.009160
  0
VERTEX
  8
0
 10
371.005936
 20
286.126174
 42
-0.017972
  0
VERTEX
  8
0
 10
355.709442
 20
290.033963
 42
-0.036314
  0
VERTEX
  8
0
 10
344.070505
 20
294.397037
 42
0.005058
  0
VERTEX
  8
0
 10
340.039664
 20
296.202590
 42
0.004595
  0
VERTEX
  8
0
 10
335.842586
 20
297.986139
 42
0.004602
  0
VERTEX
  8
0
 10
332.058911
 20
299.512468
 42
0.014751
  0
VERTEX
  8
0
 10
329.500000
 20
300.431286
 42
-0.028779
  0
VERTEX
  8
0
 10
327.192318
 20
301.333714
 42
-0.013997
  0
VERTEX
  8
0
 10
324.353125
 20
302.734396
 42
-0.013833
  0
VERTEX
  8
0
 10
321.470946
 20
304.361589
 42
-0.019407
  0
VERTEX
  8
0
 10
319.000000
 20
305.982005
 42
-0.000087
  0
VERTEX
  8
0
 10
316.619271
 20
307.679527
 42
-0.000066
  0
VERTEX
  8
0
 10
314.011800
 20
309.539922
 42
-0.000067
  0
VERTEX
  8
0
 10
311.567667
 20
311.284754
 42
-0.000156
  0
VERTEX
  8
0
 10
309.742298
 20
312.589090
 42
0.033942
  0
VERTEX
  8
0
 10
307.703923
 20
313.846934
 42
0.041450
  0
VERTEX
  8
0
 10
305.642690
 20
314.723695
 42
0.039467
  0
VERTEX
  8
0
 10
303.382825
 20
315.277747
 42
0.026629
  0
VERTEX
  8
0
 10
300.742298
 20
315.564809
 42
-0.009644
  0
VERTEX
  8
0
 10
297.341776
 20
315.818038
 42
-0.126694
  0
VERTEX
  8
0
 10
296.163455
 20
316.242376
 42
-0.208279
  0
VERTEX
  8
0
 10
295.613012
 20
317.115678
 42
-0.033169
  0
VERTEX
  8
0
 10
295.436557
 20
319.176826
 42
0.004095
  0
VERTEX
  8
0
 10
295.398577
 20
320.568767
 42
0.003737
  0
VERTEX
  8
0
 10
295.336949
 20
322.003024
 42
0.003738
  0
VERTEX
  8
0
 10
295.262726
 20
323.283670
 42
0.012124
  0
VERTEX
  8
0
 10
295.186557
 20
324.131343
 42
0.143029
  0
VERTEX
  8
0
 10
294.455376
 20
325.870470
 42
0.021200
  0
VERTEX
  8
0
 10
291.905175
 20
328.751763
 42
0.019946
  0
VERTEX
  8
0
 10
289.127493
 20
331.413055
 42
0.172068
  0
VERTEX
  8
0
 10
287.560162
 20
332.045104
 42
-0.056092
  0
VERTEX
  8
0
 10
286.979408
 20
332.135602
 42
-0.011702
  0
VERTEX
  8
0
 10
285.990052
 20
332.430897
 42
-0.012143
  0
VERTEX
  8
0
 10
284.852104
 20
332.830543
 42
-0.011210
  0
VERTEX
  8
0
 10
283.703845
 20
333.295104
 42
0.000000
  0
VERTEX
  8
0
 10
280.907690
 20
334.500000
 42
0.000000
  0
VERTEX
  8
0
 10
283.453845
 20
337.944280
 42
0.099364
  0
VERTEX
  8
0
 10
285.554258
 20
342.423226
 42
0.097003
  0
VERTEX
  8
0
 10
285.788733
 20
347.405833
 42
0.077395
  0
VERTEX
  8
0
 10
284.050852
 20
353.006871
 42
0.039976
  0
VERTEX
  8
0
 10
280.300797
 20
359.330813
 42
-0.011871
  0
VERTEX
  8
0
 10
279.015232
 20
361.244955
 42
-0.017194
  0
VERTEX
  8
0
 10
277.979954
 20
362.998620
 42
-0.012887
  0
VERTEX
  8
0
 10
277.224153
 20
364.475033
 42
-0.198909
  0
VERTEX
  8
0
 10
277.193604
 20
365.033269
 42
-0.432397
  0
VERTEX
  8
0
 10
277.602089
 20
365.213991
 42
-0.008645
  0
VERTEX
  8
0
 10
279.904502
 20
364.194083
 42
-0.014759
  0
VERTEX
  8
0
 10
282.713398
 20
362.789102
 42
-0.008664
  0
VERTEX
  8
0
 10
285.991935
 20
360.952456
 42
0.020442
  0
VERTEX
  8
0
 10
292.492395
 20
357.509421
 42
0.077096
  0
VERTEX
  8
0
 10
296.892054
 20
356.185349
 42
0.120022
  0
VERTEX
  8
0
 10
300.403756
 20
356.539332
 42
0.090280
  0
VERTEX
  8
0
 10
303.785819
 20
358.473232
 42
0.094843
  0
VERTEX
  8
0
 10
306.405112
 20
361.697947
 42
0.060637
  0
VERTEX
  8
0
 10
308.164796
 20
366.209071
 42
0.045347
  0
VERTEX
  8
0
 10
309.142381
 20
372.260400
 42
0.020852
  0
VERTEX
  8
0
 10
309.364831
 20
380.250000
 42
-0.006104
  0
VERTEX
  8
0
 10
309.358645
 20
383.986773
 42
-0.010205
  0
VERTEX
  8
0
 10
309.455948
 20
387.128363
 42
-0.004132
  0
VERTEX
  8
0
 10
309.612345
 20
389.747732
 42
-0.406232
  0
VERTEX
  8
0
 10
309.864831
 20
389.974215
 42
-0.209858
  0
VERTEX
  8
0
 10
310.233151
 20
389.794345
 42
-0.006776
  0
VERTEX
  8
0
 10
311.307385
 20
388.490774
 42
-0.011990
  0
VERTEX
  8
0
 10
312.540997
 20
386.873801
 42
-0.007919
  0
SEQEND
  0
POLYLINE
  8
0
 66
1
 70
1
  0
VERTEX
  8
0
 10
72.500000
 20
379.446906
 42
0.019342
  0
VERTEX
  8
0
 10
79.230199
 20
375.105156
 42
0.030208
  0
VERTEX
  8
0
 10
85.364285
 20
371.959424
 42
0.031210
  0
VERTEX
  8
0
 10
91.682145
 20
369.645624
 42
0.022603
  0
VERTEX
  8
0
 10
98.958203
 20
367.838325
 42
-0.007894
  0
VERTEX
  8
0
 10
107.639200
 20
365.951229
 42
-0.031894
  0
VERTEX
  8
0
 10
112.823734
 20
364.383707
 42
-0.037162
  0
VERTEX
  8
0
 10
117.374653
 20
362.287387
 42
-0.013493
  0
VERTEX
  8
0
 10
123.500000
 20
358.674224
 42
0.008212
  0
VERTEX
  8
0
 10
127.027519
 20
356.542911
 42
0.005971
  0
VERTEX
  8
0
 10
131.017610
 20
354.284047
 42
0.006034
  0
VERTEX
  8
0
 10
134.855827
 20
352.231245
 42
0.013151
  0
VERTEX
  8
0
 10
137.857822
 20
350.770902
 42
-0.011009
  0
VERTEX
  8
0
 10
140.252329
 20
349.618734
 42
-0.019455
  0
VERTEX
  8
0
 10
142.166658
 20
348.549459
 42
-0.015494
  0
VERTEX
  8
0
 10
143.565767
 20
347.634236
 42
-0.466489
  0
VERTEX
  8
0
 10
143.598194
 20
347.264861
 42
-0.103160
  0
VERTEX
  8
0
 10
143.101545
 20
346.939611
 42
-0.004342
  0
VERTEX
  8
0
 10
141.121622
 20
346.181842
 42
-0.007326
  0
VERTEX
  8
0
 10
138.740539
 20
345.333689
 42
-0.005128
  0
VERTEX
  8
0
 10
136.034366
 20
344.445043
 42
-0.011630
  0
VERTEX
  8
0
 10
129.898851
 20
342.655686
 42
-0.003121
  0
VERTEX
  8
0
 10
120.070683
 20
340.101414
 42
-0.001641
  0
VERTEX
  8
0
 10
103.882253
 20
336.058363
 42
-0.000244
  0
VERTEX
  8
0
 10
71.250000
 20
328.039092
 42
-0.005823
  0
VERTEX
  8
0
 10
65.401702
 20
326.676921
 42
-0.009914
  0
VERTEX
  8
0
 10
60.479687
 20
325.692676
 42
-0.004022
  0
VERTEX
  8
0
 10
56.368880
 20
324.989173
 42
-0.462331
  0
VERTEX
  8
0
 10
56.000000
 20
325.302835
 42
-0.091421
  0
VERTEX
  8
0
 10
56.120139
 20
325.954407
 42
-0.005391
  0
VERTEX
  8
0
 10
56.860513
 20
327.832820
 42
-0.007992
  0
VERTEX
  8
0
 10
57.807265
 20
330.058319
 42
-0.005796
  0
VERTEX
  8
0
 10
58.929404
 20
332.506409
 42
0.043656
  0
VERTEX
  8
0
 10
63.355913
 20
344.479104
 42
0.039229
  0
VERTEX
  8
0
 10
65.834596
 20
357.475663
 42
0.039878
  0
VERTEX
  8
0
 10
66.228501
 20
370.461708
 42
0.049635
  0
VERTEX
  8
0
 10
64.441695
 20
382.399153
 42
-0.059221
  0
VERTEX
  8
0
 10
64.209647
 20
384.181517
 42
-0.524791
  0
VERTEX
  8
0
 10
64.751448
 20
384.564556
 42
-0.063428
  0
VERTEX
  8
0
 10
66.299672
 20
383.762737
 42
-0.001766
  0
SEQEND
  0
POLYLINE
  8
0
 66
1
 70
1
  0
VERTEX
  8
0
 10
270.000000
 20
384.125000
 42
-0.328952
  0
VERTEX
  8
0
 10
269.321921
 20
383.205860
 42
-0.042031
  0
VERTEX
  8
0
 10
266.774287
 20
382.647983
 42
-0.043712
  0
VERTEX
  8
0
 10
263.838403
 20
382.518147
 42
-0.080208
  0
VERTEX
  8
0
 10
261.499571
 20
383.000163
 42
-0.028205
  0
VERTEX
  8
0
 10
259.337515
 20
383.964941
 42
-0.571760
  0
VERTEX
  8
0
 10
259.304970
 20
384.546592
 42
-0.139892
  0
VERTEX
  8
0
 10
260.522455
 20
384.936477
 42
-0.007985
  0
VERTEX
  8
0
 10
264.500000
 20
385.000000
 42
-0.014953
  0
VERTEX
  8
0
 10
266.608487
 20
384.936930
 42
-0.024495
  0
VERTEX
  8
0
 10
268.384375
 20
384.742969
 42
-0.021564
  0
VERTEX
  8
0
 10
269.731408
 20
384.468663
 42
-0.344421
  0
SEQEND
  0
POLYLINE
  8
0
 66
1
 70
1
  0
VERTEX
  8
0
 10
269.896893
 20
362.515504
 42
-0.041905
  0
VERTEX
  8
0
 10
275.042122
 20
356.071131
 42
-0.066087
  0
VERTEX
  8
0
 10
278.166623
 20
349.733313
 42
-0.090130
  0
VERTEX
  8
0
 10
278.955187
 20
344.380668
 42
-0.206609
  0
VERTEX
  8
0
 10
277.250000
 20
340.767899
 42
-0.090438
  0
VERTEX
  8
0
 10
274.558423
 20
339.147390
 42
-0.012289
  0
VERTEX
  8
0
 10
268.325379
 20
336.963724
 42
-0.007014
  0
VERTEX
  8
0
 10
261.773054
 20
334.948557
 42
-0.273998
  0
VERTEX
  8
0
 10
260.355298
 20
335.311368
 42
-0.201990
  0
VERTEX
  8
0
 10
260.158094
 20
335.795544
 42
-0.028101
  0
VERTEX
  8
0
 10
260.233353
 20
336.900231
 42
-0.028488
  0
VERTEX
  8
0
 10
260.483266
 20
338.264554
 42
-0.020602
  0
VERTEX
  8
0
 10
260.909575
 20
339.750853
 42
0.043875
  0
VERTEX
  8
0
 10
261.426204
 20
341.929502
 42
0.008237
  0
VERTEX
  8
0
 10
261.952471
 20
345.997126
 42
0.008755
  0
VERTEX
  8
0
 10
262.407168
 20
350.785169
 42
0.007915
  0
VERTEX
  8
0
 10
262.712103
 20
355.750000
 42
-0.005497
  0
VERTEX
  8
0
 10
262.977796
 20
360.447001
 42
-0.009110
  0
VERTEX
  8
0
 10
263.317610
 20
364.401563
 42
-0.003300
  0
VERTEX
  8
0
 10
263.687111
 20
367.730707
 42
-0.380307
  0
VERTEX
  8
0
 10
263.989951
 20
368.000000
 42
-0.184092
  0
VERTEX
  8
0
 10
264.440049
 20
367.828468
 42
-0.005029
  0
VERTEX
  8
0
 10
266.022088
 20
366.388929
 42
-0.009767
  0
VERTEX
  8
0
 10
267.856979
 20
364.617280
 42
-0.006467
  0
SEQEND
  0
POLYLINE
  8
0
 66
1
 70
1
  0
VERTEX
  8
0
 10
255.000000
 20
345.559017
 42
-0.037890
  0
VERTEX
  8
0
 10
254.925628
 20
344.579021
 42
-0.041555
  0
VERTEX
  8
0
 10
254.704175
 20
343.652243
 42
-0.045614
  0
VERTEX
  8
0
 10
254.380125
 20
342.904167
 42
-0.130046
  0
VERTEX
  8
0
 10
253.992937
 20
342.495635
 42
-0.305181
  0
VERTEX
  8
0
 10
253.136762
 20
342.528898
 42
-0.139062
  0
VERTEX
  8
0
 10
252.414447
 20
343.453454
 42
-0.091780
  0
VERTEX
  8
0
 10
252.097504
 20
344.986962
 42
-0.097096
  0
VERTEX
  8
0
 10
252.361626
 20
346.500000
 42
-0.097745
  0
VERTEX
  8
0
 10
253.121852
 20
347.709138
 42
-0.297660
  0
VERTEX
  8
0
 10
254.021287
 20
347.925462
 42
-0.235690
  0
VERTEX
  8
0
 10
254.756034
 20
347.160534
 42
-0.075730
  0
SEQEND
  0
POLYLINE
  8
0
 66
1
 70
1
  0
VERTEX
  8
0
 10
248.836997
 20
345.250000
 42
-0.047193
  0
VERTEX
  8
0
 10
249.231390
 20
344.273969
 42
-0.012093
  0
VERTEX
  8
0
 10
249.678692
 20
342.629101
 42
-0.012208
  0
VERTEX
  8
0
 10
250.099738
 20
340.718616
 42
-0.012119
  0
VERTEX
  8
0
 10
250.428170
 20
338.785236
 42
-0.021022
  0
VERTEX
  8
0
 10
250.697061
 20
336.158003
 42
-0.064745
  0
VERTEX
  8
0
 10
250.573503
 20
334.379362
 42
-0.074734
  0
VERTEX
  8
0
 10
250.013501
 20
332.834965
 42
-0.034912
  0
VERTEX
  8
0
 10
248.867930
 20
331.035236
 42
-0.016560
  0
VERTEX
  8
0
 10
247.947404
 20
329.872746
 42
-0.022495
  0
VERTEX
  8
0
 10
247.037294
 20
328.891601
 42
-0.020337
  0
VERTEX
  8
0
 10
246.234257
 20
328.162337
 42
-0.175938
  0
VERTEX
  8
0
 10
245.787191
 20
328.000000
 42
-0.284536
  0
VERTEX
  8
0
 10
244.880760
 20
328.561265
 42
-0.028487
  0
VERTEX
  8
0
 10
243.831839
 20
331.008039
 42
-0.028274
  0
VERTEX
  8
0
 10
242.820902
 20
334.377239
 42
-0.016619
  0
VERTEX
  8
0
 10
241.977719
 20
338.500000
 42
-0.013622
  0
VERTEX
  8
0
 10
241.569618
 20
341.369787
 42
-0.072495
  0
VERTEX
  8
0
 10
241.618157
 20
342.949307
 42
-0.114094
  0
VERTEX
  8
0
 10
242.106715
 20
344.096332
 42
-0.058477
  0
VERTEX
  8
0
 10
243.174356
 20
345.250000
 42
-0.029267
  0
VERTEX
  8
0
 10
244.057620
 20
345.919748
 42
-0.028772
  0
VERTEX
  8
0
 10
245.017946
 20
346.485937
 42
-0.030036
  0
VERTEX
  8
0
 10
245.915558
 20
346.881566
 42
-0.089006
  0
VERTEX
  8
0
 10
246.575600
 20
347.000000
 42
-0.107977
  0
VERTEX
  8
0
 10
247.160425
 20
346.872215
 42
-0.057151
  0
VERTEX
  8
0
 10
247.798424
 20
346.485937
 42
-0.052947
  0
VERTEX
  8
0
 10
248.389365
 20
345.919316
 42
-0.055626
  0
SEQEND
  0
POLYLINE
  8
0
 66
1
 70
1
  0
VERTEX
  8
0
 10
163.199698
 20
341.245464
 42
0.006354
  0
VERTEX
  8
0
 10
161.526352
 20
339.198913
 42
0.001583
  0
VERTEX
  8
0
 10
158.843744
 20
335.809605
 42
0.001618
  0
VERTEX
  8
0
 10
155.799035
 20
331.911776
 42
0.001625
  0
VERTEX
  8
0
 10
152.784081
 20
328.000000
 42
-0.003001
  0
VERTEX
  8
0
 10
149.484173
 20
323.742783
 42
-0.001862
  0
VERTEX
  8
0
 10
145.561723
 20
318.782806
 42
-0.001868
  0
VERTEX
  8
0
 10
141.653523
 20
313.915904
 42
-0.003372
  0
VERTEX
  8
0
 10
138.410355
 20
309.962744
 42
-0.024166
  0
VERTEX
  8
0
 10
128.388569
 20
299.033746
 42
-0.013751
  0
VERTEX
  8
0
 10
115.299308
 20
286.769997
 42
-0.013294
  0
VERTEX
  8
0
 10
102.220339
 20
275.781376
 42
-0.042611
  0
VERTEX
  8
0
 10
92.750000
 20
269.481442
 42
0.000000
  0
VERTEX
  8
0
 10
88.000000
 20
266.875176
 42
0.000000
  0
VERTEX
  8
0
 10
87.994423
 20
269.187588
 42
0.053706
  0
VERTEX
  8
0
 10
87.595908
 20
272.805115
 42
0.043282
  0
VERTEX
  8
0
 10
86.426164
 20
276.539718
 42
0.043449
  0
VERTEX
  8
0
 10
84.637910
 20
280.000846
 42
0.055472
  0
VERTEX
  8
0
 10
82.396924
 20
282.803076
 42
-0.009315
  0
VERTEX
  8
0
 10
81.097560
 20
284.151779
 42
-0.013527
  0
VERTEX
  8
0
 10
80.006457
 20
285.393091
 42
-0.009054
  0
VERTEX
  8
0
 10
79.153877
 20
286.456228
 42
-0.177553
  0
VERTEX
  8
0
 10
79.029312
 20
286.850000
 42
-0.241993
  0
VERTEX
  8
0
 10
79.242810
 20
287.222949
 42
-0.003556
  0
VERTEX
  8
0
 10
81.443718
 20
288.630266
 42
-0.008788
  0
VERTEX
  8
0
 10
84.081759
 20
290.226753
 42
-0.005576
  0
VERTEX
  8
0
 10
87.207402
 20
291.997713
 42
0.016369
  0
VERTEX
  8
0
 10
93.962377
 20
296.020014
 42
0.015227
  0
VERTEX
  8
0
 10
100.608224
 20
300.569215
 42
0.010826
  0
VERTEX
  8
0
 10
108.698706
 20
306.749854
 42
0.003463
  0
VERTEX
  8
0
 10
120.458754
 20
316.278036
 42
-0.003788
  0
VERTEX
  8
0
 10
125.618540
 20
320.453026
 42
-0.003152
  0
VERTEX
  8
0
 10
131.166009
 20
324.815716
 42
-0.003181
  0
VERTEX
  8
0
 10
136.296385
 20
328.746262
 42
-0.008617
  0
VERTEX
  8
0
 10
140.000000
 20
331.447472
 42
-0.018025
  0
VERTEX
  8
0
 10
146.980965
 20
335.990019
 42
-0.010427
  0
VERTEX
  8
0
 10
155.673714
 20
340.966825
 42
-0.003193
  0
VERTEX
  8
0
 10
164.517567
 20
345.715096
 42
-0.329100
  0
VERTEX
  8
0
 10
165.813467
 20
345.519866
 42
-0.325148
  0
VERTEX
  8
0
 10
165.874115
 20
345.135922
 42
-0.019193
  0
VERTEX
  8
0
 10
165.263859
 20
344.046074
 42
-0.023017
  0
VERTEX
  8
0
 10
164.366196
 20
342.719363
 42
-0.014309
  0
SEQEND
  0
POLYLINE
  8
0
 66
1
 70
1
  0
VERTEX
  8
0
 10
181.000000
 20
343.073152
 42
-0.067916
  0
VERTEX
  8
0
 10
180.553866
 20
339.803860
 42
-0.002359
  0
VERTEX
  8
0
 10
177.048230
 20
327.424870
 42
-0.003735
  0
VERTEX
  8
0
 10
173.517168
 20
315.511859
 42
-0.033312
  0
VERTEX
  8
0
 10
171.581798
 20
310.404582
 42
-0.022989
  0
VERTEX
  8
0
 10
170.221684
 20
307.758496
 42
-0.006234
  0
VERTEX
  8
0
 10
167.827844
 20
303.702963
 42
-0.006295
  0
VERTEX
  8
0
 10
164.992821
 20
299.163805
 42
-0.006499
  0
VERTEX
  8
0
 10
162.073746
 20
294.745828
 42
0.012358
  0
VERTEX
  8
0
 10
159.111242
 20
290.145832
 42
0.009913
  0
VERTEX
  8
0
 10
156.145920
 20
285.057145
 42
0.010047
  0
VERTEX
  8
0
 10
153.591002
 20
280.240571
 42
0.025016
  0
VERTEX
  8
0
 10
151.974277
 20
276.596697
 42
-0.006182
  0
VERTEX
  8
0
 10
150.748493
 20
273.527097
 42
-0.006741
  0
VERTEX
  8
0
 10
149.480951
 20
270.576690
 42
-0.006362
  0
VERTEX
  8
0
 10
148.330593
 20
268.081436
 42
-0.032850
  0
VERTEX
  8
0
 10
147.588230
 20
266.755450
 42
0.059184
  0
VERTEX
  8
0
 10
145.305917
 20
262.123610
 42
0.018470
  0
VERTEX
  8
0
 10
142.992843
 20
254.715959
 42
0.018937
  0
VERTEX
  8
0
 10
141.118654
 20
246.633511
 42
0.028919
  0
VERTEX
  8
0
 10
140.170323
 20
239.500000
 42
0.000000
  0
VERTEX
  8
0
 10
139.500000
 20
230.500000
 42
0.000000
  0
VERTEX
  8
0
 10
132.331645
 20
229.859476
 42
0.007317
  0
VERTEX
  8
0
 10
129.507208
 20
229.565379
 42
0.009743
  0
VERTEX
  8
0
 10
126.951261
 20
229.210737
 42
0.007347
  0
VERTEX
  8
0
 10
124.835947
 20
228.843163
 42
0.091966
  0
VERTEX
  8
0
 10
124.081645
 20
228.550459
 42
-0.588207
  0
VERTEX
  8
0
 10
123.338629
 20
228.965908
 42
-0.109823
  0
VERTEX
  8
0
 10
123.781503
 20
230.935175
 42
-0.024915
  0
VERTEX
  8
0
 10
126.308728
 20
235.675480
 42
-0.005458
  0
VERTEX
  8
0
 10
131.143883
 20
243.552261
 42
0.010303
  0
VERTEX
  8
0
 10
139.982867
 20
258.269500
 42
0.018143
  0
VERTEX
  8
0
 10
146.582581
 20
270.824617
 42
0.018389
  0
VERTEX
  8
0
 10
152.195925
 20
283.707803
 42
0.010938
  0
VERTEX
  8
0
 10
157.971606
 20
299.420125
 42
-0.006473
  0
VERTEX
  8
0
 10
163.294418
 20
314.309702
 42
-0.016680
  0
VERTEX
  8
0
 10
167.632453
 20
324.874227
 42
-0.022757
  0
VERTEX
  8
0
 10
171.648819
 20
332.810595
 42
-0.035328
  0
VERTEX
  8
0
 10
175.882230
 20
339.207404
 42
-0.011319
  0
VERTEX
  8
0
 10
178.228745
 20
342.121687
 42
-0.055895
  0
VERTEX
  8
0
 10
179.756326
 20
343.569502
 42
-0.255714
  0
VERTEX
  8
0
 10
180.570928
 20
343.689472
 42
-0.313813
  0
SEQEND
  0
POLYLINE
  8
0
 66
1
 70
1
  0
VERTEX
  8
0
 10
238.738677
 20
340.500000
 42
0.011471
  0
VERTEX
  8
0
 10
238.903050
 20
338.899370
 42
0.003024
  0
VERTEX
  8
0
 10
239.240144
 20
336.347255
 42
0.003068
  0
VERTEX
  8
0
 10
239.659272
 20
333.446758
 42
0.003146
  0
VERTEX
  8
0
 10
240.110633
 20
330.575760
 42
-0.006883
  0
VERTEX
  8
0
 10
240.725468
 20
326.464930
 42
-0.054282
  0
VERTEX
  8
0
 10
240.775976
 20
324.540658
 42
-0.120615
  0
VERTEX
  8
0
 10
240.373743
 20
323.336107
 42
-0.094547
  0
VERTEX
  8
0
 10
239.430826
 20
322.325760
 42
-0.031462
  0
VERTEX
  8
0
 10
238.636477
 20
321.818323
 42
-0.027573
  0
VERTEX
  8
0
 10
237.749602
 20
321.389442
 42
-0.028568
  0
VERTEX
  8
0
 10
236.903813
 20
321.091987
 42
-0.070380
  0
VERTEX
  8
0
 10
236.253547
 20
321.000000
 42
-0.276153
  0
VERTEX
  8
0
 10
234.577405
 20
322.002170
 42
-0.024144
  0
VERTEX
  8
0
 10
232.355738
 20
326.663509
 42
-0.030753
  0
VERTEX
  8
0
 10
230.510526
 20
331.964001
 42
-0.055069
  0
VERTEX
  8
0
 10
229.760927
 20
336.508162
 42
-0.015484
  0
VERTEX
  8
0
 10
229.698023
 20
339.304077
 42
-0.084864
  0
VERTEX
  8
0
 10
229.964181
 20
340.785292
 42
-0.129452
  0
VERTEX
  8
0
 10
230.654555
 20
341.784546
 42
-0.056324
  0
VERTEX
  8
0
 10
232.000000
 20
342.697545
 42
-0.056278
  0
VERTEX
  8
0
 10
234.690696
 20
343.745015
 42
-0.144504
  0
VERTEX
  8
0
 10
236.757607
 20
343.686682
 42
-0.189356
  0
VERTEX
  8
0
 10
238.114346
 20
342.568023
 42
-0.107312
  0
SEQEND
  0
POLYLINE
  8
0
 66
1
 70
1
  0
VERTEX
  8
0
 10
226.369714
 20
337.750000
 42
-0.018326
  0
VERTEX
  8
0
 10
226.601797
 20
336.736862
 42
-0.011810
  0
VERTEX
  8
0
 10
226.799577
 20
335.548515
 42
-0.011873
  0
VERTEX
  8
0
 10
226.938114
 20
334.375486
 42
-0.021819
  0
VERTEX
  8
0
 10
226.986345
 20
333.415156
 42
0.050387
  0
VERTEX
  8
0
 10
227.113644
 20
332.232657
 42
0.009036
  0
VERTEX
  8
0
 10
227.611192
 20
330.068733
 42
0.009674
  0
VERTEX
  8
0
 10
228.291529
 20
327.546049
 42
0.008608
  0
VERTEX
  8
0
 10
229.094308
 20
324.950731
 42
0.000000
  0
VERTEX
  8
0
 10
231.188617
 20
318.571151
 42
0.000000
  0
VERTEX
  8
0
 10
228.937731
 20
316.748495
 42
-0.028301
  0
VERTEX
  8
0
 10
227.479583
 20
315.698518
 42
-0.186256
  0
VERTEX
  8
0
 10
226.613617
 20
315.523704
 42
-0.136633
  0
VERTEX
  8
0
 10
225.710569
 20
315.949594
 42
-0.012930
  0
VERTEX
  8
0
 10
223.883782
 20
317.611344
 42
-0.053073
  0
VERTEX
  8
0
 10
221.537894
 20
320.392143
 42
-0.031630
  0
VERTEX
  8
0
 10
219.340972
 20
324.128969
 42
-0.030945
  0
VERTEX
  8
0
 10
217.563682
 20
328.259060
 42
-0.039786
  0
VERTEX
  8
0
 10
216.481380
 20
332.247562
 42
-0.028119
  0
VERTEX
  8
0
 10
216.195495
 20
334.447576
 42
-0.147465
  0
VERTEX
  8
0
 10
216.458515
 20
335.624763
 42
-0.125664
  0
VERTEX
  8
0
 10
217.350794
 20
336.558576
 42
-0.018173
  0
VERTEX
  8
0
 10
219.652568
 20
337.881929
 42
-0.015147
  0
VERTEX
  8
0
 10
222.913045
 20
339.477660
 42
-0.111582
  0
VERTEX
  8
0
 10
224.600013
 20
339.824207
 42
-0.236064
  0
VERTEX
  8
0
 10
225.646410
 20
339.275073
 42
-0.090758
  0
SEQEND
  0
POLYLINE
  8
0
 66
1
 70
1
  0
VERTEX
  8
0
 10
133.000000
 20
334.044361
 42
-0.003287
  0
VERTEX
  8
0
 10
125.448476
 20
327.976587
 42
-0.001151
  0
VERTEX
  8
0
 10
114.516787
 20
319.351339
 42
-0.001104
  0
VERTEX
  8
0
 10
103.692385
 20
310.889677
 42
-0.004205
  0
VERTEX
  8
0
 10
96.880699
 20
305.680410
 42
-0.015860
  0
VERTEX
  8
0
 10
90.265122
 20
301.029531
 42
-0.010443
  0
VERTEX
  8
0
 10
82.382565
 20
296.085958
 42
-0.005580
  0
VERTEX
  8
0
 10
74.754535
 20
291.635993
 42
-0.129960
  0
VERTEX
  8
0
 10
72.348983
 20
291.000000
 42
-0.302966
  0
VERTEX
  8
0
 10
71.814908
 20
291.356319
 42
-0.055615
  0
VERTEX
  8
0
 10
71.466502
 20
292.554494
 42
-0.035158
  0
VERTEX
  8
0
 10
71.268986
 20
294.492345
 42
-0.011613
  0
VERTEX
  8
0
 10
71.245906
 20
297.355058
 42
0.049053
  0
VERTEX
  8
0
 10
70.799242
 20
302.733075
 42
0.080350
  0
VERTEX
  8
0
 10
69.272853
 20
307.031069
 42
0.081959
  0
VERTEX
  8
0
 10
66.495986
 20
310.571189
 42
0.053049
  0
VERTEX
  8
0
 10
62.298527
 20
313.670939
 42
-0.004896
  0
VERTEX
  8
0
 10
59.296215
 20
315.470139
 42
-0.128837
  0
VERTEX
  8
0
 10
58.651480
 20
316.141920
 42
-0.381657
  0
VERTEX
  8
0
 10
58.781282
 20
316.720761
 42
-0.035645
  0
VERTEX
  8
0
 10
60.135555
 20
317.550614
 42
-0.045265
  0
VERTEX
  8
0
 10
63.037943
 20
318.736961
 42
-0.008822
  0
VERTEX
  8
0
 10
68.475218
 20
320.299967
 42
-0.005008
  0
VERTEX
  8
0
 10
77.508140
 20
322.628150
 42
-0.000771
  0
VERTEX
  8
0
 10
95.500000
 20
327.044329
 42
0.001446
  0
VERTEX
  8
0
 10
103.780467
 20
329.088658
 42
0.001408
  0
VERTEX
  8
0
 10
112.121875
 20
331.198623
 42
0.001388
  0
VERTEX
  8
0
 10
119.440765
 20
333.093548
 42
0.005262
  0
VERTEX
  8
0
 10
124.000000
 20
334.338897
 42
-0.004666
  0
VERTEX
  8
0
 10
131.828013
 20
336.487136
 42
-0.072934
  0
VERTEX
  8
0
 10
134.580174
 20
336.799167
 42
-0.613779
  0
VERTEX
  8
0
 10
134.942009
 20
336.024767
 42
-0.055924
  0
SEQEND
  0
POLYLINE
  8
0
 66
1
 70
1
  0
VERTEX
  8
0
 10
215.144317
 20
326.829343
 42
0.017737
  0
VERTEX
  8
0
 10
215.990807
 20
324.366055
 42
0.012238
  0
VERTEX
  8
0
 10
217.114855
 20
321.638854
 42
0.012355
  0
VERTEX
  8
0
 10
218.326346
 20
319.066359
 42
0.024569
  0
VERTEX
  8
0
 10
219.433485
 20
317.105366
 42
-0.014067
  0
VERTEX
  8
0
 10
220.416093
 20
315.447255
 42
-0.016693
  0
VERTEX
  8
0
 10
221.246086
 20
313.827173
 42
-0.015635
  0
VERTEX
  8
0
 10
221.852315
 20
312.427778
 42
-0.094665
  0
VERTEX
  8
0
 10
222.000000
 20
311.654731
 42
-0.135519
  0
VERTEX
  8
0
 10
221.571187
 20
310.101670
 42
-0.027304
  0
VERTEX
  8
0
 10
219.953548
 20
307.703289
 42
-0.024456
  0
VERTEX
  8
0
 10
218.112159
 20
305.503231
 42
-0.209228
  0
VERTEX
  8
0
 10
216.962216
 20
305.000000
 42
-0.183865
  0
VERTEX
  8
0
 10
215.047639
 20
305.728680
 42
-0.024290
  0
VERTEX
  8
0
 10
211.893958
 20
308.823050
 42
-0.028630
  0
VERTEX
  8
0
 10
208.791242
 20
312.589476
 42
-0.042407
  0
VERTEX
  8
0
 10
206.567249
 20
316.240891
 42
-0.034845
  0
VERTEX
  8
0
 10
204.570077
 20
321.063274
 42
-0.090943
  0
VERTEX
  8
0
 10
204.042528
 20
324.764178
 42
-0.119886
  0
VERTEX
  8
0
 10
204.905129
 20
327.781824
 42
-0.088790
  0
VERTEX
  8
0
 10
207.133347
 20
330.458750
 42
-0.051025
  0
VERTEX
  8
0
 10
210.049886
 20
332.443568
 42
-0.234400
  0
VERTEX
  8
0
 10
212.035256
 20
332.513275
 42
-0.183594
  0
VERTEX
  8
0
 10
213.616178
 20
330.922401
 42
-0.030906
  0
SEQEND
  0
POLYLINE
  8
0
 66
1
 70
1
  0
VERTEX
  8
0
 10
405.800000
 20
326.800000
 42
-0.138816
  0
VERTEX
  8
0
 10
406.764715
 20
325.073413
 42
-0.082793
  0
VERTEX
  8
0
 10
406.926843
 20
322.708646
 42
-0.079183
  0
VERTEX
  8
0
 10
406.302692
 20
320.312236
 42
-0.105996
  0
VERTEX
  8
0
 10
404.993869
 20
318.494452
 42
-0.065904
  0
VERTEX
  8
0
 10
403.026684
 20
317.137201
 42
-0.492966
  0
VERTEX
  8
0
 10
402.148886
 20
317.554405
 42
-0.178660
  0
VERTEX
  8
0
 10
402.401653
 20
319.316420
 42
-0.031655
  0
VERTEX
  8
0
 10
404.201597
 20
322.191464
 42
0.059318
  0
VERTEX
  8
0
 10
404.730559
 20
323.150242
 42
0.140138
  0
VERTEX
  8
0
 10
404.817085
 20
323.954361
 42
0.111351
  0
VERTEX
  8
0
 10
404.465846
 20
324.801462
 42
0.030188
  0
VERTEX
  8
0
 10
403.552974
 20
325.941464
 42
-0.013994
  0
VERTEX
  8
0
 10
402.636791
 20
327.012615
 42
-0.121580
  0
VERTEX
  8
0
 10
402.373104
 20
327.576200
 42
-0.362738
  0
VERTEX
  8
0
 10
402.542368
 20
327.885807
 42
-0.093908
  0
VERTEX
  8
0
 10
403.145012
 20
328.000000
 42
-0.067180
  0
VERTEX
  8
0
 10
403.789548
 20
327.913007
 42
-0.039065
  0
VERTEX
  8
0
 10
404.525097
 20
327.647500
 42
-0.038316
  0
VERTEX
  8
0
 10
405.233742
 20
327.259359
 42
-0.051974
  0
SEQEND
  0
POLYLINE
  8
0
 66
1
 70
1
  0
VERTEX
  8
0
 10
159.122344
 20
321.310389
 42
0.006672
  0
VERTEX
  8
0
 10
158.034060
 20
318.437608
 42
0.001164
  0
VERTEX
  8
0
 10
156.066800
 20
312.988286
 42
0.001263
  0
VERTEX
  8
0
 10
153.789775
 20
306.583742
 42
0.001133
  0
VERTEX
  8
0
 10
151.460142
 20
299.930377
 42
-0.005191
  0
VERTEX
  8
0
 10
148.951466
 20
292.947889
 42
-0.004280
  0
VERTEX
  8
0
 10
146.135366
 20
285.553016
 42
-0.004324
  0
VERTEX
  8
0
 10
143.433598
 20
278.809609
 42
-0.011503
  0
VERTEX
  8
0
 10
141.353278
 20
274.058615
 42
-0.021468
  0
VERTEX
  8
0
 10
136.689986
 20
265.071788
 42
-0.005416
  0
VERTEX
  8
0
 10
128.324752
 20
250.873373
 42
-0.002728
  0
VERTEX
  8
0
 10
119.440747
 20
236.340950
 42
-0.081155
  0
VERTEX
  8
0
 10
116.620185
 20
233.099745
 42
-0.220790
  0
VERTEX
  8
0
 10
115.898404
 20
232.909191
 42
-0.230544
  0
VERTEX
  8
0
 10
115.305376
 20
233.341269
 42
-0.064577
  0
VERTEX
  8
0
 10
114.775881
 20
234.752314
 42
-0.008940
  0
VERTEX
  8
0
 10
114.115437
 20
237.818770
 42
0.059275
  0
VERTEX
  8
0
 10
111.870681
 20
244.762623
 42
0.057811
  0
VERTEX
  8
0
 10
108.045495
 20
251.049918
 42
0.060510
  0
VERTEX
  8
0
 10
103.086243
 20
256.033626
 42
0.080173
  0
VERTEX
  8
0
 10
97.500350
 20
259.136034
 42
-0.024820
  0
VERTEX
  8
0
 10
96.159931
 20
259.697399
 42
-0.034591
  0
VERTEX
  8
0
 10
95.028796
 20
260.338141
 42
-0.037059
  0
VERTEX
  8
0
 10
94.217305
 20
260.966165
 42
-0.213123
  0
VERTEX
  8
0
 10
94.001933
 20
261.450888
 42
-0.200555
  0
VERTEX
  8
0
 10
94.243621
 20
262.026219
 42
-0.014621
  0
VERTEX
  8
0
 10
95.530161
 20
263.219948
 42
-0.018608
  0
VERTEX
  8
0
 10
97.210221
 20
264.582844
 42
-0.012929
  0
VERTEX
  8
0
 10
99.201696
 20
266.000000
 42
0.026375
  0
VERTEX
  8
0
 10
113.224578
 20
276.557915
 42
0.019070
  0
VERTEX
  8
0
 10
127.724983
 20
289.698237
 42
0.018163
  0
VERTEX
  8
0
 10
141.991769
 20
304.705589
 42
0.017483
  0
VERTEX
  8
0
 10
155.322266
 20
320.895995
 42
-0.007705
  0
VERTEX
  8
0
 10
157.204798
 20
323.275729
 42
-0.013004
  0
VERTEX
  8
0
 10
158.864405
 20
325.203876
 42
-0.006691
  0
VERTEX
  8
0
 10
160.277768
 20
326.720781
 42
-0.420654
  0
VERTEX
  8
0
 10
160.608920
 20
326.724413
 42
-0.258102
  0
VERTEX
  8
0
 10
160.717330
 20
326.347716
 42
-0.010754
  0
VERTEX
  8
0
 10
160.363798
 20
324.942484
 42
-0.016285
  0
VERTEX
  8
0
 10
159.836434
 20
323.240918
 42
-0.010590
  0
SEQEND
  0
POLYLINE
  8
0
 66
1
 70
1
  0
VERTEX
  8
0
 10
285.978791
 20
325.510967
 42
-0.072075
  0
VERTEX
  8
0
 10
288.204541
 20
323.918114
 42
-0.127607
  0
VERTEX
  8
0
 10
289.380689
 20
322.007933
 42
-0.125729
  0
VERTEX
  8
0
 10
289.489150
 20
319.746093
 42
-0.068864
  0
VERTEX
  8
0
 10
288.558637
 20
317.113391
 42
-0.024665
  0
VERTEX
  8
0
 10
286.957704
 20
314.359422
 42
-0.227008
  0
VERTEX
  8
0
 10
285.810455
 20
313.658471
 42
-0.290360
  0
VERTEX
  8
0
 10
284.743272
 20
314.191427
 42
-0.036684
  0
VERTEX
  8
0
 10
283.523507
 20
316.597983
 42
0.038236
  0
VERTEX
  8
0
 10
282.680481
 20
318.248535
 42
0.019603
  0
VERTEX
  8
0
 10
281.390930
 20
320.183500
 42
0.019362
  0
VERTEX
  8
0
 10
279.899373
 20
322.082625
 42
0.027550
  0
VERTEX
  8
0
 10
278.422041
 20
323.638295
 42
0.000000
  0
VERTEX
  8
0
 10
274.857596
 20
327.000000
 42
0.000000
  0
VERTEX
  8
0
 10
278.978458
 20
327.000000
 42
-0.030367
  0
VERTEX
  8
0
 10
280.766923
 20
326.891279
 42
-0.022042
  0
VERTEX
  8
0
 10
282.734661
 20
326.562597
 42
-0.022393
  0
VERTEX
  8
0
 10
284.581249
 20
326.082490
 42
-0.044556
  0
SEQEND
  0
POLYLINE
  8
0
 66
1
 70
1
  0
VERTEX
  8
0
 10
201.624005
 20
321.250000
 42
0.045272
  0
VERTEX
  8
0
 10
202.962018
 20
317.301910
 42
0.029251
  0
VERTEX
  8
0
 10
205.174100
 20
313.008152
 42
0.028852
  0
VERTEX
  8
0
 10
207.928900
 20
308.910608
 42
0.038121
  0
VERTEX
  8
0
 10
210.913602
 20
305.547052
 42
-0.015550
  0
VERTEX
  8
0
 10
213.597439
 20
302.784238
 42
-0.087616
  0
VERTEX
  8
0
 10
214.694491
 20
301.053761
 42
-0.179317
  0
VERTEX
  8
0
 10
214.743433
 20
299.670580
 42
-0.117006
  0
VERTEX
  8
0
 10
213.896100
 20
298.296100
 42
-0.324896
  0
VERTEX
  8
0
 10
210.075306
 20
297.690778
 42
-0.033400
  0
VERTEX
  8
0
 10
201.756059
 20
302.654183
 42
-0.034643
  0
VERTEX
  8
0
 10
194.016413
 20
308.836013
 42
-0.209898
  0
VERTEX
  8
0
 10
192.000000
 20
313.427715
 42
-0.143806
  0
VERTEX
  8
0
 10
192.644473
 20
315.622142
 42
-0.020002
  0
VERTEX
  8
0
 10
195.394833
 20
319.546381
 42
-0.017286
  0
VERTEX
  8
0
 10
198.439757
 20
323.266870
 42
-0.215850
  0
VERTEX
  8
0
 10
200.058871
 20
324.000000
 42
-0.219427
  0
VERTEX
  8
0
 10
200.450893
 20
323.819257
 42
-0.047376
  0
VERTEX
  8
0
 10
200.891127
 20
323.192187
 42
-0.041144
  0
VERTEX
  8
0
 10
201.304452
 20
322.303130
 42
-0.029175
  0
SEQEND
  0
POLYLINE
  8
0
 66
1
 70
1
  0
VERTEX
  8
0
 10
347.797161
 20
321.744406
 42
-0.050917
  0
VERTEX
  8
0
 10
348.244075
 20
321.078338
 42
-0.019510
  0
VERTEX
  8
0
 10
348.730111
 20
320.072726
 42
-0.019081
  0
VERTEX
  8
0
 10
349.176614
 20
318.931856
 42
-0.022250
  0
VERTEX
  8
0
 10
349.509855
 20
317.816756
 42
-0.046529
  0
VERTEX
  8
0
 10
349.738712
 20
316.331800
 42
-0.142042
  0
VERTEX
  8
0
 10
349.516145
 20
315.347022
 42
-0.119432
  0
VERTEX
  8
0
 10
348.770236
 20
314.533723
 42
-0.028409
  0
VERTEX
  8
0
 10
347.177044
 20
313.591553
 42
-0.044170
  0
VERTEX
  8
0
 10
345.216148
 20
312.787883
 42
-0.166014
  0
VERTEX
  8
0
 10
343.906002
 20
312.825025
 42
-0.086750
  0
VERTEX
  8
0
 10
342.434677
 20
313.687960
 42
-0.007202
  0
VERTEX
  8
0
 10
339.085674
 20
316.612881
 42
-0.014373
  0
VERTEX
  8
0
 10
337.176086
 20
318.431687
 42
-0.022637
  0
VERTEX
  8
0
 10
335.656874
 20
320.109835
 42
-0.018653
  0
VERTEX
  8
0
 10
334.575681
 20
321.522777
 42
-0.300983
  0
VERTEX
  8
0
 10
334.557896
 20
322.093677
 42
-0.249173
  0
VERTEX
  8
0
 10
336.024947
 20
322.950926
 42
-0.016701
  0
VERTEX
  8
0
 10
341.049668
 20
322.986214
 42
-0.018128
  0
VERTEX
  8
0
 10
346.050534
 20
322.672617
 42
-0.197301
  0
SEQEND
  0
POLYLINE
  8
0
 66
1
 70
1
  0
VERTEX
  8
0
 10
359.000000
 20
312.500000
 42
-0.033947
  0
VERTEX
  8
0
 10
358.934911
 20
311.542413
 42
-0.051882
  0
VERTEX
  8
0
 10
358.737678
 20
310.734375
 42
-0.067430
  0
VERTEX
  8
0
 10
358.449646
 20
310.178044
 42
-0.244294
  0
VERTEX
  8
0
 10
358.106989
 20
310.000000
 42
-0.232695
  0
VERTEX
  8
0
 10
357.298041
 20
310.398027
 42
-0.073583
  0
VERTEX
  8
0
 10
356.622994
 20
311.606577
 42
-0.070271
  0
VERTEX
  8
0
 10
356.301207
 20
313.030995
 42
-0.160210
  0
VERTEX
  8
0
 10
356.555773
 20
314.090242
 42
-0.119359
  0
VERTEX
  8
0
 10
357.371807
 20
314.896913
 42
-0.287240
  0
VERTEX
  8
0
 10
358.186366
 20
314.882750
 42
-0.186251
  0
VERTEX
  8
0
 10
358.801851
 20
314.030943
 42
-0.064446
  0
SEQEND
  0
POLYLINE
  8
0
 66
1
 70
1
  0
VERTEX
  8
0
 10
368.000000
 20
308.308870
 42
-0.104844
  0
VERTEX
  8
0
 10
367.894116
 20
307.809459
 42
-0.099131
  0
VERTEX
  8
0
 10
367.593620
 20
307.384481
 42
-0.096476
  0
VERTEX
  8
0
 10
367.144662
 20
307.099646
 42
-0.093521
  0
VERTEX
  8
0
 10
366.616577
 20
307.000000
 42
-0.262810
  0
VERTEX
  8
0
 10
365.635826
 20
307.553749
 42
-0.059144
  0
VERTEX
  8
0
 10
364.816016
 20
309.366822
 42
-0.058250
  0
VERTEX
  8
0
 10
364.431595
 20
311.364241
 42
-0.218156
  0
VERTEX
  8
0
 10
364.865716
 20
312.532383
 42
-0.393927
  0
VERTEX
  8
0
 10
365.588987
 20
312.557619
 42
-0.054234
  0
VERTEX
  8
0
 10
366.709584
 20
311.346974
 42
-0.049711
  0
VERTEX
  8
0
 10
367.685706
 20
309.715186
 42
-0.110382
  0
SEQEND
  0
POLYLINE
  8
0
 66
1
 70
1
  0
VERTEX
  8
0
 10
195.726483
 20
303.479271
 42
0.016648
  0
VERTEX
  8
0
 10
198.266735
 20
301.207206
 42
0.013610
  0
VERTEX
  8
0
 10
201.125904
 20
298.945664
 42
0.013831
  0
VERTEX
  8
0
 10
203.872328
 20
297.008349
 42
0.034789
  0
VERTEX
  8
0
 10
206.000000
 20
295.798228
 42
-0.015110
  0
VERTEX
  8
0
 10
209.467725
 20
294.002607
 42
-0.103608
  0
VERTEX
  8
0
 10
210.911671
 20
292.750178
 42
-0.169898
  0
VERTEX
  8
0
 10
211.376437
 20
291.315316
 42
-0.059044
  0
VERTEX
  8
0
 10
211.065891
 20
289.131985
 42
-0.159269
  0
VERTEX
  8
0
 10
209.777717
 20
287.144731
 42
-0.145947
  0
VERTEX
  8
0
 10
207.517074
 20
286.215634
 42
-0.081789
  0
VERTEX
  8
0
 10
203.991611
 20
286.438457
 42
-0.024841
  0
VERTEX
  8
0
 10
198.822957
 20
287.902411
 42
-0.022478
  0
VERTEX
  8
0
 10
193.919763
 20
289.807728
 42
-0.019583
  0
VERTEX
  8
0
 10
188.971222
 20
292.227136
 42
-0.012062
  0
VERTEX
  8
0
 10
184.685766
 20
294.669588
 42
-0.262986
  0
VERTEX
  8
0
 10
184.000000
 20
295.883223
 42
-0.079354
  0
VERTEX
  8
0
 10
184.499041
 20
299.007820
 42
-0.021675
  0
VERTEX
  8
0
 10
186.264116
 20
303.695788
 42
-0.014349
  0
VERTEX
  8
0
 10
188.354665
 20
308.228578
 42
-0.284841
  0
VERTEX
  8
0
 10
189.598928
 20
309.000000
 42
-0.184181
  0
VERTEX
  8
0
 10
189.837897
 20
308.908882
 42
-0.001198
  0
VERTEX
  8
0
 10
191.544938
 20
307.378286
 42
-0.004553
  0
VERTEX
  8
0
 10
193.487749
 20
305.595561
 42
-0.002865
  0
SEQEND
  0
POLYLINE
  8
0
 66
1
 70
1
  0
VERTEX
  8
0
 10
376.000000
 20
306.559017
 42
-0.033473
  0
VERTEX
  8
0
 10
375.934684
 20
305.584464
 42
-0.038630
  0
VERTEX
  8
0
 10
375.739646
 20
304.674165
 42
-0.042227
  0
VERTEX
  8
0
 10
375.455069
 20
303.946277
 42
-0.140954
  0
VERTEX
  8
0
 10
375.113690
 20
303.570264
 42
-0.405143
  0
VERTEX
  8
0
 10
374.382137
 20
303.731006
 42
-0.067195
  0
VERTEX
  8
0
 10
373.689911
 20
305.162358
 42
-0.056420
  0
VERTEX
  8
0
 10
373.320028
 20
306.954376
 42
-0.162509
  0
VERTEX
  8
0
 10
373.607255
 20
308.173541
 42
-0.129440
  0
VERTEX
  8
0
 10
374.392115
 20
308.919175
 42
-0.281045
  0
VERTEX
  8
0
 10
375.191372
 20
308.882680
 42
-0.179110
  0
VERTEX
  8
0
 10
375.800979
 20
308.033730
 42
-0.067173
  0
SEQEND
  0
POLYLINE
  8
0
 66
1
 70
1
  0
VERTEX
  8
0
 10
385.000000
 20
302.940983
 42
-0.045552
  0
VERTEX
  8
0
 10
384.931736
 20
302.193244
 42
-0.099152
  0
VERTEX
  8
0
 10
384.719079
 20
301.660421
 42
-0.177225
  0
VERTEX
  8
0
 10
384.405148
 20
301.425420
 42
-0.214542
  0
VERTEX
  8
0
 10
384.043674
 20
301.473008
 42
-0.126981
  0
VERTEX
  8
0
 10
383.720854
 20
301.809536
 42
-0.081026
  0
VERTEX
  8
0
 10
383.533742
 20
302.321649
 42
-0.072258
  0
VERTEX
  8
0
 10
383.506898
 20
302.926665
 42
-0.066719
  0
VERTEX
  8
0
 10
383.650663
 20
303.532025
 42
-0.027681
  0
VERTEX
  8
0
 10
384.205874
 20
304.769457
 42
-0.395517
  0
VERTEX
  8
0
 10
384.622791
 20
304.917133
 42
-0.275668
  0
VERTEX
  8
0
 10
384.936989
 20
304.476999
 42
-0.020503
  0
SEQEND
  0
POLYLINE
  8
0
 66
1
 70
1
  0
VERTEX
  8
0
 10
193.027124
 20
286.634171
 42
0.016259
  0
VERTEX
  8
0
 10
195.542540
 20
285.600782
 42
0.009695
  0
VERTEX
  8
0
 10
198.596089
 20
284.527852
 42
0.009700
  0
VERTEX
  8
0
 10
201.682975
 20
283.575987
 42
0.016540
  0
VERTEX
  8
0
 10
204.299988
 20
282.917142
 42
-0.009457
  0
VERTEX
  8
0
 10
207.759931
 20
282.098018
 42
-0.087646
  0
VERTEX
  8
0
 10
209.154632
 20
281.464742
 42
-0.193622
  0
VERTEX
  8
0
 10
209.737979
 20
280.588228
 42
-0.081049
  0
VERTEX
  8
0
 10
209.799988
 20
279.145746
 42
-0.064425
  0
VERTEX
  8
0
 10
209.500534
 20
277.960420
 42
-0.094364
  0
VERTEX
  8
0
 10
208.926714
 20
277.053847
 42
-0.088800
  0
VERTEX
  8
0
 10
208.030661
 20
276.385038
 42
-0.051230
  0
VERTEX
  8
0
 10
206.768183
 20
275.907409
 42
-0.080020
  0
VERTEX
  8
0
 10
202.973213
 20
275.528117
 42
-0.019048
  0
VERTEX
  8
0
 10
196.634787
 20
276.152400
 42
-0.020010
  0
VERTEX
  8
0
 10
190.266929
 20
277.286709
 42
-0.059719
  0
VERTEX
  8
0
 10
186.094008
 20
278.742167
 42
-0.030433
  0
VERTEX
  8
0
 10
184.089229
 20
279.878711
 42
-0.106248
  0
VERTEX
  8
0
 10
183.046676
 20
280.927308
 42
-0.099898
  0
VERTEX
  8
0
 10
182.492920
 20
282.347971
 42
-0.025183
  0
VERTEX
  8
0
 10
182.188891
 20
284.823905
 42
-0.040673
  0
VERTEX
  8
0
 10
182.221886
 20
288.306575
 42
-0.121857
  0
VERTEX
  8
0
 10
182.994993
 20
290.539645
 42
-0.263351
  0
VERTEX
  8
0
 10
184.310972
 20
291.224718
 42
-0.176946
  0
VERTEX
  8
0
 10
185.920507
 20
290.571940
 42
0.047005
  0
VERTEX
  8
0
 10
186.889841
 20
289.847779
 42
0.010425
  0
VERTEX
  8
0
 10
188.681994
 20
288.805333
 42
0.010744
  0
VERTEX
  8
0
 10
190.812069
 20
287.684189
 42
0.010174
  0
SEQEND
  0
POLYLINE
  8
0
 66
1
 70
1
  0
VERTEX
  8
0
 10
192.000000
 20
273.594474
 42
0.024495
  0
VERTEX
  8
0
 10
194.587464
 20
272.990810
 42
0.012832
  0
VERTEX
  8
0
 10
197.855396
 20
272.481655
 42
0.012734
  0
VERTEX
  8
0
 10
201.239873
 20
272.130337
 42
0.019052
  0
VERTEX
  8
0
 10
204.209858
 20
272.011869
 42
0.000000
  0
VERTEX
  8
0
 10
210.919717
 20
272.000000
 42
0.000000
  0
VERTEX
  8
0
 10
212.127762
 20
267.967904
 42
-0.037289
  0
VERTEX
  8
0
 10
212.791265
 20
264.952033
 42
-0.200177
  0
VERTEX
  8
0
 10
212.378890
 20
263.357816
 42
-0.136907
  0
VERTEX
  8
0
 10
210.839431
 20
262.186490
 42
-0.014586
  0
VERTEX
  8
0
 10
206.571861
 20
260.632915
 42
-0.024941
  0
VERTEX
  8
0
 10
202.384543
 20
259.473643
 42
-0.053303
  0
VERTEX
  8
0
 10
199.054563
 20
259.093350
 42
-0.051742
  0
VERTEX
  8
0
 10
195.657788
 20
259.421090
 42
-0.022277
  0
VERTEX
  8
0
 10
191.236442
 20
260.522425
 42
-0.051526
  0
VERTEX
  8
0
 10
187.003168
 20
262.270619
 42
-0.097271
  0
VERTEX
  8
0
 10
184.161187
 20
264.609164
 42
-0.105015
  0
VERTEX
  8
0
 10
182.547866
 20
267.715051
 42
-0.067556
  0
VERTEX
  8
0
 10
182.000000
 20
271.751436
 42
-0.029178
  0
VERTEX
  8
0
 10
182.181705
 20
274.862509
 42
-0.329132
  0
VERTEX
  8
0
 10
182.977278
 20
275.712043
 42
-0.112638
  0
VERTEX
  8
0
 10
184.671851
 20
275.640706
 42
-0.002945
  0
SEQEND
  0
POLYLINE
  8
0
 66
1
 70
1
  0
VERTEX
  8
0
 10
199.500000
 20
256.000000
 42
0.026967
  0
VERTEX
  8
0
 10
201.452925
 20
256.105405
 42
0.013632
  0
VERTEX
  8
0
 10
203.895634
 20
256.437445
 42
0.013498
  0
VERTEX
  8
0
 10
206.406398
 20
256.918647
 42
0.019548
  0
VERTEX
  8
0
 10
208.591069
 20
257.489176
 42
-0.011750
  0
VERTEX
  8
0
 10
213.342339
 20
258.809440
 42
-0.096819
  0
VERTEX
  8
0
 10
215.572633
 20
258.931118
 42
-0.273222
  0
VERTEX
  8
0
 10
216.596225
 20
258.116904
 42
-0.121572
  0
VERTEX
  8
0
 10
216.816422
 20
256.342344
 42
-0.225785
  0
VERTEX
  8
0
 10
214.355671
 20
252.440191
 42
-0.047870
  0
VERTEX
  8
0
 10
206.984713
 20
248.711006
 42
-0.048671
  0
VERTEX
  8
0
 10
198.468778
 20
246.304125
 42
-0.106421
  0
VERTEX
  8
0
 10
191.726499
 20
246.532508
 42
-0.087419
  0
VERTEX
  8
0
 10
190.418414
 20
247.117134
 42
-0.069719
  0
VERTEX
  8
0
 10
189.269173
 20
248.153725
 42
-0.051353
  0
VERTEX
  8
0
 10
188.181193
 20
249.760994
 42
-0.021551
  0
VERTEX
  8
0
 10
187.045158
 20
252.116664
 42
-0.014540
  0
VERTEX
  8
0
 10
186.269906
 20
254.073650
 42
-0.020428
  0
VERTEX
  8
0
 10
185.701844
 20
255.863950
 42
-0.017232
  0
VERTEX
  8
0
 10
185.352280
 20
257.343962
 42
-0.190001
  0
VERTEX
  8
0
 10
185.458151
 20
257.932287
 42
-0.257361
  0
VERTEX
  8
0
 10
185.925205
 20
258.195646
 42
-0.027803
  0
VERTEX
  8
0
 10
187.208007
 20
258.136662
 42
-0.028614
  0
VERTEX
  8
0
 10
188.833001
 20
257.876500
 42
-0.019094
  0
VERTEX
  8
0
 10
190.657693
 20
257.402505
 42
0.020268
  0
VERTEX
  8
0
 10
192.746674
 20
256.865087
 42
0.013493
  0
VERTEX
  8
0
 10
195.177440
 20
256.411986
 42
0.013595
  0
VERTEX
  8
0
 10
197.563698
 20
256.099736
 42
0.025737
  0
SEQEND
  0
POLYLINE
  8
0
 66
1
 70
1
  0
VERTEX
  8
0
 10
224.000000
 20
247.352122
 42
-0.186507
  0
VERTEX
  8
0
 10
222.980878
 20
244.715035
 42
-0.025218
  0
VERTEX
  8
0
 10
218.698392
 20
240.454604
 42
-0.029230
  0
VERTEX
  8
0
 10
213.417960
 20
236.237113
 42
-0.039812
  0
VERTEX
  8
0
 10
208.180146
 20
233.126365
 42
0.000000
  0
VERTEX
  8
0
 10
202.860293
 20
230.514845
 42
0.000000
  0
VERTEX
  8
0
 10
197.770916
 20
235.849996
 42
-0.017643
  0
VERTEX
  8
0
 10
194.367158
 20
239.679981
 42
-0.203384
  0
VERTEX
  8
0
 10
193.804198
 20
241.566718
 42
-0.337271
  0
VERTEX
  8
0
 10
194.868172
 20
242.681888
 42
-0.038348
  0
VERTEX
  8
0
 10
198.568499
 20
242.984687
 42
0.052954
  0
VERTEX
  8
0
 10
202.478864
 20
243.419738
 42
0.028153
  0
VERTEX
  8
0
 10
207.175244
 20
244.734179
 42
0.027620
  0
VERTEX
  8
0
 10
211.890676
 20
246.641779
 42
0.037334
  0
VERTEX
  8
0
 10
215.893346
 20
248.903239
 42
-0.013978
  0
VERTEX
  8
0
 10
218.294810
 20
250.412042
 42
-0.064154
  0
VERTEX
  8
0
 10
219.803957
 20
251.058783
 42
-0.112386
  0
VERTEX
  8
0
 10
220.983070
 20
251.121224
 42
-0.097134
  0
VERTEX
  8
0
 10
222.143346
 20
250.678406
 42
-0.073279
  0
VERTEX
  8
0
 10
222.853709
 20
250.074536
 42
-0.052763
  0
VERTEX
  8
0
 10
223.454608
 20
249.223017
 42
-0.052867
  0
VERTEX
  8
0
 10
223.862764
 20
248.266881
 42
-0.074595
  0
SEQEND
  0
POLYLINE
  8
0
 66
1
 70
1
  0
VERTEX
  8
0
 10
233.923889
 20
241.548047
 42
-0.024994
  0
VERTEX
  8
0
 10
235.484446
 20
240.450188
 42
-0.031640
  0
VERTEX
  8
0
 10
236.802642
 20
239.279242
 42
-0.033014
  0
VERTEX
  8
0
 10
237.745646
 20
238.193647
 42
-0.163745
  0
VERTEX
  8
0
 10
238.000000
 20
237.437795
 42
-0.145140
  0
VERTEX
  8
0
 10
236.798181
 20
233.384800
 42
-0.050588
  0
VERTEX
  8
0
 10
232.942446
 20
228.593510
 42
-0.049916
  0
VERTEX
  8
0
 10
227.925202
 20
224.432881
 42
-0.086214
  0
VERTEX
  8
0
 10
222.989546
 20
222.225315
 42
-0.033201
  0
VERTEX
  8
0
 10
220.726340
 20
221.808336
 42
-0.065320
  0
VERTEX
  8
0
 10
218.899919
 20
221.835065
 42
-0.054764
  0
VERTEX
  8
0
 10
216.942456
 20
222.344296
 42
-0.017486
  0
VERTEX
  8
0
 10
214.165947
 20
223.514572
 42
-0.011149
  0
VERTEX
  8
0
 10
212.235761
 20
224.461672
 42
-0.014310
  0
VERTEX
  8
0
 10
210.506738
 20
225.422196
 42
-0.012155
  0
VERTEX
  8
0
 10
209.117660
 20
226.293090
 42
-0.108651
  0
VERTEX
  8
0
 10
208.619228
 20
226.807085
 42
-0.331347
  0
VERTEX
  8
0
 10
208.672221
 20
227.419252
 42
-0.019079
  0
VERTEX
  8
0
 10
210.057840
 20
228.864239
 42
-0.022931
  0
VERTEX
  8
0
 10
211.986475
 20
230.563860
 42
-0.014182
  0
VERTEX
  8
0
 10
214.395475
 20
232.388161
 42
0.015631
  0
VERTEX
  8
0
 10
217.083340
 20
234.435921
 42
0.012313
  0
VERTEX
  8
0
 10
219.865954
 20
236.812833
 42
0.012497
  0
VERTEX
  8
0
 10
222.343362
 20
239.151249
 42
0.029860
  0
VERTEX
  8
0
 10
224.028213
 20
241.035621
 42
-0.028191
  0
VERTEX
  8
0
 10
226.381239
 20
243.685028
 42
-0.186227
  0
VERTEX
  8
0
 10
227.969551
 20
244.394272
 42
-0.140691
  0
VERTEX
  8
0
 10
229.864900
 20
243.954865
 42
-0.013936
  0
SEQEND
  0
POLYLINE
  8
0
 66
1
 70
1
  0
VERTEX
  8
0
 10
250.200884
 20
233.768271
 42
-0.190926
  0
VERTEX
  8
0
 10
250.863250
 20
230.637614
 42
-0.025835
  0
VERTEX
  8
0
 10
249.367142
 20
223.961887
 42
-0.026332
  0
VERTEX
  8
0
 10
247.181481
 20
217.470480
 42
-0.177317
  0
VERTEX
  8
0
 10
244.957231
 20
214.977111
 42
-0.160264
  0
VERTEX
  8
0
 10
241.930133
 20
214.446349
 42
-0.018260
  0
VERTEX
  8
0
 10
235.011619
 20
215.710805
 42
-0.014340
  0
VERTEX
  8
0
 10
228.140046
 20
217.435894
 42
-0.335878
  0
VERTEX
  8
0
 10
227.000000
 20
218.941551
 42
-0.194955
  0
VERTEX
  8
0
 10
227.175747
 20
219.375159
 42
-0.014787
  0
VERTEX
  8
0
 10
228.101562
 20
220.274811
 42
-0.018634
  0
VERTEX
  8
0
 10
229.313390
 20
221.304318
 42
-0.013038
  0
VERTEX
  8
0
 10
230.750000
 20
222.375935
 42
0.025349
  0
VERTEX
  8
0
 10
232.367961
 20
223.645980
 42
0.015879
  0
VERTEX
  8
0
 10
234.132812
 20
225.283367
 42
0.015932
  0
VERTEX
  8
0
 10
235.772329
 20
227.011020
 42
0.027839
  0
VERTEX
  8
0
 10
237.000000
 20
228.555198
 42
-0.003285
  0
VERTEX
  8
0
 10
241.129329
 20
234.307487
 42
-0.066255
  0
VERTEX
  8
0
 10
242.611628
 20
235.862389
 42
-0.184062
  0
VERTEX
  8
0
 10
243.997017
 20
236.310649
 42
-0.057107
  0
VERTEX
  8
0
 10
246.194109
 20
235.944330
 42
-0.026997
  0
VERTEX
  8
0
 10
247.467518
 20
235.503484
 42
-0.027574
  0
VERTEX
  8
0
 10
248.676774
 20
234.930650
 42
-0.028662
  0
VERTEX
  8
0
 10
249.665705
 20
234.317732
 42
-0.093481
  0
SEQEND
  0
POLYLINE
  8
0
 66
1
 70
1
  0
VERTEX
  8
0
 10
261.799175
 20
232.390165
 42
-0.125138
  0
VERTEX
  8
0
 10
264.307308
 20
231.189787
 42
-0.124128
  0
VERTEX
  8
0
 10
265.946640
 20
228.934046
 42
-0.080045
  0
VERTEX
  8
0
 10
266.761776
 20
225.317775
 42
-0.027254
  0
VERTEX
  8
0
 10
266.802058
 20
219.917215
 42
0.000000
  0
VERTEX
  8
0
 10
266.500000
 20
213.500000
 42
0.000000
  0
VERTEX
  8
0
 10
259.500000
 20
213.242830
 42
-0.013166
  0
VERTEX
  8
0
 10
253.536828
 20
213.180857
 42
-0.149584
  0
VERTEX
  8
0
 10
251.319907
 20
213.898103
 42
-0.283384
  0
VERTEX
  8
0
 10
250.624770
 20
215.503449
 42
-0.048923
  0
VERTEX
  8
0
 10
251.452630
 20
218.865738
 42
0.017723
  0
VERTEX
  8
0
 10
252.071337
 20
220.839647
 42
0.009615
  0
VERTEX
  8
0
 10
252.698330
 20
223.304698
 42
0.009568
  0
VERTEX
  8
0
 10
253.240697
 20
225.840551
 42
0.014922
  0
VERTEX
  8
0
 10
253.600363
 20
228.045039
 42
-0.036105
  0
VERTEX
  8
0
 10
254.288435
 20
231.369958
 42
-0.204590
  0
VERTEX
  8
0
 10
255.400743
 20
232.745868
 42
-0.154003
  0
VERTEX
  8
0
 10
257.370275
 20
233.107785
 42
-0.018382
  0
SEQEND
  0
POLYLINE
  8
0
 66
1
 70
1
  0
VERTEX
  8
0
 10
279.443296
 20
228.777494
 42
-0.112485
  0
VERTEX
  8
0
 10
280.564317
 20
226.026754
 42
-0.036044
  0
VERTEX
  8
0
 10
280.967377
 20
221.604843
 42
-0.035583
  0
VERTEX
  8
0
 10
280.737322
 20
217.209564
 42
-0.127673
  0
VERTEX
  8
0
 10
279.710116
 20
214.618238
 42
-0.085895
  0
VERTEX
  8
0
 10
278.879913
 20
213.816344
 42
-0.082381
  0
VERTEX
  8
0
 10
277.816803
 20
213.325825
 42
-0.061690
  0
VERTEX
  8
0
 10
276.397638
 20
213.119059
 42
-0.025708
  0
VERTEX
  8
0
 10
274.460116
 20
213.177108
 42
0.000000
  0
VERTEX
  8
0
 10
270.500000
 20
213.500000
 42
0.000000
  0
VERTEX
  8
0
 10
270.328518
 20
222.250000
 42
0.000000
  0
VERTEX
  8
0
 10
270.157035
 20
231.000000
 42
0.000000
  0
VERTEX
  8
0
 10
274.021814
 20
231.000000
 42
-0.030964
  0
VERTEX
  8
0
 10
275.941013
 20
230.881034
 42
-0.066406
  0
VERTEX
  8
0
 10
277.373090
 20
230.505535
 42
-0.079370
  0
VERTEX
  8
0
 10
278.492317
 20
229.823241
 42
-0.063565
  0
SEQEND
  0
POLYLINE
  8
0
 66
1
 70
1
  0
VERTEX
  8
0
 10
294.927420
 20
228.365141
 42
-0.108906
  0
VERTEX
  8
0
 10
296.350603
 20
225.415606
 42
-0.042796
  0
VERTEX
  8
0
 10
297.015632
 20
220.926148
 42
-0.041560
  0
VERTEX
  8
0
 10
296.921338
 20
216.551227
 42
-0.171856
  0
VERTEX
  8
0
 10
295.800000
 20
214.200000
 42
-0.120635
  0
VERTEX
  8
0
 10
295.034215
 20
213.735443
 42
-0.026952
  0
VERTEX
  8
0
 10
293.542500
 20
213.352500
 42
-0.026473
  0
VERTEX
  8
0
 10
291.725588
 20
213.088184
 42
-0.022886
  0
VERTEX
  8
0
 10
289.800000
 20
213.000000
 42
0.000000
  0
VERTEX
  8
0
 10
285.000000
 20
213.000000
 42
0.000000
  0
VERTEX
  8
0
 10
285.000000
 20
218.256602
 42
0.014817
  0
VERTEX
  8
0
 10
284.933464
 20
220.501336
 42
0.012043
  0
VERTEX
  8
0
 10
284.733097
 20
222.899714
 42
0.012224
  0
VERTEX
  8
0
 10
284.440997
 20
225.101736
 42
0.030753
  0
VERTEX
  8
0
 10
284.091394
 20
226.681329
 42
-0.020110
  0
VERTEX
  8
0
 10
283.785407
 20
227.936679
 42
-0.027521
  0
VERTEX
  8
0
 10
283.618677
 20
229.087804
 42
-0.026846
  0
VERTEX
  8
0
 10
283.585920
 20
230.019807
 42
-0.194096
  0
VERTEX
  8
0
 10
283.758060
 20
230.424727
 42
-0.153986
  0
VERTEX
  8
0
 10
284.192225
 20
230.650662
 42
-0.013965
  0
VERTEX
  8
0
 10
285.415943
 20
230.831014
 42
-0.017074
  0
VERTEX
  8
0
 10
286.920175
 20
230.958052
 42
-0.012528
  0
VERTEX
  8
0
 10
288.594087
 20
231.000000
 42
-0.027272
  0
VERTEX
  8
0
 10
290.850152
 20
230.876852
 42
-0.071418
  0
VERTEX
  8
0
 10
292.417838
 20
230.473791
 42
-0.082238
  0
VERTEX
  8
0
 10
293.677713
 20
229.686796
 42
-0.045486
  0
SEQEND
  0
POLYLINE
  8
0
 66
1
 70
1
  0
VERTEX
  8
0
 10
309.714914
 20
228.375201
 42
-0.098780
  0
VERTEX
  8
0
 10
310.235211
 20
227.253917
 42
-0.022383
  0
VERTEX
  8
0
 10
310.639138
 20
225.184593
 42
-0.021355
  0
VERTEX
  8
0
 10
310.910383
 20
222.618489
 42
-0.015653
  0
VERTEX
  8
0
 10
311.000000
 20
219.756611
 42
0.000000
  0
VERTEX
  8
0
 10
311.000000
 20
212.895481
 42
0.000000
  0
VERTEX
  8
0
 10
305.750000
 20
213.197740
 42
0.000000
  0
VERTEX
  8
0
 10
300.500000
 20
213.500000
 42
0.000000
  0
VERTEX
  8
0
 10
300.821984
 20
218.500000
 42
0.021774
  0
VERTEX
  8
0
 10
300.866062
 20
220.622133
 42
0.018397
  0
VERTEX
  8
0
 10
300.732389
 20
222.863713
 42
0.018792
  0
VERTEX
  8
0
 10
300.457957
 20
224.900497
 42
0.048119
  0
VERTEX
  8
0
 10
300.064830
 20
226.333916
 42
-0.029114
  0
VERTEX
  8
0
 10
299.698674
 20
227.494422
 42
-0.033374
  0
VERTEX
  8
0
 10
299.489749
 20
228.638039
 42
-0.035491
  0
VERTEX
  8
0
 10
299.447729
 20
229.614159
 42
-0.132173
  0
VERTEX
  8
0
 10
299.622492
 20
230.198196
 42
-0.266177
  0
VERTEX
  8
0
 10
301.056233
 20
230.975751
 42
-0.038856
  0
VERTEX
  8
0
 10
304.481317
 20
230.628533
 42
-0.040989
  0
VERTEX
  8
0
 10
307.926153
 20
229.709785
 42
-0.150331
  0
SEQEND
  0
POLYLINE
  8
0
 66
1
 70
1
  0
VERTEX
  8
0
 10
324.705427
 20
226.503637
 42
-0.072406
  0
VERTEX
  8
0
 10
326.400961
 20
223.893179
 42
-0.056060
  0
VERTEX
  8
0
 10
327.467090
 20
220.670334
 42
-0.056376
  0
VERTEX
  8
0
 10
327.786495
 20
217.312514
 42
-0.075682
  0
VERTEX
  8
0
 10
327.273502
 20
214.303668
 42
-0.050001
  0
VERTEX
  8
0
 10
326.612673
 20
212.823357
 42
-0.122507
  0
VERTEX
  8
0
 10
325.793746
 20
211.967901
 42
-0.098791
  0
VERTEX
  8
0
 10
324.552762
 20
211.491603
 42
-0.025782
  0
VERTEX
  8
0
 10
322.422279
 20
211.239089
 42
-0.044175
  0
VERTEX
  8
0
 10
318.965213
 20
211.314704
 42
-0.162870
  0
VERTEX
  8
0
 10
317.008494
 20
212.219366
 42
-0.149653
  0
VERTEX
  8
0
 10
315.894891
 20
214.174613
 42
-0.035496
  0
VERTEX
  8
0
 10
315.329136
 20
217.926568
 42
0.012873
  0
VERTEX
  8
0
 10
315.103219
 20
220.081757
 42
0.011538
  0
VERTEX
  8
0
 10
314.760094
 20
222.303024
 42
0.011654
  0
VERTEX
  8
0
 10
314.359541
 20
224.282648
 42
0.035107
  0
VERTEX
  8
0
 10
313.961707
 20
225.600717
 42
-0.024238
  0
VERTEX
  8
0
 10
313.053283
 20
228.389954
 42
-0.260488
  0
VERTEX
  8
0
 10
313.329317
 20
229.502202
 42
-0.222755
  0
VERTEX
  8
0
 10
314.468831
 20
229.956720
 42
-0.018177
  0
VERTEX
  8
0
 10
317.750000
 20
229.643505
 42
-0.028070
  0
VERTEX
  8
0
 10
320.025935
 20
229.211355
 42
-0.045098
  0
VERTEX
  8
0
 10
321.890927
 20
228.564401
 42
-0.051406
  0
VERTEX
  8
0
 10
323.425565
 20
227.671894
 42
-0.055235
  0
SEQEND
  0
POLYLINE
  8
0
 66
1
 70
1
  0
VERTEX
  8
0
 10
339.750000
 20
224.437095
 42
-0.110451
  0
VERTEX
  8
0
 10
341.970440
 20
222.885925
 42
-0.156901
  0
VERTEX
  8
0
 10
342.966568
 20
220.712459
 42
-0.103781
  0
VERTEX
  8
0
 10
342.695912
 20
217.656649
 42
-0.032778
  0
VERTEX
  8
0
 10
341.070196
 20
213.346637
 42
-0.052669
  0
VERTEX
  8
0
 10
339.402435
 20
210.509776
 42
-0.108872
  0
VERTEX
  8
0
 10
337.474125
 20
208.828053
 42
-0.138054
  0
VERTEX
  8
0
 10
335.338956
 20
208.337265
 42
-0.111194
  0
VERTEX
  8
0
 10
333.060412
 20
208.967669
 42
-0.082581
  0
VERTEX
  8
0
 10
332.083532
 20
209.719876
 42
-0.103147
  0
VERTEX
  8
0
 10
331.492117
 20
210.697047
 42
-0.071376
  0
VERTEX
  8
0
 10
331.212196
 20
212.105560
 42
-0.022066
  0
VERTEX
  8
0
 10
331.191510
 20
214.273068
 42
0.017123
  0
VERTEX
  8
0
 10
331.192166
 20
216.205997
 42
0.009787
  0
VERTEX
  8
0
 10
331.067396
 20
218.536905
 42
0.009768
  0
VERTEX
  8
0
 10
330.849889
 20
220.879419
 42
0.015973
  0
VERTEX
  8
0
 10
330.563645
 20
222.852567
 42
0.000000
  0
VERTEX
  8
0
 10
329.789547
 20
227.205134
 42
0.000000
  0
VERTEX
  8
0
 10
333.144774
 20
226.488635
 42
-0.014366
  0
VERTEX
  8
0
 10
334.664545
 20
226.118142
 42
-0.008325
  0
VERTEX
  8
0
 10
336.469090
 20
225.590439
 42
-0.008316
  0
VERTEX
  8
0
 10
338.262582
 20
225.000513
 42
-0.013840
  0
SEQEND
  0
POLYLINE
  8
0
 66
1
 70
1
  0
VERTEX
  8
0
 10
353.049660
 20
218.474320
 42
-0.077782
  0
VERTEX
  8
0
 10
355.106646
 20
216.966648
 42
-0.188902
  0
VERTEX
  8
0
 10
355.843600
 20
215.269399
 42
-0.130741
  0
VERTEX
  8
0
 10
355.342680
 20
213.068343
 42
-0.030568
  0
VERTEX
  8
0
 10
353.363999
 20
209.803751
 42
-0.065156
  0
VERTEX
  8
0
 10
351.134339
 20
207.342859
 42
-0.113525
  0
VERTEX
  8
0
 10
348.701482
 20
206.081091
 42
-0.127346
  0
VERTEX
  8
0
 10
346.162397
 20
206.083543
 42
-0.094550
  0
VERTEX
  8
0
 10
343.617401
 20
207.290496
 42
-0.044795
  0
VERTEX
  8
0
 10
342.659701
 20
208.131995
 42
-0.181998
  0
VERTEX
  8
0
 10
342.362474
 20
208.834399
 42
-0.119308
  0
VERTEX
  8
0
 10
342.542818
 20
209.736845
 42
-0.014810
  0
VERTEX
  8
0
 10
343.446231
 20
211.540496
 42
0.011191
  0
VERTEX
  8
0
 10
344.126139
 20
212.873736
 42
0.007329
  0
VERTEX
  8
0
 10
344.852389
 20
214.438458
 42
0.007373
  0
VERTEX
  8
0
 10
345.515417
 20
215.984428
 42
0.014017
  0
VERTEX
  8
0
 10
345.995209
 20
217.250000
 42
-0.084819
  0
VERTEX
  8
0
 10
346.991603
 20
219.058516
 42
-0.183559
  0
VERTEX
  8
0
 10
348.336833
 20
219.855621
 42
-0.128895
  0
VERTEX
  8
0
 10
350.234443
 20
219.694824
 42
-0.034098
  0
SEQEND
  0
POLYLINE
  8
0
 66
1
 70
1
  0
VERTEX
  8
0
 10
156.000000
 20
212.000000
 42
-0.018830
  0
VERTEX
  8
0
 10
155.927795
 20
210.083446
 42
-0.030530
  0
VERTEX
  8
0
 10
155.706250
 20
208.468750
 42
-0.031449
  0
VERTEX
  8
0
 10
155.389817
 20
207.280551
 42
-0.322437
  0
VERTEX
  8
0
 10
155.000000
 20
207.000000
 42
-0.322437
  0
VERTEX
  8
0
 10
154.610183
 20
207.280551
 42
-0.031449
  0
VERTEX
  8
0
 10
154.293750
 20
208.468750
 42
-0.030530
  0
VERTEX
  8
0
 10
154.072205
 20
210.083446
 42
-0.018830
  0
VERTEX
  8
0
 10
154.000000
 20
212.000000
 42
-0.018830
  0
VERTEX
  8
0
 10
154.072205
 20
213.916554
 42
-0.030530
  0
VERTEX
  8
0
 10
154.293750
 20
215.531250
 42
-0.031449
  0
VERTEX
  8
0
 10
154.610183
 20
216.719449
 42
-0.322437
  0
VERTEX
  8
0
 10
155.000000
 20
217.000000
 42
-0.322437
  0
VERTEX
  8
0
 10
155.389817
 20
216.719449
 42
-0.031449
  0
VERTEX
  8
0
 10
155.706250
 20
215.531250
 42
-0.030530
  0
VERTEX
  8
0
 10
155.927795
 20
213.916554
 42
-0.018830
  0
SEQEND
  0
POLYLINE
  8
0
 66
1
 70
1
  0
VERTEX
  8
0
 10
364.397935
 20
212.864550
 42
-0.036122
  0
VERTEX
  8
0
 10
365.393405
 20
212.321060
 42
-0.033747
  0
VERTEX
  8
0
 10
366.324464
 20
211.628683
 42
-0.035530
  0
VERTEX
  8
0
 10
367.065485
 20
210.898662
 42
-0.089094
  0
VERTEX
  8
0
 10
367.456868
 20
210.251805
 42
-0.192114
  0
VERTEX
  8
0
 10
367.432184
 20
208.381349
 42
-0.041200
  0
VERTEX
  8
0
 10
365.918634
 20
205.439371
 42
-0.042469
  0
VERTEX
  8
0
 10
363.886432
 20
202.723517
 42
-0.134854
  0
VERTEX
  8
0
 10
362.000328
 20
201.500104
 42
-0.142160
  0
VERTEX
  8
0
 10
360.103431
 20
201.452853
 42
-0.035765
  0
VERTEX
  8
0
 10
357.147750
 20
202.462019
 42
-0.033095
  0
VERTEX
  8
0
 10
354.507231
 20
203.792330
 42
-0.383272
  0
VERTEX
  8
0
 10
354.186221
 20
204.808662
 42
-0.028232
  0
VERTEX
  8
0
 10
355.701293
 20
207.701030
 42
-0.019545
  0
VERTEX
  8
0
 10
357.719700
 20
210.794885
 42
-0.012181
  0
VERTEX
  8
0
 10
359.764187
 20
213.532246
 42
-0.228488
  0
VERTEX
  8
0
 10
360.702947
 20
213.992298
 42
-0.059288
  0
VERTEX
  8
0
 10
361.328801
 20
213.921886
 42
-0.016441
  0
VERTEX
  8
0
 10
362.284565
 20
213.664199
 42
-0.016357
  0
VERTEX
  8
0
 10
363.355594
 20
213.298612
 42
-0.016470
  0
SEQEND
  0
POLYLINE
  8
0
 66
1
 70
1
  0
VERTEX
  8
0
 10
167.511189
 20
203.971035
 42
0.032998
  0
VERTEX
  8
0
 10
168.639881
 20
202.869983
 42
0.008972
  0
VERTEX
  8
0
 10
170.564893
 20
201.284152
 42
0.009036
  0
VERTEX
  8
0
 10
172.818829
 20
199.559748
 42
0.009280
  0
VERTEX
  8
0
 10
175.113978
 20
197.933521
 42
-0.032005
  0
VERTEX
  8
0
 10
178.633518
 20
195.191424
 42
-0.082740
  0
VERTEX
  8
0
 10
180.650720
 20
192.696076
 42
-0.088516
  0
VERTEX
  8
0
 10
181.673830
 20
189.786742
 42
-0.040418
  0
VERTEX
  8
0
 10
182.000000
 20
185.758423
 42
-0.061968
  0
VERTEX
  8
0
 10
181.878249
 20
184.779829
 42
-0.198637
  0
VERTEX
  8
0
 10
181.493746
 20
184.263106
 42
-0.150902
  0
VERTEX
  8
0
 10
180.772319
 20
184.087053
 42
-0.032185
  0
VERTEX
  8
0
 10
179.476133
 20
184.249313
 42
0.034573
  0
VERTEX
  8
0
 10
178.470717
 20
184.370306
 42
0.043863
  0
VERTEX
  8
0
 10
177.536451
 20
184.335701
 42
0.050100
  0
VERTEX
  8
0
 10
176.795388
 20
184.166240
 42
0.174824
  0
VERTEX
  8
0
 10
176.417116
 20
183.865891
 42
-0.191912
  0
VERTEX
  8
0
 10
175.405351
 20
183.115714
 42
-0.136570
  0
VERTEX
  8
0
 10
173.978570
 20
183.133785
 42
-0.095908
  0
VERTEX
  8
0
 10
172.348333
 20
183.972902
 42
-0.059494
  0
VERTEX
  8
0
 10
170.821340
 20
185.500000
 42
0.048766
  0
VERTEX
  8
0
 10
169.730107
 20
186.639029
 42
0.066707
  0
VERTEX
  8
0
 10
168.540354
 20
187.411996
 42
0.065593
  0
VERTEX
  8
0
 10
167.173192
 20
187.852861
 42
0.045266
  0
VERTEX
  8
0
 10
165.551250
 20
188.000000
 42
-0.034266
  0
VERTEX
  8
0
 10
163.508374
 20
188.140168
 42
-0.207167
  0
VERTEX
  8
0
 10
162.620811
 20
188.678938
 42
-0.125193
  0
VERTEX
  8
0
 10
162.166247
 20
189.859356
 42
-0.009754
  0
VERTEX
  8
0
 10
161.829520
 20
193.250000
 42
-0.011766
  0
VERTEX
  8
0
 10
161.697674
 20
195.604125
 42
-0.007489
  0
VERTEX
  8
0
 10
161.649822
 20
198.347854
 42
-0.007522
  0
VERTEX
  8
0
 10
161.683731
 20
201.042344
 42
-0.013839
  0
VERTEX
  8
0
 10
161.804956
 20
203.232058
 42
-0.010240
  0
VERTEX
  8
0
 10
162.077546
 20
205.857373
 42
-0.092072
  0
VERTEX
  8
0
 10
162.426209
 20
206.955023
 42
-0.276529
  0
VERTEX
  8
0
 10
162.989708
 20
207.292824
 42
-0.123587
  0
VERTEX
  8
0
 10
163.860455
 20
207.074682
 42
-0.037968
  0
VERTEX
  8
0
 10
164.636660
 20
206.580114
 42
-0.015346
  0
VERTEX
  8
0
 10
165.618401
 20
205.796094
 42
-0.015081
  0
VERTEX
  8
0
 10
166.627950
 20
204.883982
 42
-0.018522
  0
SEQEND
  0
POLYLINE
  8
0
 66
1
 70
1
  0
VERTEX
  8
0
 10
378.837236
 20
202.606647
 42
-0.175336
  0
VERTEX
  8
0
 10
378.544514
 20
200.756206
 42
-0.057646
  0
VERTEX
  8
0
 10
376.919821
 20
198.476569
 42
-0.057439
  0
VERTEX
  8
0
 10
374.786729
 20
196.599342
 42
-0.152908
  0
VERTEX
  8
0
 10
372.872739
 20
196.000000
 42
-0.073011
  0
VERTEX
  8
0
 10
370.876001
 20
196.293130
 42
-0.038060
  0
VERTEX
  8
0
 10
368.523147
 20
197.199251
 42
-0.033959
  0
VERTEX
  8
0
 10
366.505221
 20
198.332196
 42
-0.253032
  0
VERTEX
  8
0
 10
366.000000
 20
199.266611
 42
-0.131085
  0
VERTEX
  8
0
 10
366.149492
 20
199.827021
 42
-0.011667
  0
VERTEX
  8
0
 10
366.912770
 20
201.086893
 42
-0.014592
  0
VERTEX
  8
0
 10
367.917182
 20
202.563846
 42
-0.010864
  0
VERTEX
  8
0
 10
369.107302
 20
204.135480
 42
0.000000
  0
VERTEX
  8
0
 10
372.214604
 20
208.058768
 42
0.000000
  0
VERTEX
  8
0
 10
375.354034
 20
206.225242
 42
-0.034072
  0
VERTEX
  8
0
 10
376.580772
 20
205.391892
 42
-0.034922
  0
VERTEX
  8
0
 10
377.672239
 20
204.405950
 42
-0.037203
  0
VERTEX
  8
0
 10
378.489961
 20
203.419130
 42
-0.107243
  0
SEQEND
  0
POLYLINE
  8
0
 66
1
 70
1
  0
VERTEX
  8
0
 10
388.312909
 20
196.195281
 42
-0.018283
  0
VERTEX
  8
0
 10
390.328986
 20
193.930748
 42
-0.156524
  0
VERTEX
  8
0
 10
390.826452
 20
192.686449
 42
-0.204650
  0
VERTEX
  8
0
 10
390.435289
 20
191.558899
 42
-0.034483
  0
VERTEX
  8
0
 10
388.750000
 20
189.943562
 42
-0.085567
  0
VERTEX
  8
0
 10
386.296411
 20
188.523864
 42
-0.104134
  0
VERTEX
  8
0
 10
383.675181
 20
188.137582
 42
-0.099626
  0
VERTEX
  8
0
 10
381.031972
 20
188.840175
 42
-0.072378
  0
VERTEX
  8
0
 10
378.518342
 20
190.570581
 42
0.000000
  0
VERTEX
  8
0
 10
375.744639
 20
193.141163
 42
0.000000
  0
VERTEX
  8
0
 10
379.122319
 20
196.029941
 42
-0.034116
  0
VERTEX
  8
0
 10
381.994360
 20
198.165316
 42
-0.139172
  0
VERTEX
  8
0
 10
384.054978
 20
198.790470
 42
-0.158960
  0
VERTEX
  8
0
 10
385.977369
 20
198.201502
 42
-0.048598
  0
SEQEND
  0
POLYLINE
  8
0
 66
1
 70
1
  0
VERTEX
  8
0
 10
398.704990
 20
184.243102
 42
0.000000
  0
VERTEX
  8
0
 10
401.211230
 20
179.986204
 42
0.000000
  0
VERTEX
  8
0
 10
397.637734
 20
178.493102
 42
-0.020741
  0
VERTEX
  8
0
 10
394.450552
 20
177.314120
 42
-0.127998
  0
VERTEX
  8
0
 10
392.720358
 20
177.213278
 42
-0.135235
  0
VERTEX
  8
0
 10
391.207506
 20
177.972701
 42
-0.024150
  0
VERTEX
  8
0
 10
388.943629
 20
180.222861
 42
-0.023685
  0
VERTEX
  8
0
 10
386.688627
 20
182.939638
 42
-0.173934
  0
VERTEX
  8
0
 10
386.196035
 20
184.526430
 42
-0.226844
  0
VERTEX
  8
0
 10
386.886504
 20
185.822299
 42
-0.042152
  0
VERTEX
  8
0
 10
389.250000
 20
187.274114
 42
-0.049189
  0
VERTEX
  8
0
 10
392.398116
 20
188.488961
 42
-0.146079
  0
VERTEX
  8
0
 10
394.687252
 20
188.442906
 42
-0.139606
  0
VERTEX
  8
0
 10
396.640171
 20
187.141981
 42
-0.043436
  0
SEQEND
  0
POLYLINE
  8
0
 66
1
 70
1
  0
VERTEX
  8
0
 10
299.000000
 20
182.014351
 42
-0.041571
  0
VERTEX
  8
0
 10
298.949670
 20
181.410050
 42
-0.004776
  0
VERTEX
  8
0
 10
298.710930
 20
180.065584
 42
-0.005732
  0
VERTEX
  8
0
 10
298.392749
 20
178.469376
 42
-0.004644
  0
VERTEX
  8
0
 10
298.015931
 20
176.764351
 42
0.001887
  0
VERTEX
  8
0
 10
297.599974
 20
174.930290
 42
0.001495
  0
VERTEX
  8
0
 10
297.163780
 20
172.944841
 42
0.001511
  0
VERTEX
  8
0
 10
296.770189
 20
171.100477
 42
0.003772
  0
VERTEX
  8
0
 10
296.496879
 20
169.750000
 42
-0.045642
  0
VERTEX
  8
0
 10
296.065696
 20
168.269267
 42
-0.150788
  0
VERTEX
  8
0
 10
295.438769
 20
167.484260
 42
-0.123668
  0
VERTEX
  8
0
 10
294.397464
 20
167.102400
 42
-0.026356
  0
VERTEX
  8
0
 10
292.456197
 20
167.000000
 42
-0.030967
  0
VERTEX
  8
0
 10
290.609729
 20
167.114468
 42
-0.099346
  0
VERTEX
  8
0
 10
289.446182
 20
167.502471
 42
-0.118492
  0
VERTEX
  8
0
 10
288.638136
 20
168.264042
 42
-0.054000
  0
VERTEX
  8
0
 10
287.975249
 20
169.565100
 42
-0.061727
  0
VERTEX
  8
0
 10
287.227616
 20
172.619874
 42
-0.033787
  0
VERTEX
  8
0
 10
287.037836
 20
176.475636
 42
-0.031072
  0
VERTEX
  8
0
 10
287.326541
 20
180.054651
 42
-0.162093
  0
VERTEX
  8
0
 10
288.200000
 20
181.800000
 42
-0.167850
  0
VERTEX
  8
0
 10
290.019655
 20
182.685281
 42
-0.025093
  0
VERTEX
  8
0
 10
294.138852
 20
182.974184
 42
-0.021679
  0
VERTEX
  8
0
 10
298.191394
 20
182.878909
 42
-0.394765
  0
SEQEND
  0
POLYLINE
  8
0
 66
1
 70
1
  0
VERTEX
  8
0
 10
229.000000
 20
178.800000
 42
-0.022850
  0
VERTEX
  8
0
 10
228.952930
 20
177.770569
 42
-0.178281
  0
VERTEX
  8
0
 10
228.750000
 20
177.344219
 42
-0.339454
  0
VERTEX
  8
0
 10
228.413659
 20
177.303935
 42
-0.062607
  0
VERTEX
  8
0
 10
227.887132
 20
177.712868
 42
-0.074436
  0
VERTEX
  8
0
 10
227.512254
 20
178.219746
 42
-0.072722
  0
VERTEX
  8
0
 10
227.298536
 20
178.818176
 42
-0.077894
  0
VERTEX
  8
0
 10
227.273300
 20
179.413694
 42
-0.110560
  0
VERTEX
  8
0
 10
227.446149
 20
179.912868
 42
-0.044558
  0
VERTEX
  8
0
 10
228.138681
 20
180.837919
 42
-0.382301
  0
VERTEX
  8
0
 10
228.610971
 20
180.889506
 42
-0.217734
  0
VERTEX
  8
0
 10
228.929611
 20
180.333642
 42
-0.022936
  0
SEQEND
  0
POLYLINE
  8
0
 66
1
 70
1
  0
VERTEX
  8
0
 10
247.406958
 20
173.464807
 42
0.005706
  0
VERTEX
  8
0
 10
247.713709
 20
170.461441
 42
0.007037
  0
VERTEX
  8
0
 10
248.070986
 20
167.669350
 42
0.005911
  0
VERTEX
  8
0
 10
248.431052
 20
165.336923
 42
0.050398
  0
VERTEX
  8
0
 10
248.708624
 20
164.316930
 42
-0.317235
  0
VERTEX
  8
0
 10
248.492631
 20
163.463844
 42
-0.210695
  0
VERTEX
  8
0
 10
247.488271
 20
163.160719
 42
-0.050422
  0
VERTEX
  8
0
 10
245.069112
 20
163.709212
 42
-0.008099
  0
VERTEX
  8
0
 10
240.500000
 20
165.325047
 42
-0.027546
  0
VERTEX
  8
0
 10
238.204081
 20
166.326179
 42
-0.108808
  0
VERTEX
  8
0
 10
237.015725
 20
167.293131
 42
-0.103047
  0
VERTEX
  8
0
 10
236.309755
 20
168.698094
 42
-0.023378
  0
VERTEX
  8
0
 10
235.741493
 20
171.318994
 42
-0.025527
  0
VERTEX
  8
0
 10
235.514441
 20
173.272223
 42
-0.024111
  0
VERTEX
  8
0
 10
235.481433
 20
175.276159
 42
-0.025284
  0
VERTEX
  8
0
 10
235.630719
 20
177.085983
 42
-0.057680
  0
VERTEX
  8
0
 10
235.966742
 20
178.412525
 42
-0.059208
  0
VERTEX
  8
0
 10
236.701617
 20
179.818593
 42
-0.139846
  0
VERTEX
  8
0
 10
237.603198
 20
180.567303
 42
-0.088766
  0
VERTEX
  8
0
 10
239.033784
 20
180.914465
 42
-0.015251
  0
VERTEX
  8
0
 10
241.837318
 20
181.000000
 42
0.000000
  0
VERTEX
  8
0
 10
246.724137
 20
181.000000
 42
0.000000
  0
SEQEND
  0
POLYLINE
  8
0
 66
1
 70
1
  0
VERTEX
  8
0
 10
330.000000
 20
178.122445
 42
-0.117955
  0
VERTEX
  8
0
 10
329.899069
 20
177.700558
 42
-0.036411
  0
VERTEX
  8
0
 10
329.559375
 20
177.136985
 42
-0.034151
  0
VERTEX
  8
0
 10
329.074049
 20
176.541110
 42
-0.031583
  0
VERTEX
  8
0
 10
328.500000
 20
176.000000
 42
-0.027702
  0
VERTEX
  8
0
 10
327.682027
 20
175.394365
 42
-0.285199
  0
VERTEX
  8
0
 10
327.280049
 20
175.383790
 42
-0.243483
  0
VERTEX
  8
0
 10
327.048580
 20
175.749908
 42
-0.021530
  0
VERTEX
  8
0
 10
327.000000
 20
176.877555
 42
-0.064485
  0
VERTEX
  8
0
 10
327.108268
 20
177.713548
 42
-0.089651
  0
VERTEX
  8
0
 10
327.426683
 20
178.396259
 42
-0.107148
  0
VERTEX
  8
0
 10
327.911399
 20
178.840705
 42
-0.132926
  0
VERTEX
  8
0
 10
328.500000
 20
179.000000
 42
-0.056567
  0
VERTEX
  8
0
 10
329.073753
 20
178.934880
 42
-0.075975
  0
VERTEX
  8
0
 10
329.559375
 20
178.742218
 42
-0.095133
  0
VERTEX
  8
0
 10
329.884944
 20
178.457225
 42
-0.167044
  0
SEQEND
  0
POLYLINE
  8
0
 66
1
 70
1
  0
VERTEX
  8
0
 10
404.830824
 20
173.471956
 42
-0.027766
  0
VERTEX
  8
0
 10
405.408905
 20
171.990362
 42
-0.176325
  0
VERTEX
  8
0
 10
405.383007
 20
171.195549
 42
-0.179416
  0
VERTEX
  8
0
 10
404.852877
 20
170.611085
 42
-0.028941
  0
VERTEX
  8
0
 10
403.426239
 20
169.971956
 42
-0.044265
  0
VERTEX
  8
0
 10
400.599172
 20
169.174763
 42
-0.075282
  0
VERTEX
  8
0
 10
398.149500
 20
169.086298
 42
-0.098547
  0
VERTEX
  8
0
 10
396.255902
 20
169.694214
 42
-0.144058
  0
VERTEX
  8
0
 10
395.035184
 20
170.934259
 42
-0.024599
  0
VERTEX
  8
0
 10
394.188091
 20
172.723328
 42
-0.230028
  0
VERTEX
  8
0
 10
394.237114
 20
173.550902
 42
-0.181790
  0
VERTEX
  8
0
 10
394.934293
 20
174.137870
 42
-0.014760
  0
VERTEX
  8
0
 10
397.250000
 20
174.881220
 42
-0.018467
  0
VERTEX
  8
0
 10
400.628863
 20
175.723017
 42
-0.098072
  0
VERTEX
  8
0
 10
402.524390
 20
175.745230
 42
-0.162898
  0
VERTEX
  8
0
 10
403.793248
 20
175.040871
 42
-0.078548
  0
SEQEND
  0
POLYLINE
  8
0
 66
1
 70
1
  0
VERTEX
  8
0
 10
341.937232
 20
173.250000
 42
0.000000
  0
VERTEX
  8
0
 10
344.096031
 20
171.500000
 42
0.000000
  0
VERTEX
  8
0
 10
339.607558
 20
167.750000
 42
-0.010755
  0
VERTEX
  8
0
 10
336.191711
 20
165.018726
 42
-0.106806
  0
VERTEX
  8
0
 10
334.541238
 20
164.241363
 42
-0.208853
  0
VERTEX
  8
0
 10
333.211836
 20
164.489346
 42
-0.059828
  0
VERTEX
  8
0
 10
331.594173
 20
165.895940
 42
-0.051930
  0
VERTEX
  8
0
 10
330.698885
 20
167.119228
 42
-0.198955
  0
VERTEX
  8
0
 10
330.574209
 20
168.035430
 42
-0.106049
  0
VERTEX
  8
0
 10
331.122206
 20
169.117337
 42
-0.010096
  0
VERTEX
  8
0
 10
333.042778
 20
171.395940
 42
-0.039841
  0
VERTEX
  8
0
 10
335.514799
 20
173.795973
 42
-0.121968
  0
VERTEX
  8
0
 10
337.604657
 20
174.800972
 42
-0.150464
  0
VERTEX
  8
0
 10
339.650850
 20
174.609758
 42
-0.072458
  0
SEQEND
  0
POLYLINE
  8
0
 66
1
 70
1
  0
VERTEX
  8
0
 10
407.270055
 20
165.250000
 42
-0.057141
  0
VERTEX
  8
0
 10
407.899383
 20
164.368930
 42
-0.029964
  0
VERTEX
  8
0
 10
408.481408
 20
163.152193
 42
-0.029368
  0
VERTEX
  8
0
 10
408.934900
 20
161.817560
 42
-0.039652
  0
VERTEX
  8
0
 10
409.175043
 20
160.565975
 42
-0.040553
  0
VERTEX
  8
0
 10
409.224857
 20
158.862971
 42
-0.179937
  0
VERTEX
  8
0
 10
408.834170
 20
157.958850
 42
-0.131792
  0
VERTEX
  8
0
 10
407.865481
 20
157.371885
 42
-0.018175
  0
VERTEX
  8
0
 10
405.559639
 20
156.792051
 42
-0.049901
  0
VERTEX
  8
0
 10
402.592873
 20
156.463511
 42
-0.157392
  0
VERTEX
  8
0
 10
400.705472
 20
157.050771
 42
-0.147033
  0
VERTEX
  8
0
 10
399.440855
 20
158.663674
 42
-0.041709
  0
VERTEX
  8
0
 10
398.520410
 20
161.752619
 42
-0.025128
  0
VERTEX
  8
0
 10
398.235290
 20
163.565612
 42
-0.120851
  0
VERTEX
  8
0
 10
398.374674
 20
164.593396
 42
-0.154901
  0
VERTEX
  8
0
 10
398.952275
 20
165.303748
 42
-0.049919
  0
VERTEX
  8
0
 10
400.169970
 20
165.939233
 42
-0.034314
  0
VERTEX
  8
0
 10
402.563035
 20
166.712767
 42
-0.085409
  0
VERTEX
  8
0
 10
404.391459
 20
166.847645
 42
-0.107685
  0
VERTEX
  8
0
 10
405.896389
 20
166.363393
 42
-0.077791
  0
SEQEND
  0
POLYLINE
  8
0
 66
1
 70
1
  0
VERTEX
  8
0
 10
354.415925
 20
162.939675
 42
-0.041795
  0
VERTEX
  8
0
 10
355.975127
 20
161.321119
 42
-0.027008
  0
VERTEX
  8
0
 10
357.507290
 20
159.216080
 42
-0.025991
  0
VERTEX
  8
0
 10
358.877268
 20
156.841032
 42
-0.028309
  0
VERTEX
  8
0
 10
359.950722
 20
154.402162
 42
-0.032789
  0
VERTEX
  8
0
 10
361.170718
 20
150.350419
 42
-0.030473
  0
VERTEX
  8
0
 10
361.887211
 20
146.073618
 42
-0.027642
  0
VERTEX
  8
0
 10
362.072548
 20
142.354480
 42
-0.197489
  0
VERTEX
  8
0
 10
361.392857
 20
140.726190
 42
-0.359743
  0
VERTEX
  8
0
 10
360.953983
 20
140.684486
 42
-0.014951
  0
VERTEX
  8
0
 10
359.583142
 20
141.675223
 42
-0.020005
  0
VERTEX
  8
0
 10
357.930749
 20
143.054957
 42
-0.012140
  0
VERTEX
  8
0
 10
356.084709
 20
144.809524
 42
0.044453
  0
VERTEX
  8
0
 10
352.297198
 20
147.970219
 42
0.037419
  0
VERTEX
  8
0
 10
347.792349
 20
150.620453
 42
0.038975
  0
VERTEX
  8
0
 10
343.257276
 20
152.426893
 42
0.076028
  0
VERTEX
  8
0
 10
339.416667
 20
153.004946
 42
-0.027425
  0
VERTEX
  8
0
 10
338.573125
 20
153.049240
 42
-0.029599
  0
VERTEX
  8
0
 10
337.761074
 20
153.185691
 42
-0.030942
  0
VERTEX
  8
0
 10
337.085383
 20
153.385504
 42
-0.109437
  0
VERTEX
  8
0
 10
336.706138
 20
153.627195
 42
-0.353446
  0
VERTEX
  8
0
 10
336.566535
 20
154.940322
 42
-0.017011
  0
VERTEX
  8
0
 10
339.259576
 20
158.813352
 42
-0.024682
  0
VERTEX
  8
0
 10
342.325099
 20
162.520372
 42
-0.083491
  0
VERTEX
  8
0
 10
344.790761
 20
164.449382
 42
-0.046480
  0
VERTEX
  8
0
 10
347.513154
 20
165.614526
 42
-0.117305
  0
VERTEX
  8
0
 10
349.648002
 20
165.781297
 42
-0.106857
  0
VERTEX
  8
0
 10
351.751900
 20
164.968930
 42
-0.034799
  0
SEQEND
  0
POLYLINE
  8
0
 66
1
 70
1
  0
VERTEX
  8
0
 10
136.944629
 20
153.466843
 42
0.010993
  0
VERTEX
  8
0
 10
143.722272
 20
152.736216
 42
0.016589
  0
VERTEX
  8
0
 10
149.651871
 20
152.426258
 42
0.014134
  0
VERTEX
  8
0
 10
156.236943
 20
152.486945
 42
0.005613
  0
VERTEX
  8
0
 10
165.267868
 20
152.927181
 42
-0.011933
  0
VERTEX
  8
0
 10
177.349445
 20
153.363153
 42
-0.017786
  0
VERTEX
  8
0
 10
187.920877
 20
153.116112
 42
-0.020526
  0
VERTEX
  8
0
 10
196.929489
 20
152.212418
 42
-0.036605
  0
VERTEX
  8
0
 10
204.204249
 20
150.629864
 42
-0.623182
  0
VERTEX
  8
0
 10
204.312690
 20
149.993691
 42
-0.138217
  0
VERTEX
  8
0
 10
202.886684
 20
149.472582
 42
-0.012653
  0
VERTEX
  8
0
 10
196.360885
 20
149.143682
 42
-0.001065
  0
VERTEX
  8
0
 10
179.500000
 20
148.757112
 42
-0.003298
  0
VERTEX
  8
0
 10
167.401875
 20
148.585329
 42
-0.004428
  0
VERTEX
  8
0
 10
156.437885
 20
148.599055
 42
-0.004282
  0
VERTEX
  8
0
 10
147.406453
 20
148.767694
 42
-0.023834
  0
VERTEX
  8
0
 10
142.573277
 20
149.130341
 42
-0.021878
  0
VERTEX
  8
0
 10
136.389394
 20
150.168306
 42
-0.020401
  0
VERTEX
  8
0
 10
130.171863
 20
151.761501
 42
-0.018146
  0
VERTEX
  8
0
 10
124.879217
 20
153.562127
 42
-0.116789
  0
VERTEX
  8
0
 10
122.558314
 20
155.138864
 42
-0.026100
  0
VERTEX
  8
0
 10
122.109951
 20
155.682844
 42
-0.430900
  0
VERTEX
  8
0
 10
122.147057
 20
155.890813
 42
-0.220433
  0
VERTEX
  8
0
 10
122.444555
 20
155.934738
 42
-0.013074
  0
VERTEX
  8
0
 10
123.332736
 20
155.646814
 42
0.042243
  0
VERTEX
  8
0
 10
124.568165
 20
155.324515
 42
0.002988
  0
VERTEX
  8
0
 10
128.087234
 20
154.739336
 42
0.004202
  0
VERTEX
  8
0
 10
132.299377
 20
154.101016
 42
0.003156
  0
SEQEND
  0
POLYLINE
  8
0
 66
1
 70
1
  0
VERTEX
  8
0
 10
410.569504
 20
150.579095
 42
-0.044395
  0
VERTEX
  8
0
 10
411.036265
 20
147.633873
 42
-0.157397
  0
VERTEX
  8
0
 10
410.580308
 20
145.800785
 42
-0.176344
  0
VERTEX
  8
0
 10
409.183119
 20
144.703659
 42
-0.058742
  0
VERTEX
  8
0
 10
406.593469
 20
144.180799
 42
-0.048133
  0
VERTEX
  8
0
 10
403.857587
 20
144.219969
 42
-0.153825
  0
VERTEX
  8
0
 10
402.207267
 20
144.948591
 42
-0.159492
  0
VERTEX
  8
0
 10
401.307809
 20
146.471638
 42
-0.052850
  0
VERTEX
  8
0
 10
401.015313
 20
149.083333
 42
-0.047057
  0
VERTEX
  8
0
 10
401.204244
 20
151.221893
 42
-0.186306
  0
VERTEX
  8
0
 10
401.882414
 20
152.326654
 42
-0.140650
  0
VERTEX
  8
0
 10
403.262845
 20
152.865872
 42
-0.023235
  0
VERTEX
  8
0
 10
406.147615
 20
153.000000
 42
-0.023079
  0
VERTEX
  8
0
 10
408.212321
 20
152.904646
 42
-0.102509
  0
VERTEX
  8
0
 10
409.367826
 20
152.551502
 42
-0.144165
  0
VERTEX
  8
0
 10
410.079195
 20
151.837472
 42
-0.062901
  0
SEQEND
  0
POLYLINE
  8
0
 66
1
 70
1
  0
VERTEX
  8
0
 10
161.810306
 20
143.250865
 42
-0.001554
  0
VERTEX
  8
0
 10
170.722897
 20
143.045898
 42
-0.002656
  0
VERTEX
  8
0
 10
178.161885
 20
142.812132
 42
-0.000394
  0
VERTEX
  8
0
 10
184.679225
 20
142.567522
 42
-0.654415
  0
VERTEX
  8
0
 10
184.741633
 20
142.408300
 42
-0.137487
  0
VERTEX
  8
0
 10
184.399517
 20
142.215972
 42
-0.001426
  0
VERTEX
  8
0
 10
181.703526
 20
141.567559
 42
-0.004443
  0
VERTEX
  8
0
 10
178.573636
 20
140.853545
 42
-0.002856
  0
VERTEX
  8
0
 10
174.931326
 20
140.078390
 42
0.009855
  0
VERTEX
  8
0
 10
170.499571
 20
139.070183
 42
0.004825
  0
VERTEX
  8
0
 10
164.892327
 20
137.620191
 42
0.004785
  0
VERTEX
  8
0
 10
159.091041
 20
136.000456
 42
0.006923
  0
VERTEX
  8
0
 10
154.000000
 20
134.449654
 42
-0.002260
  0
VERTEX
  8
0
 10
138.084615
 20
129.438958
 42
-0.006628
  0
VERTEX
  8
0
 10
127.060582
 20
126.182440
 42
-0.009468
  0
VERTEX
  8
0
 10
118.693868
 20
124.001084
 42
-0.016139
  0
VERTEX
  8
0
 10
111.619010
 20
122.538707
 42
-0.004722
  0
VERTEX
  8
0
 10
101.597214
 20
120.899667
 42
-0.183972
  0
VERTEX
  8
0
 10
99.427388
 20
121.364887
 42
-0.565390
  0
VERTEX
  8
0
 10
99.466349
 20
122.529176
 42
-0.010176
  0
VERTEX
  8
0
 10
106.156763
 20
126.079134
 42
0.041012
  0
VERTEX
  8
0
 10
113.601886
 20
130.638215
 42
0.066547
  0
VERTEX
  8
0
 10
118.949129
 20
135.764791
 42
0.084278
  0
VERTEX
  8
0
 10
121.899357
 20
141.096438
 42
0.132296
  0
VERTEX
  8
0
 10
122.285210
 20
146.288354
 42
0.000000
  0
VERTEX
  8
0
 10
121.800255
 20
148.825231
 42
0.000000
  0
VERTEX
  8
0
 10
130.150127
 20
146.269841
 42
0.021572
  0
VERTEX
  8
0
 10
135.695905
 20
144.831004
 42
0.028919
  0
VERTEX
  8
0
 10
140.828779
 20
144.040066
 42
0.016259
  0
VERTEX
  8
0
 10
147.873981
 20
143.598797
 42
0.002538
  0
SEQEND
  0
POLYLINE
  8
0
 66
1
 70
1
  0
VERTEX
  8
0
 10
409.418213
 20
140.393011
 42
-0.242596
  0
VERTEX
  8
0
 10
410.486346
 20
139.195588
 42
-0.042201
  0
VERTEX
  8
0
 10
411.009383
 20
136.112466
 42
-0.042248
  0
VERTEX
  8
0
 10
411.007029
 20
132.980562
 42
-0.237317
  0
VERTEX
  8
0
 10
410.156154
 20
131.596508
 42
-0.192887
  0
VERTEX
  8
0
 10
408.559630
 20
131.318375
 42
-0.030372
  0
VERTEX
  8
0
 10
405.425029
 20
132.183666
 42
-0.030453
  0
VERTEX
  8
0
 10
402.417390
 20
133.423312
 42
-0.190390
  0
VERTEX
  8
0
 10
401.313261
 20
134.626037
 42
-0.088583
  0
VERTEX
  8
0
 10
401.169716
 20
135.373621
 42
-0.036954
  0
VERTEX
  8
0
 10
401.232403
 20
136.402116
 42
-0.035082
  0
VERTEX
  8
0
 10
401.464846
 20
137.520702
 42
-0.038145
  0
VERTEX
  8
0
 10
401.847102
 20
138.563770
 42
-0.118901
  0
VERTEX
  8
0
 10
403.005165
 20
140.042994
 42
-0.108630
  0
VERTEX
  8
0
 10
404.747904
 20
140.892317
 42
-0.091179
  0
VERTEX
  8
0
 10
406.950346
 20
141.014037
 42
-0.060013
  0
SEQEND
  0
POLYLINE
  8
0
 66
1
 70
1
  0
VERTEX
  8
0
 10
354.962451
 20
134.500000
 42
-0.582806
  0
VERTEX
  8
0
 10
354.675828
 20
134.334992
 42
-0.096366
  0
VERTEX
  8
0
 10
354.065850
 20
134.875560
 42
-0.031774
  0
VERTEX
  8
0
 10
353.079386
 20
136.348915
 42
-0.012363
  0
VERTEX
  8
0
 10
351.899398
 20
138.500000
 42
-0.019372
  0
VERTEX
  8
0
 10
351.536278
 20
139.274791
 42
-0.695024
  0
VERTEX
  8
0
 10
351.638240
 20
139.370844
 42
-0.101227
  0
VERTEX
  8
0
 10
351.996668
 20
139.092118
 42
-0.005621
  0
VERTEX
  8
0
 10
352.910649
 20
138.000000
 42
-0.017799
  0
VERTEX
  8
0
 10
353.694013
 20
136.969531
 42
-0.021046
  0
VERTEX
  8
0
 10
354.356879
 20
135.940625
 42
-0.020437
  0
VERTEX
  8
0
 10
354.837929
 20
135.037364
 42
-0.110844
  0
SEQEND
  0
POLYLINE
  8
0
 66
1
 70
1
  0
VERTEX
  8
0
 10
347.286963
 20
134.684792
 42
-0.032135
  0
VERTEX
  8
0
 10
347.944637
 20
133.524849
 42
-0.013971
  0
VERTEX
  8
0
 10
348.673377
 20
131.908675
 42
-0.013758
  0
VERTEX
  8
0
 10
349.354834
 20
130.142041
 42
-0.017811
  0
VERTEX
  8
0
 10
349.876442
 20
128.485322
 42
-0.019448
  0
VERTEX
  8
0
 10
350.373046
 20
126.369238
 42
-0.071703
  0
VERTEX
  8
0
 10
350.439411
 20
125.000761
 42
-0.099884
  0
VERTEX
  8
0
 10
350.111830
 20
123.918093
 42
-0.060736
  0
VERTEX
  8
0
 10
349.338447
 20
122.821486
 42
-0.094792
  0
VERTEX
  8
0
 10
347.094541
 20
121.129030
 42
-0.021602
  0
VERTEX
  8
0
 10
342.717269
 20
119.205702
 42
-0.023331
  0
VERTEX
  8
0
 10
337.932189
 20
117.597945
 42
-0.044770
  0
VERTEX
  8
0
 10
333.957862
 20
116.841807
 42
-0.016358
  0
VERTEX
  8
0
 10
332.051377
 20
116.716149
 42
-0.125696
  0
VERTEX
  8
0
 10
331.183474
 20
116.907479
 42
-0.247357
  0
VERTEX
  8
0
 10
330.813647
 20
117.426874
 42
-0.076495
  0
VERTEX
  8
0
 10
330.832393
 20
118.417898
 42
-0.074343
  0
VERTEX
  8
0
 10
331.169163
 20
119.434069
 42
-0.015502
  0
VERTEX
  8
0
 10
332.071067
 20
121.087210
 42
-0.015950
  0
VERTEX
  8
0
 10
333.249691
 20
122.957421
 42
-0.014473
  0
VERTEX
  8
0
 10
334.582393
 20
124.811700
 42
0.024703
  0
VERTEX
  8
0
 10
335.943326
 20
126.789385
 42
0.028198
  0
VERTEX
  8
0
 10
337.038325
 20
128.808389
 42
0.030575
  0
VERTEX
  8
0
 10
337.774227
 20
130.653869
 42
0.079745
  0
VERTEX
  8
0
 10
338.000000
 20
132.060469
 42
-0.051697
  0
VERTEX
  8
0
 10
338.144618
 20
133.455430
 42
-0.106069
  0
VERTEX
  8
0
 10
338.588493
 20
134.454883
 42
-0.102334
  0
VERTEX
  8
0
 10
339.415737
 20
135.206506
 42
-0.045883
  0
VERTEX
  8
0
 10
340.750000
 20
135.837719
 42
-0.019928
  0
VERTEX
  8
0
 10
343.442776
 20
136.701265
 42
-0.111725
  0
VERTEX
  8
0
 10
344.944600
 20
136.773335
 42
-0.155304
  0
VERTEX
  8
0
 10
346.078715
 20
136.178974
 42
-0.050014
  0
SEQEND
  0
POLYLINE
  8
0
 66
1
 70
1
  0
VERTEX
  8
0
 10
286.291682
 20
129.477846
 42
-0.011515
  0
VERTEX
  8
0
 10
288.570745
 20
124.546851
 42
-0.120076
  0
VERTEX
  8
0
 10
288.947329
 20
122.364923
 42
-0.359288
  0
VERTEX
  8
0
 10
288.066451
 20
121.434309
 42
-0.083593
  0
VERTEX
  8
0
 10
285.750000
 20
121.535837
 42
-0.019032
  0
VERTEX
  8
0
 10
280.222552
 20
122.939330
 42
-0.011678
  0
VERTEX
  8
0
 10
273.821635
 20
124.990236
 42
-0.004051
  0
VERTEX
  8
0
 10
267.572894
 20
127.211415
 42
-0.315143
  0
VERTEX
  8
0
 10
267.000000
 20
128.030086
 42
-0.208429
  0
VERTEX
  8
0
 10
267.195096
 20
128.477769
 42
-0.033175
  0
VERTEX
  8
0
 10
267.954687
 20
129.095196
 42
-0.032003
  0
VERTEX
  8
0
 10
269.005297
 20
129.742531
 42
-0.023078
  0
VERTEX
  8
0
 10
270.250000
 20
130.331676
 42
0.024592
  0
VERTEX
  8
0
 10
271.594929
 20
130.973250
 42
0.020863
  0
VERTEX
  8
0
 10
272.948468
 20
131.777256
 42
0.021379
  0
VERTEX
  8
0
 10
274.120722
 20
132.614969
 42
0.053855
  0
VERTEX
  8
0
 10
274.872445
 20
133.345096
 42
-0.092199
  0
VERTEX
  8
0
 10
275.678973
 20
134.016949
 42
-0.048415
  0
VERTEX
  8
0
 10
276.878127
 20
134.543734
 42
-0.043192
  0
VERTEX
  8
0
 10
278.332370
 20
134.885515
 42
-0.036142
  0
VERTEX
  8
0
 10
279.914127
 20
135.000000
 42
-0.042347
  0
VERTEX
  8
0
 10
282.123220
 20
134.812569
 42
-0.136934
  0
VERTEX
  8
0
 10
283.442280
 20
134.189225
 42
-0.088675
  0
VERTEX
  8
0
 10
284.558396
 20
132.809787
 42
-0.011853
  0
SEQEND
  0
POLYLINE
  8
0
 66
1
 70
1
  0
VERTEX
  8
0
 10
407.781593
 20
127.440425
 42
-0.046774
  0
VERTEX
  8
0
 10
408.844547
 20
126.536919
 42
-0.104385
  0
VERTEX
  8
0
 10
409.409750
 20
125.644967
 42
-0.103178
  0
VERTEX
  8
0
 10
409.569874
 20
124.593784
 42
-0.045014
  0
VERTEX
  8
0
 10
409.365767
 20
123.190425
 42
-0.018214
  0
VERTEX
  8
0
 10
408.321064
 20
119.427622
 42
-0.174917
  0
VERTEX
  8
0
 10
407.326098
 20
118.128465
 42
-0.226819
  0
VERTEX
  8
0
 10
405.874184
 20
117.946311
 42
-0.032209
  0
VERTEX
  8
0
 10
403.010634
 20
119.108950
 42
-0.026244
  0
VERTEX
  8
0
 10
401.214241
 20
120.096283
 42
-0.056699
  0
VERTEX
  8
0
 10
399.978108
 20
121.072206
 42
-0.077848
  0
VERTEX
  8
0
 10
399.250448
 20
122.062216
 42
-0.120187
  0
VERTEX
  8
0
 10
399.000000
 20
123.089080
 42
-0.105182
  0
VERTEX
  8
0
 10
399.712012
 20
126.436309
 42
-0.174634
  0
VERTEX
  8
0
 10
401.687707
 20
128.494427
 42
-0.170255
  0
VERTEX
  8
0
 10
404.564202
 20
128.849365
 42
-0.099453
  0
SEQEND
  0
POLYLINE
  8
0
 66
1
 70
1
  0
VERTEX
  8
0
 10
298.000000
 20
120.500000
 42
-0.024748
  0
VERTEX
  8
0
 10
297.971531
 20
119.925176
 42
-0.039339
  0
VERTEX
  8
0
 10
297.884553
 20
119.440625
 42
-0.046727
  0
VERTEX
  8
0
 10
297.758929
 20
119.096084
 42
-0.289661
  0
VERTEX
  8
0
 10
297.606989
 20
119.000000
 42
-0.222225
  0
VERTEX
  8
0
 10
297.420671
 20
119.087111
 42
-0.030693
  0
VERTEX
  8
0
 10
297.160341
 20
119.440625
 42
-0.030395
  0
VERTEX
  8
0
 10
296.887494
 20
119.925442
 42
-0.021360
  0
VERTEX
  8
0
 10
296.638374
 20
120.500000
 42
-0.055937
  0
VERTEX
  8
0
 10
296.488865
 20
121.074366
 42
-0.100118
  0
VERTEX
  8
0
 10
296.516384
 20
121.559375
 42
-0.147206
  0
VERTEX
  8
0
 10
296.710807
 20
121.877514
 42
-0.184534
  0
VERTEX
  8
0
 10
297.031385
 20
122.000000
 42
-0.152681
  0
VERTEX
  8
0
 10
297.400789
 20
121.884506
 42
-0.098158
  0
VERTEX
  8
0
 10
297.715469
 20
121.559375
 42
-0.080880
  0
VERTEX
  8
0
 10
297.927770
 20
121.073532
 42
-0.062722
  0
SEQEND
  0
POLYLINE
  8
0
 66
1
 70
1
  0
VERTEX
  8
0
 10
131.500000
 20
119.388429
 42
-0.023213
  0
VERTEX
  8
0
 10
130.431956
 20
118.638360
 42
-0.007268
  0
VERTEX
  8
0
 10
128.765625
 20
117.613733
 42
-0.007245
  0
VERTEX
  8
0
 10
126.869525
 20
116.522360
 42
-0.007951
  0
VERTEX
  8
0
 10
125.000000
 20
115.520649
 42
0.005107
  0
VERTEX
  8
0
 10
122.374857
 20
114.133227
 42
0.000814
  0
VERTEX
  8
0
 10
117.268750
 20
111.356733
 42
0.000902
  0
VERTEX
  8
0
 10
111.264252
 20
108.064986
 42
0.000790
  0
VERTEX
  8
0
 10
105.000000
 20
104.603231
 42
-0.003406
  0
VERTEX
  8
0
 10
98.962997
 20
101.308172
 42
-0.005150
  0
VERTEX
  8
0
 10
93.659825
 20
98.530349
 42
-0.002142
  0
VERTEX
  8
0
 10
89.098070
 20
96.225038
 42
-0.115899
  0
VERTEX
  8
0
 10
88.161106
 20
96.002815
 42
-0.333972
  0
VERTEX
  8
0
 10
87.826178
 20
96.253513
 42
-0.169039
  0
VERTEX
  8
0
 10
87.854734
 20
96.809537
 42
-0.060389
  0
VERTEX
  8
0
 10
88.384125
 20
97.762986
 42
-0.018006
  0
VERTEX
  8
0
 10
89.411106
 20
99.076725
 42
0.068813
  0
VERTEX
  8
0
 10
91.117863
 20
101.786410
 42
0.081923
  0
VERTEX
  8
0
 10
91.897245
 20
104.702043
 42
0.080453
  0
VERTEX
  8
0
 10
91.705091
 20
107.755965
 42
0.063548
  0
VERTEX
  8
0
 10
90.567258
 20
110.869937
 42
0.000000
  0
VERTEX
  8
0
 10
89.134516
 20
113.640555
 42
0.000000
  0
VERTEX
  8
0
 10
100.817258
 20
114.786870
 42
0.010356
  0
VERTEX
  8
0
 10
105.982717
 20
115.401954
 42
0.006952
  0
VERTEX
  8
0
 10
111.858820
 20
116.308884
 42
0.007003
  0
VERTEX
  8
0
 10
117.526286
 20
117.346304
 42
0.013727
  0
VERTEX
  8
0
 10
122.000000
 20
118.358474
 42
-0.001563
  0
VERTEX
  8
0
 10
129.714269
 20
120.302214
 42
-0.033940
  0
VERTEX
  8
0
 10
132.013492
 20
120.710749
 42
-0.604926
  0
VERTEX
  8
0
 10
132.282888
 20
120.309028
 42
-0.104068
  0
SEQEND
  0
POLYLINE
  8
0
 66
1
 70
1
  0
VERTEX
  8
0
 10
403.122872
 20
115.101588
 42
-0.026883
  0
VERTEX
  8
0
 10
404.524272
 20
113.836271
 42
-0.168860
  0
VERTEX
  8
0
 10
404.935724
 20
112.980279
 42
-0.127465
  0
VERTEX
  8
0
 10
404.787643
 20
111.929929
 42
-0.012838
  0
VERTEX
  8
0
 10
403.749835
 20
109.601588
 42
-0.053681
  0
VERTEX
  8
0
 10
402.241329
 20
107.153418
 42
-0.182688
  0
VERTEX
  8
0
 10
400.670977
 20
106.190808
 42
-0.165442
  0
VERTEX
  8
0
 10
398.749237
 20
106.460424
 42
-0.042360
  0
VERTEX
  8
0
 10
396.037772
 20
108.130195
 42
-0.018919
  0
VERTEX
  8
0
 10
394.259341
 20
109.552157
 42
-0.159025
  0
VERTEX
  8
0
 10
393.735335
 20
110.420253
 42
-0.152374
  0
VERTEX
  8
0
 10
393.812311
 20
111.448141
 42
-0.016952
  0
VERTEX
  8
0
 10
394.763477
 20
113.630195
 42
-0.081150
  0
VERTEX
  8
0
 10
396.345774
 20
115.909057
 42
-0.158227
  0
VERTEX
  8
0
 10
398.279716
 20
116.935845
 42
-0.147445
  0
VERTEX
  8
0
 10
400.548868
 20
116.665572
 42
-0.067434
  0
SEQEND
  0
POLYLINE
  8
0
 66
1
 70
1
  0
VERTEX
  8
0
 10
190.545089
 20
115.072955
 42
-0.120587
  0
VERTEX
  8
0
 10
190.107561
 20
114.642537
 42
-0.019150
  0
VERTEX
  8
0
 10
189.042975
 20
114.062476
 42
-0.020278
  0
VERTEX
  8
0
 10
187.708511
 20
113.466458
 42
-0.016509
  0
VERTEX
  8
0
 10
186.236072
 20
112.934832
 42
0.030790
  0
VERTEX
  8
0
 10
180.959193
 20
110.857523
 42
0.012690
  0
VERTEX
  8
0
 10
174.079383
 20
107.432031
 42
0.011016
  0
VERTEX
  8
0
 10
165.973128
 20
102.904312
 42
0.007160
  0
VERTEX
  8
0
 10
156.801564
 20
97.334901
 42
-0.008710
  0
VERTEX
  8
0
 10
145.014464
 20
90.227130
 42
-0.020820
  0
VERTEX
  8
0
 10
135.972176
 20
85.478418
 42
-0.026554
  0
VERTEX
  8
0
 10
128.066478
 20
82.239388
 42
-0.028007
  0
VERTEX
  8
0
 10
120.000000
 20
79.921999
 42
0.009003
  0
VERTEX
  8
0
 10
104.564166
 20
76.115820
 42
0.019165
  0
VERTEX
  8
0
 10
92.812402
 20
72.505179
 42
0.023957
  0
VERTEX
  8
0
 10
83.264051
 20
68.643556
 42
0.029175
  0
VERTEX
  8
0
 10
74.758726
 20
64.100833
 42
0.000000
  0
VERTEX
  8
0
 10
71.017451
 20
61.812745
 42
0.000000
  0
VERTEX
  8
0
 10
74.141570
 20
68.488834
 42
0.008786
  0
VERTEX
  8
0
 10
75.997139
 20
72.642688
 42
0.059926
  0
VERTEX
  8
0
 10
76.622319
 20
74.793837
 42
0.089270
  0
VERTEX
  8
0
 10
76.594432
 20
76.660064
 42
0.031452
  0
VERTEX
  8
0
 10
75.914318
 20
79.259619
 42
-0.010612
  0
VERTEX
  8
0
 10
75.217822
 20
81.530892
 42
-0.071533
  0
VERTEX
  8
0
 10
75.061463
 20
82.695116
 42
-0.172396
  0
VERTEX
  8
0
 10
75.310912
 20
83.376887
 42
-0.140120
  0
VERTEX
  8
0
 10
75.956805
 20
83.818935
 42
0.036127
  0
VERTEX
  8
0
 10
79.093744
 20
85.122979
 42
0.000842
  0
VERTEX
  8
0
 10
93.385377
 20
92.344539
 42
0.002122
  0
VERTEX
  8
0
 10
107.377365
 20
99.519150
 42
0.004985
  0
VERTEX
  8
0
 10
117.750000
 20
105.025482
 42
-0.003109
  0
VERTEX
  8
0
 10
122.064561
 20
107.336673
 42
-0.005327
  0
VERTEX
  8
0
 10
125.695312
 20
109.203436
 42
-0.001297
  0
VERTEX
  8
0
 10
128.831437
 20
110.763707
 42
-0.556035
  0
VERTEX
  8
0
 10
129.000000
 20
110.658994
 42
-0.209045
  0
VERTEX
  8
0
 10
128.860590
 20
110.340120
 42
-0.000752
  0
VERTEX
  8
0
 10
125.768750
 20
107.488621
 42
-0.003755
  0
VERTEX
  8
0
 10
122.217078
 20
104.271796
 42
-0.002327
  0
VERTEX
  8
0
 10
118.000000
 20
100.544656
 42
0.007318
  0
VERTEX
  8
0
 10
113.329982
 20
96.333426
 42
0.015751
  0
VERTEX
  8
0
 10
109.885946
 20
92.926909
 42
0.014242
  0
VERTEX
  8
0
 10
107.465441
 20
90.227043
 42
0.177430
  0
VERTEX
  8
0
 10
107.000000
 20
88.956719
 42
0.267893
  0
VERTEX
  8
0
 10
107.840328
 20
87.500876
 42
0.206315
  0
VERTEX
  8
0
 10
109.697345
 20
87.282819
 42
0.067847
  0
VERTEX
  8
0
 10
113.073003
 20
88.812696
 42
0.015338
  0
VERTEX
  8
0
 10
118.310680
 20
92.332364
 42
-0.037253
  0
VERTEX
  8
0
 10
133.814963
 20
101.793005
 42
-0.034550
  0
VERTEX
  8
0
 10
150.939590
 20
109.120936
 42
-0.035068
  0
VERTEX
  8
0
 10
168.627307
 20
113.924106
 42
-0.041734
  0
VERTEX
  8
0
 10
185.809017
 20
115.850168
 42
-0.015013
  0
VERTEX
  8
0
 10
187.869354
 20
115.846439
 42
-0.032717
  0
VERTEX
  8
0
 10
189.441548
 20
115.693067
 42
-0.049320
  0
VERTEX
  8
0
 10
190.423069
 20
115.430683
 42
-0.472184
  0
SEQEND
  0
POLYLINE
  8
0
 66
1
 70
1
  0
VERTEX
  8
0
 10
395.970256
 20
103.535839
 42
-0.204637
  0
VERTEX
  8
0
 10
396.451380
 20
101.917795
 42
-0.149678
  0
VERTEX
  8
0
 10
395.692236
 20
100.179851
 42
-0.080863
  0
VERTEX
  8
0
 10
393.512461
 20
98.342198
 42
-0.028867
  0
VERTEX
  8
0
 10
389.894410
 20
96.452385
 42
-0.011734
  0
VERTEX
  8
0
 10
387.624590
 20
95.492277
 42
-0.074752
  0
VERTEX
  8
0
 10
386.409268
 20
95.210955
 42
-0.159370
  0
VERTEX
  8
0
 10
385.603791
 20
95.406221
 42
-0.113664
  0
VERTEX
  8
0
 10
384.939361
 20
96.063876
 42
-0.090940
  0
VERTEX
  8
0
 10
384.168309
 20
97.978835
 42
-0.131332
  0
VERTEX
  8
0
 10
384.276768
 20
99.791454
 42
-0.097593
  0
VERTEX
  8
0
 10
385.351984
 20
101.689093
 42
-0.035062
  0
VERTEX
  8
0
 10
387.546515
 20
103.906697
 42
-0.043405
  0
VERTEX
  8
0
 10
390.084767
 20
105.772098
 42
-0.148839
  0
VERTEX
  8
0
 10
392.044815
 20
106.275739
 42
-0.158609
  0
VERTEX
  8
0
 10
393.876290
 20
105.589302
 42
-0.051265
  0
SEQEND
  0
POLYLINE
  8
0
 66
1
 70
1
  0
VERTEX
  8
0
 10
190.799266
 20
100.250000
 42
0.035150
  0
VERTEX
  8
0
 10
186.954905
 20
93.784855
 42
0.038921
  0
VERTEX
  8
0
 10
184.202038
 20
87.056907
 42
0.039469
  0
VERTEX
  8
0
 10
182.553794
 20
80.070495
 42
0.038215
  0
VERTEX
  8
0
 10
182.000000
 20
72.835393
 42
-0.022208
  0
VERTEX
  8
0
 10
181.904643
 20
70.689515
 42
-0.119267
  0
VERTEX
  8
0
 10
181.532494
 20
69.589515
 42
-0.156488
  0
VERTEX
  8
0
 10
180.752219
 20
68.936693
 42
-0.046919
  0
VERTEX
  8
0
 10
179.250000
 20
68.484369
 42
0.019047
  0
VERTEX
  8
0
 10
175.036353
 20
67.467544
 42
0.030580
  0
VERTEX
  8
0
 10
171.547207
 20
66.248911
 42
0.033987
  0
VERTEX
  8
0
 10
168.512642
 20
64.726089
 42
0.033090
  0
VERTEX
  8
0
 10
165.683720
 20
62.794001
 42
-0.017169
  0
VERTEX
  8
0
 10
164.175410
 20
61.691889
 42
-0.027080
  0
VERTEX
  8
0
 10
162.802969
 20
60.864445
 42
-0.025411
  0
VERTEX
  8
0
 10
161.682924
 20
60.340442
 42
-0.301732
  0
VERTEX
  8
0
 10
161.235937
 20
60.430729
 42
-0.246882
  0
VERTEX
  8
0
 10
160.652079
 20
62.309437
 42
-0.012606
  0
VERTEX
  8
0
 10
162.013074
 20
68.758660
 42
-0.020488
  0
VERTEX
  8
0
 10
163.904899
 20
75.485279
 42
-0.034859
  0
VERTEX
  8
0
 10
166.097211
 20
80.898181
 42
-0.049562
  0
VERTEX
  8
0
 10
169.802183
 20
86.893213
 42
-0.027923
  0
VERTEX
  8
0
 10
175.371832
 20
93.393747
 42
-0.027971
  0
VERTEX
  8
0
 10
181.529618
 20
99.137350
 42
-0.057754
  0
VERTEX
  8
0
 10
187.030857
 20
102.736128
 42
-0.010374
  0
VERTEX
  8
0
 10
191.503544
 20
104.859173
 42
-0.256838
  0
VERTEX
  8
0
 10
192.819634
 20
104.753162
 42
-0.402070
  0
VERTEX
  8
0
 10
193.051310
 20
103.731695
 42
-0.016298
  0
SEQEND
  0
POLYLINE
  8
0
 66
1
 70
1
  0
VERTEX
  8
0
 10
170.000000
 20
97.408964
 42
-0.154993
  0
VERTEX
  8
0
 10
169.881178
 20
97.034859
 42
-0.006014
  0
VERTEX
  8
0
 10
169.020509
 20
95.847230
 42
-0.010220
  0
VERTEX
  8
0
 10
167.943185
 20
94.457899
 42
-0.006983
  0
VERTEX
  8
0
 10
166.665562
 20
92.922387
 42
0.053860
  0
VERTEX
  8
0
 10
161.727342
 20
85.709318
 42
0.036239
  0
VERTEX
  8
0
 10
157.650427
 20
76.586552
 42
0.036071
  0
VERTEX
  8
0
 10
154.910513
 20
66.902097
 42
0.050945
  0
VERTEX
  8
0
 10
154.000000
 20
57.989024
 42
-0.005534
  0
VERTEX
  8
0
 10
153.956049
 20
54.017967
 42
-0.091577
  0
VERTEX
  8
0
 10
153.688053
 20
52.727600
 42
-0.300486
  0
VERTEX
  8
0
 10
153.042949
 20
52.286670
 42
-0.080346
  0
VERTEX
  8
0
 10
151.750000
 20
52.474925
 42
0.044952
  0
VERTEX
  8
0
 10
147.753228
 20
53.348093
 42
0.024227
  0
VERTEX
  8
0
 10
142.722776
 20
53.735193
 42
0.023992
  0
VERTEX
  8
0
 10
137.836799
 20
53.639323
 42
0.062878
  0
VERTEX
  8
0
 10
134.400061
 20
52.967017
 42
0.060754
  0
VERTEX
  8
0
 10
132.412300
 20
52.030896
 42
0.017911
  0
VERTEX
  8
0
 10
129.622418
 20
50.133241
 42
0.017013
  0
VERTEX
  8
0
 10
126.497246
 20
47.671784
 42
0.014189
  0
VERTEX
  8
0
 10
123.346267
 20
44.854491
 42
-0.029075
  0
VERTEX
  8
0
 10
117.051311
 20
39.554613
 42
-0.140386
  0
VERTEX
  8
0
 10
112.721828
 20
37.911604
 42
-0.137832
  0
VERTEX
  8
0
 10
108.135803
 20
38.794459
 42
-0.027655
  0
VERTEX
  8
0
 10
100.841646
 20
42.965185
 42
0.014845
  0
VERTEX
  8
0
 10
97.567859
 20
44.950033
 42
0.013338
  0
VERTEX
  8
0
 10
94.064565
 20
46.812649
 42
0.013503
  0
VERTEX
  8
0
 10
90.832205
 20
48.314630
 42
0.040349
  0
VERTEX
  8
0
 10
88.525017
 20
49.098018
 42
0.050477
  0
VERTEX
  8
0
 10
84.083423
 20
49.750255
 42
0.029906
  0
VERTEX
  8
0
 10
78.724801
 20
49.670629
 42
0.029209
  0
VERTEX
  8
0
 10
73.198795
 20
48.931001
 42
0.036949
  0
VERTEX
  8
0
 10
68.226292
 20
47.579841
 42
-0.004042
  0
VERTEX
  8
0
 10
65.475531
 20
46.634251
 42
-0.108553
  0
VERTEX
  8
0
 10
64.711669
 20
46.552390
 42
-0.480890
  0
VERTEX
  8
0
 10
64.504658
 20
46.879074
 42
-0.039952
  0
VERTEX
  8
0
 10
64.966912
 20
47.938175
 42
-0.093494
  0
VERTEX
  8
0
 10
66.959533
 20
50.413173
 42
-0.010865
  0
VERTEX
  8
0
 10
72.493924
 20
54.932523
 42
-0.014090
  0
VERTEX
  8
0
 10
78.629689
 20
59.452118
 42
-0.024422
  0
VERTEX
  8
0
 10
84.000000
 20
62.803007
 42
-0.022660
  0
VERTEX
  8
0
 10
90.020511
 20
65.813719
 42
-0.022615
  0
VERTEX
  8
0
 10
96.292696
 20
68.269404
 42
-0.017155
  0
VERTEX
  8
0
 10
104.119278
 20
70.636061
 42
-0.006365
  0
VERTEX
  8
0
 10
115.278956
 20
73.445312
 42
0.012847
  0
VERTEX
  8
0
 10
127.595339
 20
76.716082
 42
0.026698
  0
VERTEX
  8
0
 10
136.967884
 20
80.017227
 42
0.027182
  0
VERTEX
  8
0
 10
145.829222
 20
84.258246
 42
0.013826
  0
VERTEX
  8
0
 10
156.500000
 20
90.487264
 42
-0.002180
  0
VERTEX
  8
0
 10
164.094850
 20
95.161199
 42
-0.018387
  0
VERTEX
  8
0
 10
167.600243
 20
97.124463
 42
-0.050721
  0
VERTEX
  8
0
 10
169.432533
 20
97.840237
 42
-0.496027
  0
SEQEND
  0
POLYLINE
  8
0
 66
1
 70
1
  0
VERTEX
  8
0
 10
381.000000
 20
93.951108
 42
-0.121150
  0
VERTEX
  8
0
 10
380.743781
 20
92.909184
 42
-0.084398
  0
VERTEX
  8
0
 10
380.007073
 20
91.941389
 42
-0.058707
  0
VERTEX
  8
0
 10
378.724804
 20
90.997651
 42
-0.024066
  0
VERTEX
  8
0
 10
376.794256
 20
90.019248
 42
-0.032357
  0
VERTEX
  8
0
 10
372.573374
 20
88.448500
 42
-0.343348
  0
VERTEX
  8
0
 10
370.971394
 20
89.069678
 42
-0.359565
  0
VERTEX
  8
0
 10
371.222729
 20
90.722308
 42
-0.033183
  0
VERTEX
  8
0
 10
374.732135
 20
93.463949
 42
-0.020802
  0
VERTEX
  8
0
 10
377.723152
 20
95.319428
 42
-0.109455
  0
VERTEX
  8
0
 10
379.560842
 20
95.879063
 42
-0.276362
  0
VERTEX
  8
0
 10
380.584508
 20
95.369723
 42
-0.143430
  0
SEQEND
  0
POLYLINE
  8
0
 66
1
 70
1
  0
VERTEX
  8
0
 10
367.000000
 20
87.475249
 42
-0.219801
  0
VERTEX
  8
0
 10
366.465800
 20
86.318765
 42
-0.060313
  0
VERTEX
  8
0
 10
364.749633
 20
85.182391
 42
-0.044341
  0
VERTEX
  8
0
 10
362.105016
 20
84.139042
 42
-0.022255
  0
VERTEX
  8
0
 10
358.616071
 20
83.275452
 42
-0.099628
  0
VERTEX
  8
0
 10
356.552787
 20
83.276399
 42
-0.524858
  0
VERTEX
  8
0
 10
356.182502
 20
84.139985
 42
-0.127345
  0
VERTEX
  8
0
 10
357.815655
 20
85.679411
 42
-0.034021
  0
VERTEX
  8
0
 10
361.082597
 20
87.195616
 42
-0.005213
  0
VERTEX
  8
0
 10
364.756450
 20
88.562052
 42
-0.074748
  0
VERTEX
  8
0
 10
366.120744
 20
88.833554
 42
-0.291204
  0
VERTEX
  8
0
 10
366.753800
 20
88.471497
 42
-0.121732
  0
SEQEND
  0
POLYLINE
  8
0
 66
1
 70
1
  0
VERTEX
  8
0
 10
312.729167
 20
86.395833
 42
-0.126455
  0
VERTEX
  8
0
 10
312.402231
 20
86.202593
 42
-0.060344
  0
VERTEX
  8
0
 10
311.916927
 20
86.123424
 42
-0.054150
  0
VERTEX
  8
0
 10
311.359369
 20
86.160852
 42
-0.051402
  0
VERTEX
  8
0
 10
310.812500
 20
86.316886
 42
-0.054073
  0
VERTEX
  8
0
 10
310.395823
 20
86.538436
 42
-0.470617
  0
VERTEX
  8
0
 10
310.378580
 20
86.720685
 42
-0.168741
  0
VERTEX
  8
0
 10
310.670344
 20
86.862007
 42
-0.018894
  0
VERTEX
  8
0
 10
311.416667
 20
86.921053
 42
-0.028489
  0
VERTEX
  8
0
 10
312.112848
 20
86.910055
 42
-0.077125
  0
VERTEX
  8
0
 10
312.592839
 20
86.799335
 42
-0.208169
  0
VERTEX
  8
0
 10
312.775380
 20
86.614691
 42
-0.296942
  0
SEQEND
  0
POLYLINE
  8
0
 66
1
 70
1
  0
VERTEX
  8
0
 10
324.914617
 20
83.418716
 42
-0.146420
  0
VERTEX
  8
0
 10
325.026510
 20
83.211255
 42
-0.099156
  0
VERTEX
  8
0
 10
325.028182
 20
82.940845
 42
-0.083037
  0
VERTEX
  8
0
 10
324.918993
 20
82.648253
 42
-0.065727
  0
VERTEX
  8
0
 10
324.713237
 20
82.379904
 42
-0.228936
  0
VERTEX
  8
0
 10
323.607993
 20
81.994793
 42
-0.045534
  0
VERTEX
  8
0
 10
321.501417
 20
82.434631
 42
-0.045528
  0
VERTEX
  8
0
 10
319.542251
 20
83.235002
 42
-0.279982
  0
VERTEX
  8
0
 10
319.000000
 20
84.127460
 42
-0.405462
  0
VERTEX
  8
0
 10
319.515873
 20
84.659031
 42
-0.037325
  0
VERTEX
  8
0
 10
321.534059
 20
84.568870
 42
-0.038754
  0
VERTEX
  8
0
 10
323.681538
 20
84.140863
 42
-0.128501
  0
SEQEND
  0
POLYLINE
  8
0
 66
1
 70
1
  0
VERTEX
  8
0
 10
352.000000
 20
83.019052
 42
-0.288675
  0
VERTEX
  8
0
 10
351.485929
 20
82.202853
 42
-0.038345
  0
VERTEX
  8
0
 10
349.496006
 20
81.431026
 42
-0.038746
  0
VERTEX
  8
0
 10
347.383994
 20
80.967828
 42
-0.235157
  0
VERTEX
  8
0
 10
346.353294
 20
81.313372
 42
-0.138974
  0
VERTEX
  8
0
 10
346.190739
 20
81.604515
 42
-0.074669
  0
VERTEX
  8
0
 10
346.155965
 20
82.017621
 42
-0.064918
  0
VERTEX
  8
0
 10
346.248032
 20
82.484411
 42
-0.057359
  0
VERTEX
  8
0
 10
346.458881
 20
82.933469
 42
-0.194865
  0
VERTEX
  8
0
 10
347.516407
 20
83.708283
 42
-0.058056
  0
VERTEX
  8
0
 10
349.539781
 20
83.975749
 42
-0.063377
  0
VERTEX
  8
0
 10
351.411771
 20
83.766835
 42
-0.346180
  0
SEQEND
  0
POLYLINE
  8
0
 66
1
 70
1
  0
VERTEX
  8
0
 10
340.756214
 20
81.750000
 42
-0.226627
  0
VERTEX
  8
0
 10
339.850939
 20
80.803225
 42
-0.052297
  0
VERTEX
  8
0
 10
337.657394
 20
80.225380
 42
-0.048424
  0
VERTEX
  8
0
 10
334.959566
 20
80.073317
 42
-0.051405
  0
VERTEX
  8
0
 10
332.338273
 20
80.451235
 42
-0.102749
  0
VERTEX
  8
0
 10
330.702645
 20
81.242715
 42
-0.512950
  0
VERTEX
  8
0
 10
330.730470
 20
82.096591
 42
-0.120160
  0
VERTEX
  8
0
 10
332.664592
 20
82.805100
 42
-0.027999
  0
VERTEX
  8
0
 10
336.142350
 20
83.000000
 42
-0.013519
  0
VERTEX
  8
0
 10
338.474828
 20
82.936922
 42
-0.052673
  0
VERTEX
  8
0
 10
339.898086
 20
82.708226
 42
-0.122000
  0
VERTEX
  8
0
 10
340.611853
 20
82.311434
 42
-0.292404
  0
SEQEND
  0
POLYLINE
  8
0
 66
1
 70
1
  0
VERTEX
  8
0
 10
312.160636
 20
369.300152
 42
0.074305
  0
VERTEX
  8
0
 10
311.271765
 20
366.811584
 42
0.062172
  0
VERTEX
  8
0
 10
311.073921
 20
364.011407
 42
0.059033
  0
VERTEX
  8
0
 10
311.576691
 20
361.109921
 42
0.054652
  0
VERTEX
  8
0
 10
312.750000
 20
358.324702
 42
0.073894
  0
VERTEX
  8
0
 10
315.191254
 20
355.149225
 42
0.029978
  0
VERTEX
  8
0
 10
319.347249
 20
351.591997
 42
0.029719
  0
VERTEX
  8
0
 10
324.168392
 20
348.373975
 42
0.043435
  0
VERTEX
  8
0
 10
328.778910
 20
346.190291
 42
-0.021428
  0
VERTEX
  8
0
 10
331.376241
 20
345.097160
 42
-0.085346
  0
VERTEX
  8
0
 10
332.786329
 20
344.108486
 42
-0.101855
  0
VERTEX
  8
0
 10
333.655004
 20
342.799841
 42
-0.037712
  0
VERTEX
  8
0
 10
334.328094
 20
340.681205
 42
0.041305
  0
VERTEX
  8
0
 10
334.847363
 20
339.086486
 42
0.037402
  0
VERTEX
  8
0
 10
335.635888
 20
337.542289
 42
0.039316
  0
VERTEX
  8
0
 10
336.579923
 20
336.235155
 42
0.071794
  0
VERTEX
  8
0
 10
337.564172
 20
335.365996
 42
0.034312
  0
VERTEX
  8
0
 10
338.992657
 20
334.564254
 42
0.122596
  0
VERTEX
  8
0
 10
340.011980
 20
334.358828
 42
0.102363
  0
VERTEX
  8
0
 10
341.109968
 20
334.638164
 42
0.020109
  0
VERTEX
  8
0
 10
342.912539
 20
335.607407
 42
-0.015682
  0
VERTEX
  8
0
 10
344.769959
 20
336.627441
 42
-0.113879
  0
VERTEX
  8
0
 10
345.751191
 20
336.871793
 42
-0.153622
  0
VERTEX
  8
0
 10
346.601551
 20
336.620273
 42
-0.035796
  0
VERTEX
  8
0
 10
347.788211
 20
335.691666
 42
0.047625
  0
VERTEX
  8
0
 10
349.454399
 20
334.450116
 42
0.151918
  0
VERTEX
  8
0
 10
350.785257
 20
334.119241
 42
0.125020
  0
VERTEX
  8
0
 10
352.228192
 20
334.576052
 42
0.027798
  0
VERTEX
  8
0
 10
354.365141
 20
336.072580
 42
0.085977
  0
VERTEX
  8
0
 10
356.316658
 20
338.241232
 42
0.172885
  0
VERTEX
  8
0
 10
356.809980
 20
340.459510
 42
0.127707
  0
VERTEX
  8
0
 10
355.813582
 20
342.971687
 42
0.038460
  0
VERTEX
  8
0
 10
353.117647
 20
346.117647
 42
0.020005
  0
VERTEX
  8
0
 10
350.695707
 20
348.353168
 42
0.079337
  0
VERTEX
  8
0
 10
348.971654
 20
349.403201
 42
0.078220
  0
VERTEX
  8
0
 10
346.994045
 20
349.871633
 42
0.019117
  0
VERTEX
  8
0
 10
343.637884
 20
350.000000
 42
-0.040865
  0
VERTEX
  8
0
 10
338.910174
 20
350.387043
 42
-0.043558
  0
VERTEX
  8
0
 10
334.411941
 20
351.537697
 42
-0.047733
  0
VERTEX
  8
0
 10
330.800615
 20
353.206562
 42
-0.138658
  0
VERTEX
  8
0
 10
328.909923
 20
355.168310
 42
0.062207
  0
VERTEX
  8
0
 10
328.340235
 20
355.973680
 42
0.101088
  0
VERTEX
  8
0
 10
327.665292
 20
356.465171
 42
0.107302
  0
VERTEX
  8
0
 10
326.881976
 20
356.635509
 42
0.077069
  0
VERTEX
  8
0
 10
325.994189
 20
356.498156
 42
-0.116145
  0
VERTEX
  8
0
 10
324.986680
 20
356.421358
 42
-0.181265
  0
VERTEX
  8
0
 10
324.237456
 20
356.844200
 42
-0.089418
  0
VERTEX
  8
0
 10
323.607859
 20
357.943845
 42
-0.016095
  0
VERTEX
  8
0
 10
322.886514
 20
360.200098
 42
0.014695
  0
VERTEX
  8
0
 10
321.728544
 20
363.857304
 42
0.114733
  0
VERTEX
  8
0
 10
320.779069
 20
365.356719
 42
0.331751
  0
VERTEX
  8
0
 10
319.772210
 20
365.495714
 42
0.108684
  0
VERTEX
  8
0
 10
318.575629
 20
364.446253
 42
-0.051285
  0
VERTEX
  8
0
 10
317.678394
 20
363.457216
 42
-0.359634
  0
VERTEX
  8
0
 10
317.074260
 20
363.432380
 42
-0.123501
  0
VERTEX
  8
0
 10
316.470011
 20
364.186268
 42
-0.006755
  0
VERTEX
  8
0
 10
315.232519
 20
366.984410
 42
0.005719
  0
VERTEX
  8
0
 10
313.989305
 20
369.811304
 42
0.125420
  0
VERTEX
  8
0
 10
313.429405
 20
370.510379
 42
0.408962
  0
VERTEX
  8
0
 10
312.904619
 20
370.441526
 42
0.043159
  0
SEQEND
  0
ENDSEC
  0
EOF
