  0
SECTION
  2
HEADER
  9
$ACADVER
  1
AC1006
  9
$EXTMIN
 10
0.000000
 20
0.000000
 30
0.000000
  9
$EXTMAX
 10
470.000000
 20
486.000000
 30
0.000000
  0
ENDSEC
  0
SECTION
  2
ENTITIES
  0
POLYLINE
  8
0
 66
1
 70
1
  0
VERTEX
  8
0
 10
217.986653
 20
472.483918
 42
0.185023
  0
VERTEX
  8
0
 10
217.040749
 20
469.693399
 42
0.032683
  0
VERTEX
  8
0
 10
217.627526
 20
464.095334
 42
0.027381
  0
VERTEX
  8
0
 10
219.346237
 20
456.569631
 42
0.012691
  0
VERTEX
  8
0
 10
222.355367
 20
447.000000
 42
0.001046
  0
VERTEX
  8
0
 10
224.056963
 20
442.066491
 42
0.001387
  0
VERTEX
  8
0
 10
225.627317
 20
437.584375
 42
0.000985
  0
VERTEX
  8
0
 10
226.961746
 20
433.832761
 42
0.013836
  0
VERTEX
  8
0
 10
227.480790
 20
432.500000
 42
-0.812477
  0
VERTEX
  8
0
 10
227.092887
 20
432.231626
 42
-0.012176
  0
VERTEX
  8
0
 10
223.670504
 20
435.642520
 42
-0.007488
  0
VERTEX
  8
0
 10
217.967306
 20
441.792128
 42
-0.001925
  0
VERTEX
  8
0
 10
208.942141
 20
451.898814
 42
0.004568
  0
VERTEX
  8
0
 10
205.970228
 20
455.191663
 42
0.006016
  0
VERTEX
  8
0
 10
203.196689
 20
458.136916
 42
0.004457
  0
VERTEX
  8
0
 10
200.827113
 20
460.549881
 42
0.056601
  0
VERTEX
  8
0
 10
199.833823
 20
461.340826
 42
0.168187
  0
VERTEX
  8
0
 10
198.096865
 20
461.740449
 42
0.171854
  0
VERTEX
  8
0
 10
196.502746
 20
460.975305
 42
0.123704
  0
VERTEX
  8
0
 10
195.381671
 20
459.091218
 42
0.072776
  0
VERTEX
  8
0
 10
195.000000
 20
456.482890
 42
0.072526
  0
VERTEX
  8
0
 10
195.891030
 20
450.372366
 42
0.013787
  0
VERTEX
  8
0
 10
199.407128
 20
439.660707
 42
0.014704
  0
VERTEX
  8
0
 10
204.188225
 20
427.483892
 42
0.014321
  0
VERTEX
  8
0
 10
209.716088
 20
415.500000
 42
0.000000
  0
VERTEX
  8
0
 10
213.191469
 20
408.500000
 42
0.000000
  0
VERTEX
  8
0
 10
206.032084
 20
415.500000
 42
-0.010111
  0
VERTEX
  8
0
 10
201.169186
 20
420.450884
 42
-0.006214
  0
VERTEX
  8
0
 10
195.634675
 20
426.466313
 42
-0.005413
  0
VERTEX
  8
0
 10
189.407580
 20
433.558617
 42
-0.003609
  0
VERTEX
  8
0
 10
182.421378
 20
441.811186
 42
0.035117
  0
VERTEX
  8
0
 10
181.233419
 20
443.047452
 42
0.096091
  0
VERTEX
  8
0
 10
180.200931
 20
443.671314
 42
0.104142
  0
VERTEX
  8
0
 10
179.061295
 20
443.837025
 42
0.045723
  0
VERTEX
  8
0
 10
177.546992
 20
443.601150
 42
0.041052
  0
VERTEX
  8
0
 10
175.939885
 20
443.054331
 42
0.182887
  0
VERTEX
  8
0
 10
175.238108
 20
442.371387
 42
0.123263
  0
VERTEX
  8
0
 10
175.016255
 20
441.229745
 42
0.014723
  0
VERTEX
  8
0
 10
175.230720
 20
438.645416
 42
0.075756
  0
VERTEX
  8
0
 10
177.132307
 20
431.595531
 42
0.010882
  0
VERTEX
  8
0
 10
183.462073
 20
418.025441
 42
0.013270
  0
VERTEX
  8
0
 10
190.921553
 20
403.861850
 42
0.022841
  0
VERTEX
  8
0
 10
197.967485
 20
392.547258
 42
-0.006272
  0
VERTEX
  8
0
 10
199.129353
 20
390.812332
 42
-0.009056
  0
VERTEX
  8
0
 10
200.109199
 20
389.247508
 42
-0.005393
  0
VERTEX
  8
0
 10
200.890305
 20
387.916029
 42
-0.130675
  0
VERTEX
  8
0
 10
201.000000
 20
387.503474
 42
-0.626336
  0
VERTEX
  8
0
 10
200.478746
 20
387.250600
 42
-0.002950
  0
VERTEX
  8
0
 10
194.461801
 20
392.050351
 42
-0.007866
  0
VERTEX
  8
0
 10
187.580854
 20
397.787191
 42
-0.005501
  0
VERTEX
  8
0
 10
180.000000
 20
404.458999
 42
0.006727
  0
VERTEX
  8
0
 10
175.180445
 20
408.679692
 42
0.025253
  0
VERTEX
  8
0
 10
171.993561
 20
411.129137
 42
0.040248
  0
VERTEX
  8
0
 10
169.691025
 20
412.460821
 42
0.137094
  0
VERTEX
  8
0
 10
168.000000
 20
412.753556
 42
0.264196
  0
VERTEX
  8
0
 10
165.683780
 20
411.108137
 42
0.166228
  0
VERTEX
  8
0
 10
165.319322
 20
407.718200
 42
0.062895
  0
VERTEX
  8
0
 10
167.460898
 20
401.814121
 42
0.014431
  0
VERTEX
  8
0
 10
172.578949
 20
392.500000
 42
0.010593
  0
VERTEX
  8
0
 10
177.199287
 20
385.006150
 42
0.010283
  0
VERTEX
  8
0
 10
182.177431
 20
377.639084
 42
0.010152
  0
VERTEX
  8
0
 10
187.519882
 20
370.390011
 42
0.009695
  0
VERTEX
  8
0
 10
193.232717
 20
363.250000
 42
-0.004167
  0
VERTEX
  8
0
 10
195.822691
 20
360.085371
 42
-0.007350
  0
VERTEX
  8
0
 10
197.900745
 20
357.423437
 42
-0.002818
  0
VERTEX
  8
0
 10
199.574480
 20
355.187117
 42
-0.615742
  0
VERTEX
  8
0
 10
199.480143
 20
355.000000
 42
-0.140105
  0
VERTEX
  8
0
 10
197.880738
 20
355.457143
 42
-0.002320
  0
VERTEX
  8
0
 10
189.969907
 20
360.432678
 42
-0.006712
  0
VERTEX
  8
0
 10
182.184959
 20
365.527575
 42
-0.012423
  0
VERTEX
  8
0
 10
176.025285
 20
369.904314
 42
0.002003
  0
VERTEX
  8
0
 10
169.503553
 20
374.745938
 42
0.032239
  0
VERTEX
  8
0
 10
167.196595
 20
376.225104
 42
0.103529
  0
VERTEX
  8
0
 10
165.673631
 20
376.695158
 42
0.100430
  0
VERTEX
  8
0
 10
164.072202
 20
376.522916
 42
0.293068
  0
VERTEX
  8
0
 10
161.988371
 20
374.014967
 42
0.146875
  0
VERTEX
  8
0
 10
162.708353
 20
369.783591
 42
0.050518
  0
VERTEX
  8
0
 10
167.158648
 20
362.703422
 42
0.009353
  0
VERTEX
  8
0
 10
176.858810
 20
350.727919
 42
-0.017368
  0
VERTEX
  8
0
 10
177.687973
 20
349.670036
 42
-0.594176
  0
VERTEX
  8
0
 10
177.579330
 20
349.440577
 42
-0.110523
  0
VERTEX
  8
0
 10
176.991430
 20
349.537753
 42
-0.002674
  0
VERTEX
  8
0
 10
174.424970
 20
350.590654
 42
-0.006025
  0
VERTEX
  8
0
 10
172.645381
 20
351.357173
 42
-0.003513
  0
VERTEX
  8
0
 10
170.529076
 20
352.316984
 42
-0.003511
  0
VERTEX
  8
0
 10
168.422954
 20
353.308081
 42
-0.005935
  0
VERTEX
  8
0
 10
166.674012
 20
354.171824
 42
0.050022
  0
VERTEX
  8
0
 10
163.509636
 20
355.401495
 42
0.076466
  0
VERTEX
  8
0
 10
160.591255
 20
355.747600
 42
0.097243
  0
VERTEX
  8
0
 10
158.228684
 20
355.198237
 42
0.148370
  0
VERTEX
  8
0
 10
156.653321
 20
353.825057
 42
0.154644
  0
VERTEX
  8
0
 10
156.358340
 20
352.681335
 42
0.084845
  0
VERTEX
  8
0
 10
156.682373
 20
351.257253
 42
0.044582
  0
VERTEX
  8
0
 10
157.729223
 20
349.256798
 42
0.010121
  0
VERTEX
  8
0
 10
159.866329
 20
346.075057
 42
-0.011472
  0
VERTEX
  8
0
 10
161.559411
 20
343.539612
 42
-0.030464
  0
VERTEX
  8
0
 10
162.612651
 20
341.633974
 42
-0.050917
  0
VERTEX
  8
0
 10
163.057776
 20
340.384596
 42
-0.486546
  0
VERTEX
  8
0
 10
162.756108
 20
340.000000
 42
-0.061046
  0
VERTEX
  8
0
 10
161.751475
 20
340.123117
 42
-0.001046
  0
VERTEX
  8
0
 10
156.369986
 20
341.474175
 42
-0.002648
  0
VERTEX
  8
0
 10
150.109075
 20
343.095273
 42
-0.001757
  0
VERTEX
  8
0
 10
142.942238
 20
345.018469
 42
0.000308
  0
VERTEX
  8
0
 10
134.508421
 20
347.307880
 42
0.000177
  0
VERTEX
  8
0
 10
124.336158
 20
350.058607
 42
0.000177
  0
VERTEX
  8
0
 10
114.110809
 20
352.815929
 42
0.000295
  0
VERTEX
  8
0
 10
105.500000
 20
355.129174
 42
-0.000375
  0
VERTEX
  8
0
 10
97.166601
 20
357.369335
 42
-0.000266
  0
VERTEX
  8
0
 10
87.821875
 20
359.894223
 42
-0.000269
  0
VERTEX
  8
0
 10
78.901910
 20
362.314590
 42
-0.000571
  0
VERTEX
  8
0
 10
72.000000
 20
364.199819
 42
0.001590
  0
VERTEX
  8
0
 10
55.445049
 20
368.685500
 42
0.012324
  0
VERTEX
  8
0
 10
47.655055
 20
370.565261
 42
0.023026
  0
VERTEX
  8
0
 10
43.076347
 20
371.332803
 42
0.154062
  0
VERTEX
  8
0
 10
40.835274
 20
370.911841
 42
0.197447
  0
VERTEX
  8
0
 10
39.253166
 20
368.993045
 42
0.187780
  0
VERTEX
  8
0
 10
39.434483
 20
366.464803
 42
0.075403
  0
VERTEX
  8
0
 10
41.873607
 20
362.848191
 42
0.015478
  0
VERTEX
  8
0
 10
47.276398
 20
357.329963
 42
0.008514
  0
VERTEX
  8
0
 10
50.904393
 20
353.963755
 42
0.006594
  0
VERTEX
  8
0
 10
54.964819
 20
350.418461
 42
0.006673
  0
VERTEX
  8
0
 10
58.842974
 20
347.209590
 42
0.015920
  0
VERTEX
  8
0
 10
61.827567
 20
344.959201
 42
-0.010642
  0
VERTEX
  8
0
 10
64.162789
 20
343.236792
 42
-0.020055
  0
VERTEX
  8
0
 10
65.958524
 20
341.733782
 42
-0.019408
  0
VERTEX
  8
0
 10
67.168110
 20
340.547178
 42
-0.547999
  0
VERTEX
  8
0
 10
67.079020
 20
340.193007
 42
-0.140037
  0
VERTEX
  8
0
 10
65.420039
 20
340.120820
 42
-0.003413
  0
VERTEX
  8
0
 10
57.911570
 20
341.971053
 42
-0.007446
  0
VERTEX
  8
0
 10
49.350599
 20
344.278947
 42
-0.005831
  0
VERTEX
  8
0
 10
40.130979
 20
347.028972
 42
0.015883
  0
VERTEX
  8
0
 10
33.436784
 20
348.880043
 42
0.087792
  0
VERTEX
  8
0
 10
29.720553
 20
349.114027
 42
0.213026
  0
VERTEX
  8
0
 10
27.773596
 20
347.967950
 42
0.155994
  0
VERTEX
  8
0
 10
27.000000
 20
345.548720
 42
0.207308
  0
VERTEX
  8
0
 10
28.735857
 20
341.541983
 42
0.015782
  0
VERTEX
  8
0
 10
37.790191
 20
333.575296
 42
0.020726
  0
VERTEX
  8
0
 10
49.166823
 20
324.952260
 42
0.018183
  0
VERTEX
  8
0
 10
61.716135
 20
316.894933
 42
0.000000
  0
VERTEX
  8
0
 10
68.500000
 20
312.879888
 42
0.000000
  0
VERTEX
  8
0
 10
63.500000
 20
313.555487
 42
-0.023950
  0
VERTEX
  8
0
 10
57.485205
 20
314.663662
 42
-0.004018
  0
VERTEX
  8
0
 10
46.092339
 20
317.429068
 42
-0.004297
  0
VERTEX
  8
0
 10
34.714160
 20
320.392114
 42
-0.019400
  0
VERTEX
  8
0
 10
28.160425
 20
322.434835
 42
0.085189
  0
VERTEX
  8
0
 10
23.118019
 20
323.305447
 42
0.274427
  0
VERTEX
  8
0
 10
20.304534
 20
321.639316
 42
0.267944
  0
VERTEX
  8
0
 10
20.381186
 20
318.324394
 42
0.083064
  0
VERTEX
  8
0
 10
23.768026
 20
314.403569
 42
0.030745
  0
VERTEX
  8
0
 10
31.531452
 20
308.729785
 42
0.013152
  0
VERTEX
  8
0
 10
42.538054
 20
302.081878
 42
0.012988
  0
VERTEX
  8
0
 10
54.633805
 20
295.613466
 42
0.017105
  0
VERTEX
  8
0
 10
66.000000
 20
290.388429
 42
-0.003508
  0
VERTEX
  8
0
 10
69.236238
 20
289.006036
 42
-0.085395
  0
VERTEX
  8
0
 10
70.051970
 20
288.470321
 42
-0.631068
  0
VERTEX
  8
0
 10
69.951292
 20
288.152274
 42
-0.031055
  0
VERTEX
  8
0
 10
68.511033
 20
288.042269
 42
-0.027594
  0
VERTEX
  8
0
 10
66.563731
 20
288.122217
 42
-0.002117
  0
VERTEX
  8
0
 10
61.344501
 20
288.648213
 42
-0.002900
  0
VERTEX
  8
0
 10
55.121280
 20
289.338538
 42
-0.002207
  0
VERTEX
  8
0
 10
48.311602
 20
290.164413
 42
0.003036
  0
VERTEX
  8
0
 10
39.113127
 20
291.264535
 42
0.016556
  0
VERTEX
  8
0
 10
34.115805
 20
291.664427
 42
0.027809
  0
VERTEX
  8
0
 10
31.047015
 20
291.637231
 42
0.158369
  0
VERTEX
  8
0
 10
29.550569
 20
291.041969
 42
0.110400
  0
VERTEX
  8
0
 10
28.346519
 20
289.484672
 42
0.155506
  0
VERTEX
  8
0
 10
28.121064
 20
287.756339
 42
0.132061
  0
VERTEX
  8
0
 10
28.947754
 20
286.006833
 42
0.070418
  0
VERTEX
  8
0
 10
30.750000
 20
284.406394
 42
0.023587
  0
VERTEX
  8
0
 10
39.758077
 20
279.026395
 42
0.016475
  0
VERTEX
  8
0
 10
50.371268
 20
273.790861
 42
0.014965
  0
VERTEX
  8
0
 10
62.444855
 20
268.751543
 42
0.011570
  0
VERTEX
  8
0
 10
75.875884
 20
263.965199
 42
0.000000
  0
VERTEX
  8
0
 10
87.251768
 20
260.205525
 42
0.000000
  0
VERTEX
  8
0
 10
77.875884
 20
259.552574
 42
-0.008597
  0
VERTEX
  8
0
 10
73.497364
 20
259.323214
 42
-0.004458
  0
VERTEX
  8
0
 10
68.022916
 20
259.179608
 42
-0.004430
  0
VERTEX
  8
0
 10
62.394342
 20
259.132040
 42
-0.006719
  0
VERTEX
  8
0
 10
57.500000
 20
259.199812
 42
0.000000
  0
VERTEX
  8
0
 10
46.500000
 20
259.500000
 42
0.000000
  0
VERTEX
  8
0
 10
46.500000
 20
256.500000
 42
0.067455
  0
VERTEX
  8
0
 10
46.734030
 20
254.773187
 42
0.125899
  0
VERTEX
  8
0
 10
47.430652
 20
253.556208
 42
0.074435
  0
VERTEX
  8
0
 10
48.895957
 20
252.438043
 42
0.012903
  0
VERTEX
  8
0
 10
52.000000
 20
250.832179
 42
0.034693
  0
VERTEX
  8
0
 10
61.582171
 20
246.979759
 42
0.014309
  0
VERTEX
  8
0
 10
75.014661
 20
243.054724
 42
0.013989
  0
VERTEX
  8
0
 10
88.428002
 20
239.946631
 42
0.043300
  0
VERTEX
  8
0
 10
97.657084
 20
238.897639
 42
0.000000
  0
VERTEX
  8
0
 10
101.500000
 20
238.795277
 42
0.000000
  0
VERTEX
  8
0
 10
98.000000
 20
237.944459
 42
-0.024554
  0
VERTEX
  8
0
 10
95.953948
 20
237.552306
 42
-0.004203
  0
VERTEX
  8
0
 10
92.027820
 20
237.031580
 42
-0.004573
  0
VERTEX
  8
0
 10
87.402771
 20
236.500582
 42
-0.004066
  0
VERTEX
  8
0
 10
82.584068
 20
236.031553
 42
0.007642
  0
VERTEX
  8
0
 10
77.922209
 20
235.544116
 42
0.010704
  0
VERTEX
  8
0
 10
73.776558
 20
234.956221
 42
0.007284
  0
VERTEX
  8
0
 10
70.352409
 20
234.344280
 42
0.125988
  0
VERTEX
  8
0
 10
69.334068
 20
233.862288
 42
0.116178
  0
VERTEX
  8
0
 10
68.396779
 20
232.621000
 42
0.100444
  0
VERTEX
  8
0
 10
68.047398
 20
231.022761
 42
0.102765
  0
VERTEX
  8
0
 10
68.350474
 20
229.445244
 42
0.127784
  0
VERTEX
  8
0
 10
69.250000
 20
228.259056
 42
0.112430
  0
VERTEX
  8
0
 10
73.045270
 20
226.454330
 42
0.009384
  0
VERTEX
  8
0
 10
83.782142
 20
224.264605
 42
0.013305
  0
VERTEX
  8
0
 10
95.729084
 20
222.387961
 42
0.016875
  0
VERTEX
  8
0
 10
106.848055
 20
221.323401
 42
0.000000
  0
VERTEX
  8
0
 10
117.196109
 20
220.684068
 42
0.000000
  0
VERTEX
  8
0
 10
112.348055
 20
218.836362
 42
-0.013930
  0
VERTEX
  8
0
 10
110.073248
 20
218.041211
 42
-0.007362
  0
VERTEX
  8
0
 10
107.211310
 20
217.175659
 42
-0.007320
  0
VERTEX
  8
0
 10
104.254620
 20
216.375402
 42
-0.011224
  0
VERTEX
  8
0
 10
101.669171
 20
215.777556
 42
0.034012
  0
VERTEX
  8
0
 10
97.616032
 20
214.643625
 42
0.110573
  0
VERTEX
  8
0
 10
95.267978
 20
213.168109
 42
0.187196
  0
VERTEX
  8
0
 10
94.445055
 20
211.322374
 42
0.136001
  0
VERTEX
  8
0
 10
94.943030
 20
209.106449
 42
0.253749
  0
VERTEX
  8
0
 10
99.887290
 20
205.850199
 42
0.019129
  0
VERTEX
  8
0
 10
116.487388
 20
205.067257
 42
0.025418
  0
VERTEX
  8
0
 10
135.431252
 20
205.862392
 42
0.029250
  0
VERTEX
  8
0
 10
153.315381
 20
208.588315
 42
-0.023562
  0
VERTEX
  8
0
 10
154.639346
 20
208.805545
 42
-0.098118
  0
VERTEX
  8
0
 10
155.441606
 20
208.741145
 42
-0.205509
  0
VERTEX
  8
0
 10
155.846784
 20
208.412766
 42
-0.156334
  0
VERTEX
  8
0
 10
155.946898
 20
207.843815
 42
0.102639
  0
VERTEX
  8
0
 10
156.251606
 20
203.407994
 42
0.107807
  0
VERTEX
  8
0
 10
158.300886
 20
199.546782
 42
0.109406
  0
VERTEX
  8
0
 10
161.742400
 20
196.929798
 42
0.108470
  0
VERTEX
  8
0
 10
165.977947
 20
196.000000
 42
-0.022911
  0
VERTEX
  8
0
 10
168.267864
 20
195.895017
 42
-0.156972
  0
VERTEX
  8
0
 10
169.292786
 20
195.458022
 42
-0.153884
  0
VERTEX
  8
0
 10
169.880952
 20
194.500835
 42
-0.021768
  0
VERTEX
  8
0
 10
170.350818
 20
192.207569
 42
0.085317
  0
VERTEX
  8
0
 10
171.629966
 20
188.458253
 42
0.084426
  0
VERTEX
  8
0
 10
174.090919
 20
185.335723
 42
0.086783
  0
VERTEX
  8
0
 10
177.378869
 20
183.266317
 42
0.097461
  0
VERTEX
  8
0
 10
181.041940
 20
182.545455
 42
-0.017120
  0
VERTEX
  8
0
 10
183.239387
 20
182.470192
 42
-0.109955
  0
VERTEX
  8
0
 10
184.299402
 20
182.156750
 42
-0.193421
  0
VERTEX
  8
0
 10
184.824567
 20
181.510157
 42
-0.075145
  0
VERTEX
  8
0
 10
185.000000
 20
180.349453
 42
0.130581
  0
VERTEX
  8
0
 10
185.688576
 20
177.757832
 42
0.061452
  0
VERTEX
  8
0
 10
187.779288
 20
174.962280
 42
0.059078
  0
VERTEX
  8
0
 10
190.637921
 20
172.613074
 42
0.084612
  0
VERTEX
  8
0
 10
193.652067
 20
171.334985
 42
0.000000
  0
VERTEX
  8
0
 10
197.290888
 20
170.474424
 42
0.000000
  0
VERTEX
  8
0
 10
190.395444
 20
167.600514
 42
-0.001418
  0
VERTEX
  8
0
 10
187.425905
 20
166.372731
 42
-0.001117
  0
VERTEX
  8
0
 10
184.203662
 20
165.059556
 42
-0.001129
  0
VERTEX
  8
0
 10
181.204638
 20
163.853037
 42
-0.002796
  0
VERTEX
  8
0
 10
179.000000
 20
162.986149
 42
0.003045
  0
VERTEX
  8
0
 10
176.066539
 20
161.830996
 42
0.000233
  0
VERTEX
  8
0
 10
168.184375
 20
158.667275
 42
0.000320
  0
VERTEX
  8
0
 10
158.786295
 20
154.883027
 42
0.000244
  0
VERTEX
  8
0
 10
148.500000
 20
150.727641
 42
-0.000045
  0
VERTEX
  8
0
 10
106.628121
 20
133.793160
 42
-0.000155
  0
VERTEX
  8
0
 10
79.477932
 20
122.825314
 42
-0.000119
  0
VERTEX
  8
0
 10
60.313130
 20
115.095553
 42
-0.002939
  0
VERTEX
  8
0
 10
55.000000
 20
112.990290
 42
0.002943
  0
VERTEX
  8
0
 10
39.901725
 20
107.007652
 42
0.006625
  0
VERTEX
  8
0
 10
28.543168
 20
102.253438
 42
0.004526
  0
VERTEX
  8
0
 10
19.932714
 20
98.421634
 42
0.105968
  0
VERTEX
  8
0
 10
17.800137
 20
96.837472
 42
0.123742
  0
VERTEX
  8
0
 10
16.828783
 20
94.946414
 42
0.151232
  0
VERTEX
  8
0
 10
16.971000
 20
92.972079
 42
0.060930
  0
VERTEX
  8
0
 10
18.483801
 20
90.161688
 42
0.007436
  0
VERTEX
  8
0
 10
22.615190
 20
84.500000
 42
0.027203
  0
VERTEX
  8
0
 10
33.220872
 20
71.899608
 42
0.029178
  0
VERTEX
  8
0
 10
44.899846
 20
60.834534
 42
0.030552
  0
VERTEX
  8
0
 10
57.208207
 20
51.689756
 42
0.038070
  0
VERTEX
  8
0
 10
69.695834
 20
44.838533
 42
0.027436
  0
VERTEX
  8
0
 10
75.108723
 20
42.733855
 42
0.010903
  0
VERTEX
  8
0
 10
82.740197
 20
40.421785
 42
0.009276
  0
VERTEX
  8
0
 10
90.227307
 20
38.479530
 42
0.057822
  0
VERTEX
  8
0
 10
94.154322
 20
38.007006
 42
0.145598
  0
VERTEX
  8
0
 10
95.174222
 20
38.305733
 42
0.008324
  0
VERTEX
  8
0
 10
97.921105
 20
40.147868
 42
0.012145
  0
VERTEX
  8
0
 10
101.145247
 20
42.506920
 42
0.008580
  0
VERTEX
  8
0
 10
104.654322
 20
45.304886
 42
-0.006965
  0
VERTEX
  8
0
 10
114.258728
 20
53.013863
 42
-0.005357
  0
VERTEX
  8
0
 10
124.948235
 20
61.168994
 42
-0.004894
  0
VERTEX
  8
0
 10
136.820149
 20
69.847025
 42
-0.003715
  0
VERTEX
  8
0
 10
150.000000
 20
79.137228
 42
0.000297
  0
VERTEX
  8
0
 10
156.447757
 20
83.616460
 42
0.000282
  0
VERTEX
  8
0
 10
163.003575
 20
88.182029
 42
0.000280
  0
VERTEX
  8
0
 10
168.797478
 20
92.226662
 42
0.000996
  0
VERTEX
  8
0
 10
172.501532
 20
94.826483
 42
0.000000
  0
VERTEX
  8
0
 10
179.503065
 20
99.761598
 42
0.000000
  0
VERTEX
  8
0
 10
186.001532
 20
98.453968
 42
0.013266
  0
VERTEX
  8
0
 10
193.847860
 20
97.090619
 42
0.004939
  0
VERTEX
  8
0
 10
204.938525
 20
95.577109
 42
0.004198
  0
VERTEX
  8
0
 10
215.782148
 20
94.298685
 42
0.026425
  0
VERTEX
  8
0
 10
221.341743
 20
93.986345
 42
-0.017157
  0
VERTEX
  8
0
 10
225.721144
 20
93.821630
 42
-0.092911
  0
VERTEX
  8
0
 10
228.011394
 20
93.219253
 42
-0.189441
  0
VERTEX
  8
0
 10
229.106360
 20
92.052967
 42
-0.119688
  0
VERTEX
  8
0
 10
229.372374
 20
90.181296
 42
0.009751
  0
VERTEX
  8
0
 10
229.226316
 20
88.301923
 42
0.000391
  0
VERTEX
  8
0
 10
228.834410
 20
81.466999
 42
0.000688
  0
VERTEX
  8
0
 10
228.387740
 20
73.371197
 42
0.000487
  0
VERTEX
  8
0
 10
227.907620
 20
64.280829
 42
0.002200
  0
VERTEX
  8
0
 10
227.329431
 20
52.090508
 42
0.011424
  0
VERTEX
  8
0
 10
227.193701
 20
45.354898
 42
0.015499
  0
VERTEX
  8
0
 10
227.335932
 20
41.135396
 42
0.158311
  0
VERTEX
  8
0
 10
227.974414
 20
39.530829
 42
0.153658
  0
VERTEX
  8
0
 10
229.965444
 20
38.245800
 42
0.165207
  0
VERTEX
  8
0
 10
232.269449
 20
38.382460
 42
0.085907
  0
VERTEX
  8
0
 10
235.179676
 20
40.199306
 42
0.022121
  0
VERTEX
  8
0
 10
239.156304
 20
44.084135
 42
0.000000
  0
VERTEX
  8
0
 10
244.856618
 20
50.168269
 42
0.000000
  0
VERTEX
  8
0
 10
255.678309
 20
45.630778
 42
0.002630
  0
VERTEX
  8
0
 10
260.617373
 20
43.590329
 42
0.001540
  0
VERTEX
  8
0
 10
266.552378
 20
41.196179
 42
0.001540
  0
VERTEX
  8
0
 10
272.505154
 20
38.837384
 42
0.002618
  0
VERTEX
  8
0
 10
277.500000
 20
36.906065
 42
-0.001222
  0
VERTEX
  8
0
 10
281.742381
 20
35.279289
 42
-0.001928
  0
VERTEX
  8
0
 10
285.374002
 20
33.860403
 42
-0.000453
  0
VERTEX
  8
0
 10
288.549391
 20
32.602311
 42
-0.080338
  0
VERTEX
  8
0
 10
288.858306
 20
32.417783
 42
-0.265879
  0
VERTEX
  8
0
 10
288.965943
 20
32.124972
 42
-0.001853
  0
VERTEX
  8
0
 10
288.496559
 20
29.409650
 42
-0.006417
  0
VERTEX
  8
0
 10
287.900210
 20
26.270137
 42
-0.003983
  0
VERTEX
  8
0
 10
287.123674
 20
22.600098
 42
0.008691
  0
VERTEX
  8
0
 10
286.365389
 20
18.841928
 42
0.011794
  0
VERTEX
  8
0
 10
285.820299
 20
15.423562
 42
0.008824
  0
VERTEX
  8
0
 10
285.485732
 20
12.574458
 42
0.116942
  0
VERTEX
  8
0
 10
285.625670
 20
11.533106
 42
0.173558
  0
VERTEX
  8
0
 10
286.767654
 20
10.204756
 42
0.084348
  0
VERTEX
  8
0
 10
288.898968
 20
9.429889
 42
0.044176
  0
VERTEX
  8
0
 10
292.438274
 20
9.102949
 42
0.010343
  0
VERTEX
  8
0
 10
298.398254
 20
9.203496
 42
0.009180
  0
VERTEX
  8
0
 10
302.457159
 20
9.430687
 42
0.037396
  0
VERTEX
  8
0
 10
304.899907
 20
9.797458
 42
0.065948
  0
VERTEX
  8
0
 10
306.442266
 20
10.370088
 42
0.131357
  0
VERTEX
  8
0
 10
307.389784
 20
11.250000
 42
0.151529
  0
VERTEX
  8
0
 10
307.935602
 20
13.298590
 42
0.197205
  0
VERTEX
  8
0
 10
307.134418
 20
15.046468
 42
0.116444
  0
VERTEX
  8
0
 10
304.830020
 20
16.365086
 42
0.041020
  0
VERTEX
  8
0
 10
301.078014
 20
17.148739
 42
-0.005952
  0
VERTEX
  8
0
 10
299.054113
 20
17.425314
 42
-0.008788
  0
VERTEX
  8
0
 10
297.285917
 20
17.720275
 42
-0.004768
  0
VERTEX
  8
0
 10
295.809347
 20
18.007931
 42
-0.146908
  0
VERTEX
  8
0
 10
295.483270
 20
18.183397
 42
-0.233388
  0
VERTEX
  8
0
 10
295.372999
 20
18.508693
 42
-0.007562
  0
VERTEX
  8
0
 10
295.580957
 20
19.914521
 42
-0.013096
  0
VERTEX
  8
0
 10
295.902642
 20
21.603797
 42
-0.008556
  0
VERTEX
  8
0
 10
296.357751
 20
23.534658
 42
-0.019716
  0
VERTEX
  8
0
 10
297.178479
 20
26.305025
 42
-0.081314
  0
VERTEX
  8
0
 10
297.998115
 20
27.842751
 42
-0.103583
  0
VERTEX
  8
0
 10
299.158605
 20
28.845044
 42
-0.043044
  0
VERTEX
  8
0
 10
301.059075
 20
29.693558
 42
-0.034553
  0
VERTEX
  8
0
 10
305.114409
 20
30.793261
 42
-0.128838
  0
VERTEX
  8
0
 10
307.731300
 20
30.634649
 42
-0.119493
  0
VERTEX
  8
0
 10
310.043930
 20
29.201895
 42
-0.027809
  0
VERTEX
  8
0
 10
313.087851
 20
25.750000
 42
0.011396
  0
VERTEX
  8
0
 10
316.409765
 20
21.723945
 42
0.071099
  0
VERTEX
  8
0
 10
318.420614
 20
19.973826
 42
0.151415
  0
VERTEX
  8
0
 10
320.117669
 20
19.497427
 42
0.116657
  0
VERTEX
  8
0
 10
321.986750
 20
19.992909
 42
0.176198
  0
VERTEX
  8
0
 10
323.538090
 20
21.724373
 42
0.156498
  0
VERTEX
  8
0
 10
323.711047
 20
24.146307
 42
0.080108
  0
VERTEX
  8
0
 10
322.274990
 20
27.551817
 42
0.022264
  0
VERTEX
  8
0
 10
318.976419
 20
32.337735
 42
0.018193
  0
VERTEX
  8
0
 10
315.536257
 20
36.554144
 42
0.078887
  0
VERTEX
  8
0
 10
313.059300
 20
38.609342
 42
0.089486
  0
VERTEX
  8
0
 10
310.224184
 20
39.665696
 42
0.027229
  0
VERTEX
  8
0
 10
305.658554
 20
40.233457
 42
0.000000
  0
VERTEX
  8
0
 10
301.817108
 20
40.500000
 42
0.000000
  0
VERTEX
  8
0
 10
307.533587
 20
43.770136
 42
-0.008918
  0
VERTEX
  8
0
 10
310.677534
 20
45.494967
 42
-0.054560
  0
VERTEX
  8
0
 10
312.397501
 20
46.171866
 42
-0.128022
  0
VERTEX
  8
0
 10
313.515226
 20
46.184459
 42
-0.164672
  0
VERTEX
  8
0
 10
314.375033
 20
45.633584
 42
0.000153
  0
VERTEX
  8
0
 10
315.067690
 20
44.768010
 42
0.000018
  0
VERTEX
  8
0
 10
316.608187
 20
42.844285
 42
0.000022
  0
VERTEX
  8
0
 10
318.439865
 20
40.557313
 42
0.000018
  0
VERTEX
  8
0
 10
320.397517
 20
38.113448
 42
0.014164
  0
VERTEX
  8
0
 10
322.682435
 20
35.421196
 42
0.031100
  0
VERTEX
  8
0
 10
324.608548
 20
33.528867
 42
0.040502
  0
VERTEX
  8
0
 10
326.214530
 20
32.349516
 42
0.138997
  0
VERTEX
  8
0
 10
327.447517
 20
32.000000
 42
0.084178
  0
VERTEX
  8
0
 10
329.173836
 20
32.292711
 42
0.091394
  0
VERTEX
  8
0
 10
330.652704
 20
33.135930
 42
0.099034
  0
VERTEX
  8
0
 10
331.647710
 20
34.384425
 42
0.119429
  0
VERTEX
  8
0
 10
332.000000
 20
35.838284
 42
0.156750
  0
VERTEX
  8
0
 10
331.375351
 20
37.781831
 42
0.005546
  0
VERTEX
  8
0
 10
326.659341
 20
44.208944
 42
0.011059
  0
VERTEX
  8
0
 10
321.774780
 20
50.422187
 42
0.029662
  0
VERTEX
  8
0
 10
317.950945
 20
54.546061
 42
0.000000
  0
VERTEX
  8
0
 10
314.866721
 20
57.500000
 42
0.000000
  0
VERTEX
  8
0
 10
306.513595
 20
53.064979
 42
0.000000
  0
VERTEX
  8
0
 10
298.160470
 20
48.629958
 42
0.000000
  0
VERTEX
  8
0
 10
290.830235
 20
51.992820
 42
-0.004212
  0
VERTEX
  8
0
 10
279.600581
 20
57.259546
 42
-0.092336
  0
VERTEX
  8
0
 10
276.685136
 20
59.390229
 42
-0.607907
  0
VERTEX
  8
0
 10
277.121578
 20
60.636316
 42
-0.034497
  0
VERTEX
  8
0
 10
282.331787
 20
61.014742
 42
0.043918
  0
VERTEX
  8
0
 10
285.821336
 20
61.334285
 42
0.062992
  0
VERTEX
  8
0
 10
288.780132
 20
62.265508
 42
0.078854
  0
VERTEX
  8
0
 10
290.880367
 20
63.666008
 42
0.160109
  0
VERTEX
  8
0
 10
291.834962
 20
65.381542
 42
0.184621
  0
VERTEX
  8
0
 10
291.626174
 20
66.563258
 42
0.029203
  0
VERTEX
  8
0
 10
290.274604
 20
68.545652
 42
0.024328
  0
VERTEX
  8
0
 10
288.095707
 20
71.104187
 42
0.010060
  0
VERTEX
  8
0
 10
284.915862
 20
74.356074
 42
-0.014117
  0
VERTEX
  8
0
 10
281.292325
 20
78.122356
 42
-0.024637
  0
VERTEX
  8
0
 10
278.540247
 20
81.466457
 42
-0.027424
  0
VERTEX
  8
0
 10
276.337948
 20
84.795185
 42
-0.023976
  0
VERTEX
  8
0
 10
274.403839
 20
88.494781
 42
0.000000
  0
VERTEX
  8
0
 10
271.163595
 20
95.490263
 42
0.000000
  0
VERTEX
  8
0
 10
281.787401
 20
97.717040
 42
0.001888
  0
VERTEX
  8
0
 10
285.951540
 20
98.606284
 42
0.002630
  0
VERTEX
  8
0
 10
289.671328
 20
99.435853
 42
0.001604
  0
VERTEX
  8
0
 10
292.795664
 20
100.160452
 42
0.033840
  0
VERTEX
  8
0
 10
293.707765
 20
100.441353
 42
-0.462242
  0
VERTEX
  8
0
 10
294.350934
 20
100.090349
 42
-0.039846
  0
VERTEX
  8
0
 10
294.617396
 20
97.980054
 42
-0.019631
  0
VERTEX
  8
0
 10
294.643580
 20
94.071161
 42
-0.003212
  0
VERTEX
  8
0
 10
294.348560
 20
86.506986
 42
0.007079
  0
VERTEX
  8
0
 10
294.037718
 20
76.563084
 42
0.057340
  0
VERTEX
  8
0
 10
294.480863
 20
72.030710
 42
0.165791
  0
VERTEX
  8
0
 10
295.788650
 20
69.852013
 42
0.177219
  0
VERTEX
  8
0
 10
298.116998
 20
69.000000
 42
0.148897
  0
VERTEX
  8
0
 10
299.158691
 20
69.317243
 42
0.017284
  0
VERTEX
  8
0
 10
301.158451
 20
70.762500
 42
0.019558
  0
VERTEX
  8
0
 10
303.463742
 20
72.702189
 42
0.014805
  0
VERTEX
  8
0
 10
305.841962
 20
75.000000
 42
-0.005652
  0
VERTEX
  8
0
 10
308.136319
 20
77.299459
 42
-0.008621
  0
VERTEX
  8
0
 10
310.183723
 20
79.237500
 42
-0.004020
  0
VERTEX
  8
0
 10
311.952615
 20
80.829082
 42
-0.183169
  0
VERTEX
  8
0
 10
312.403520
 20
81.000000
 42
-0.094709
  0
VERTEX
  8
0
 10
312.917505
 20
80.901761
 42
-0.001296
  0
VERTEX
  8
0
 10
315.898497
 20
79.710074
 42
-0.003606
  0
VERTEX
  8
0
 10
319.347997
 20
78.291719
 42
-0.002358
  0
VERTEX
  8
0
 10
323.306112
 20
76.608763
 42
0.004421
  0
VERTEX
  8
0
 10
327.933958
 20
74.663550
 42
0.002679
  0
VERTEX
  8
0
 10
333.443045
 20
72.439443
 42
0.002684
  0
VERTEX
  8
0
 10
338.935049
 20
70.290455
 42
0.004723
  0
VERTEX
  8
0
 10
343.500000
 20
68.581752
 42
-0.002693
  0
VERTEX
  8
0
 10
347.422058
 20
67.131819
 42
-0.003700
  0
VERTEX
  8
0
 10
350.931409
 20
65.783209
 42
-0.002388
  0
VERTEX
  8
0
 10
353.863321
 20
64.615333
 42
-0.043819
  0
VERTEX
  8
0
 10
354.755861
 20
64.160350
 42
-0.224229
  0
VERTEX
  8
0
 10
355.295494
 20
63.319607
 42
-0.050422
  0
VERTEX
  8
0
 10
355.345629
 20
61.573572
 42
-0.027680
  0
VERTEX
  8
0
 10
354.980095
 20
58.719917
 42
-0.005780
  0
VERTEX
  8
0
 10
354.005845
 20
53.769188
 42
0.009460
  0
VERTEX
  8
0
 10
352.718369
 20
46.962763
 42
0.066979
  0
VERTEX
  8
0
 10
352.603384
 20
43.608692
 42
0.164279
  0
VERTEX
  8
0
 10
353.452192
 20
41.733909
 42
0.140407
  0
VERTEX
  8
0
 10
355.319175
 20
40.612196
 42
0.057900
  0
VERTEX
  8
0
 10
359.265513
 20
40.030454
 42
0.015622
  0
VERTEX
  8
0
 10
365.600845
 20
40.033959
 42
0.010014
  0
VERTEX
  8
0
 10
371.971375
 20
40.364396
 42
0.180303
  0
VERTEX
  8
0
 10
373.800000
 20
41.200000
 42
0.193248
  0
VERTEX
  8
0
 10
374.910576
 20
43.800557
 42
0.199877
  0
VERTEX
  8
0
 10
373.893965
 20
46.400495
 42
0.127854
  0
VERTEX
  8
0
 10
370.725636
 20
48.339437
 42
0.073847
  0
VERTEX
  8
0
 10
366.277494
 20
49.000000
 42
-0.012231
  0
VERTEX
  8
0
 10
364.637544
 20
49.040121
 42
-0.020155
  0
VERTEX
  8
0
 10
363.256514
 20
49.163672
 42
-0.015160
  0
VERTEX
  8
0
 10
362.181904
 20
49.336922
 42
-0.359551
  0
VERTEX
  8
0
 10
362.000000
 20
49.557180
 42
-0.064045
  0
VERTEX
  8
0
 10
362.319568
 20
52.041825
 42
-0.018243
  0
VERTEX
  8
0
 10
363.442961
 20
55.774880
 42
-0.014903
  0
VERTEX
  8
0
 10
364.794723
 20
59.381495
 42
-0.127682
  0
VERTEX
  8
0
 10
365.818725
 20
60.750000
 42
-0.093011
  0
VERTEX
  8
0
 10
366.725793
 20
61.232573
 42
-0.026152
  0
VERTEX
  8
0
 10
368.285780
 20
61.632812
 42
-0.025407
  0
VERTEX
  8
0
 10
370.130839
 20
61.907991
 42
-0.024317
  0
VERTEX
  8
0
 10
372.021610
 20
62.000000
 42
-0.026310
  0
VERTEX
  8
0
 10
374.854287
 20
61.850843
 42
-0.107964
  0
VERTEX
  8
0
 10
376.476966
 20
61.312545
 42
-0.089804
  0
VERTEX
  8
0
 10
377.878440
 20
60.096847
 42
-0.015090
  0
VERTEX
  8
0
 10
380.028993
 20
57.250000
 42
0.009442
  0
VERTEX
  8
0
 10
382.668536
 20
53.672537
 42
0.059005
  0
VERTEX
  8
0
 10
384.253325
 20
52.046070
 42
0.105076
  0
VERTEX
  8
0
 10
385.751973
 20
51.282697
 42
0.063804
  0
VERTEX
  8
0
 10
387.730948
 20
51.015313
 42
0.072989
  0
VERTEX
  8
0
 10
388.772211
 20
51.160835
 42
0.108081
  0
VERTEX
  8
0
 10
389.578254
 20
51.601075
 42
0.099074
  0
VERTEX
  8
0
 10
390.173300
 20
52.370855
 42
0.053716
  0
VERTEX
  8
0
 10
390.588810
 20
53.497825
 42
0.105838
  0
VERTEX
  8
0
 10
390.644452
 20
55.086337
 42
0.059394
  0
VERTEX
  8
0
 10
390.081338
 20
56.942656
 42
0.036398
  0
VERTEX
  8
0
 10
388.786001
 20
59.395085
 42
0.010176
  0
VERTEX
  8
0
 10
386.410527
 20
63.028301
 42
0.017121
  0
VERTEX
  8
0
 10
383.045764
 20
67.607975
 42
0.088650
  0
VERTEX
  8
0
 10
380.706267
 20
69.685146
 42
0.098988
  0
VERTEX
  8
0
 10
377.913036
 20
70.710786
 42
0.024013
  0
VERTEX
  8
0
 10
373.000000
 20
71.236282
 42
0.000000
  0
VERTEX
  8
0
 10
368.500000
 20
71.500000
 42
0.000000
  0
VERTEX
  8
0
 10
373.765023
 20
74.750000
 42
-0.005852
  0
VERTEX
  8
0
 10
375.835614
 20
75.994906
 42
-0.008420
  0
VERTEX
  8
0
 10
377.699345
 20
77.044216
 42
-0.004992
  0
VERTEX
  8
0
 10
379.282707
 20
77.880561
 42
-0.120847
  0
VERTEX
  8
0
 10
379.765023
 20
77.996268
 42
-0.201895
  0
VERTEX
  8
0
 10
380.212068
 20
77.805407
 42
-0.005244
  0
VERTEX
  8
0
 10
381.738519
 20
76.194104
 42
-0.010286
  0
VERTEX
  8
0
 10
383.500516
 20
74.214494
 42
-0.006750
  0
VERTEX
  8
0
 10
385.451212
 20
71.866484
 42
0.003480
  0
VERTEX
  8
0
 10
389.599032
 20
66.806887
 42
0.025486
  0
VERTEX
  8
0
 10
391.720649
 20
64.504747
 42
0.057549
  0
VERTEX
  8
0
 10
393.184980
 20
63.367683
 42
0.137171
  0
VERTEX
  8
0
 10
394.500000
 20
63.000000
 42
0.138446
  0
VERTEX
  8
0
 10
395.876705
 20
63.388648
 42
0.058182
  0
VERTEX
  8
0
 10
397.402627
 20
64.588947
 42
0.058205
  0
VERTEX
  8
0
 10
398.609571
 20
66.106870
 42
0.139771
  0
VERTEX
  8
0
 10
399.000000
 20
67.476262
 42
0.168502
  0
VERTEX
  8
0
 10
398.154389
 20
69.914229
 42
0.005509
  0
VERTEX
  8
0
 10
391.572322
 20
78.074500
 42
0.006000
  0
VERTEX
  8
0
 10
384.849472
 20
86.027526
 42
0.147742
  0
VERTEX
  8
0
 10
382.439561
 20
87.550747
 42
0.128349
  0
VERTEX
  8
0
 10
381.114259
 20
87.570629
 42
0.028081
  0
VERTEX
  8
0
 10
378.914203
 20
86.898620
 42
0.023750
  0
VERTEX
  8
0
 10
376.091375
 20
85.704851
 42
0.011771
  0
VERTEX
  8
0
 10
372.625499
 20
83.939411
 42
0.000000
  0
VERTEX
  8
0
 10
364.871876
 20
79.757159
 42
0.000000
  0
VERTEX
  8
0
 10
352.867623
 20
85.605808
 42
-0.003770
  0
VERTEX
  8
0
 10
348.320678
 20
87.863723
 42
-0.006776
  0
VERTEX
  8
0
 10
344.629999
 20
89.794512
 42
-0.002897
  0
VERTEX
  8
0
 10
341.651105
 20
91.427087
 42
-0.683154
  0
VERTEX
  8
0
 10
341.681685
 20
91.652231
 42
-0.029912
  0
VERTEX
  8
0
 10
342.254408
 20
91.754870
 42
-0.001345
  0
VERTEX
  8
0
 10
344.245119
 20
91.984482
 42
-0.002254
  0
VERTEX
  8
0
 10
346.610252
 20
92.240045
 42
-0.001610
  0
VERTEX
  8
0
 10
349.259145
 20
92.505576
 42
0.036933
  0
VERTEX
  8
0
 10
356.350280
 20
93.726616
 42
0.269781
  0
VERTEX
  8
0
 10
358.726362
 20
96.036944
 42
0.245969
  0
VERTEX
  8
0
 10
358.003141
 20
99.430926
 42
0.031890
  0
VERTEX
  8
0
 10
352.750000
 20
105.001613
 42
-0.010408
  0
VERTEX
  8
0
 10
350.227896
 20
107.455966
 42
-0.010501
  0
VERTEX
  8
0
 10
347.817737
 20
110.006052
 42
-0.010354
  0
VERTEX
  8
0
 10
345.812961
 20
112.312737
 42
-0.041204
  0
VERTEX
  8
0
 10
344.735912
 20
113.845850
 42
-0.078606
  0
VERTEX
  8
0
 10
343.873978
 20
116.047413
 42
-0.354788
  0
VERTEX
  8
0
 10
344.450566
 20
117.195009
 42
-0.073202
  0
VERTEX
  8
0
 10
346.824677
 20
117.870490
 42
-0.002562
  0
VERTEX
  8
0
 10
356.341979
 20
119.075348
 42
-0.028283
  0
VERTEX
  8
0
 10
367.974359
 20
119.823777
 42
-0.046134
  0
VERTEX
  8
0
 10
377.820013
 20
118.989807
 42
-0.047909
  0
VERTEX
  8
0
 10
387.080954
 20
116.402324
 42
-0.033527
  0
VERTEX
  8
0
 10
396.913710
 20
111.830517
 42
-0.000116
  0
VERTEX
  8
0
 10
400.256070
 20
109.993791
 42
-0.000080
  0
VERTEX
  8
0
 10
404.034027
 20
107.915762
 42
-0.000081
  0
VERTEX
  8
0
 10
407.662027
 20
105.918692
 42
-0.000167
  0
VERTEX
  8
0
 10
410.500000
 20
104.354669
 42
0.024682
  0
VERTEX
  8
0
 10
414.818882
 20
102.243475
 42
0.058040
  0
VERTEX
  8
0
 10
418.253343
 20
101.220957
 42
0.085868
  0
VERTEX
  8
0
 10
420.896274
 20
101.215406
 42
0.155276
  0
VERTEX
  8
0
 10
422.800000
 20
102.200000
 42
0.158295
  0
VERTEX
  8
0
 10
423.669943
 20
103.906627
 42
0.158600
  0
VERTEX
  8
0
 10
423.370354
 20
105.797264
 42
0.060791
  0
VERTEX
  8
0
 10
421.552767
 20
108.493392
 42
0.008263
  0
VERTEX
  8
0
 10
417.000000
 20
113.569283
 42
-0.009226
  0
VERTEX
  8
0
 10
414.318287
 20
116.570734
 42
-0.013116
  0
VERTEX
  8
0
 10
412.056250
 20
119.342301
 42
-0.009117
  0
VERTEX
  8
0
 10
410.292187
 20
121.711364
 42
-0.156719
  0
VERTEX
  8
0
 10
410.000000
 20
122.620670
 42
-0.318138
  0
VERTEX
  8
0
 10
410.586748
 20
123.449496
 42
-0.088940
  0
VERTEX
  8
0
 10
412.245179
 20
123.719401
 42
-0.030423
  0
VERTEX
  8
0
 10
415.554819
 20
123.464365
 42
-0.003756
  0
VERTEX
  8
0
 10
422.721258
 20
122.416092
 42
-0.091390
  0
VERTEX
  8
0
 10
425.362295
 20
121.496597
 42
-0.104928
  0
VERTEX
  8
0
 10
427.355728
 20
119.725528
 42
-0.095455
  0
VERTEX
  8
0
 10
428.583965
 20
117.149905
 42
-0.063746
  0
VERTEX
  8
0
 10
429.000000
 20
113.899938
 42
0.063449
  0
VERTEX
  8
0
 10
429.351671
 20
111.139828
 42
0.126734
  0
VERTEX
  8
0
 10
430.410301
 20
109.227466
 42
0.155677
  0
VERTEX
  8
0
 10
432.088720
 20
108.301334
 42
0.112849
  0
VERTEX
  8
0
 10
434.237014
 20
108.364531
 42
0.093819
  0
VERTEX
  8
0
 10
435.517077
 20
108.969111
 42
0.010584
  0
VERTEX
  8
0
 10
438.085302
 20
110.919480
 42
0.012530
  0
VERTEX
  8
0
 10
441.061062
 20
113.404287
 42
0.009873
  0
VERTEX
  8
0
 10
444.159760
 20
116.236718
 42
0.009460
  0
VERTEX
  8
0
 10
448.006255
 20
120.035824
 42
0.030307
  0
VERTEX
  8
0
 10
450.359941
 20
122.762664
 42
0.045795
  0
VERTEX
  8
0
 10
451.770823
 20
125.013249
 42
0.070866
  0
VERTEX
  8
0
 10
452.506385
 20
127.182346
 42
0.076607
  0
VERTEX
  8
0
 10
452.696507
 20
133.024696
 42
0.117732
  0
VERTEX
  8
0
 10
450.946592
 20
137.748530
 42
0.093616
  0
VERTEX
  8
0
 10
446.880224
 20
141.893356
 42
0.035612
  0
VERTEX
  8
0
 10
439.894457
 20
146.053066
 42
-0.010336
  0
VERTEX
  8
0
 10
436.160309
 20
148.028289
 42
-0.033281
  0
VERTEX
  8
0
 10
433.801125
 20
149.552983
 42
-0.051892
  0
VERTEX
  8
0
 10
432.419807
 20
150.824379
 42
-0.182776
  0
VERTEX
  8
0
 10
432.000000
 20
151.934435
 42
0.137857
  0
VERTEX
  8
0
 10
431.349821
 20
154.247779
 42
0.051032
  0
VERTEX
  8
0
 10
429.282986
 20
156.966844
 42
0.048292
  0
VERTEX
  8
0
 10
426.430760
 20
159.480377
 42
0.058090
  0
VERTEX
  8
0
 10
423.312685
 20
161.223686
 42
0.004660
  0
VERTEX
  8
0
 10
421.013957
 20
162.153663
 42
0.000643
  0
VERTEX
  8
0
 10
416.213726
 20
164.036659
 42
0.000738
  0
VERTEX
  8
0
 10
410.522562
 20
166.251028
 42
0.000625
  0
VERTEX
  8
0
 10
404.500000
 20
168.575467
 42
-0.007468
  0
VERTEX
  8
0
 10
390.316486
 20
174.273909
 42
-0.006941
  0
VERTEX
  8
0
 10
375.957181
 20
180.529350
 42
-0.007054
  0
VERTEX
  8
0
 10
363.264327
 20
186.486852
 42
-0.020783
  0
VERTEX
  8
0
 10
354.778416
 20
191.062333
 42
-0.018221
  0
VERTEX
  8
0
 10
349.978461
 20
194.155902
 42
-0.178159
  0
VERTEX
  8
0
 10
348.620730
 20
196.101655
 42
-0.178499
  0
VERTEX
  8
0
 10
348.849523
 20
198.461468
 42
-0.018304
  0
VERTEX
  8
0
 10
351.514627
 20
203.500000
 42
-0.036284
  0
VERTEX
  8
0
 10
354.068120
 20
207.267297
 42
-0.043802
  0
VERTEX
  8
0
 10
356.998343
 20
210.376582
 42
-0.041576
  0
VERTEX
  8
0
 10
360.555199
 20
213.049140
 42
-0.028046
  0
VERTEX
  8
0
 10
365.000000
 20
215.507462
 42
-0.000084
  0
VERTEX
  8
0
 10
367.360673
 20
216.644766
 42
-0.000067
  0
VERTEX
  8
0
 10
369.906760
 20
217.870451
 42
-0.000068
  0
VERTEX
  8
0
 10
372.264720
 20
219.004790
 42
-0.000171
  0
VERTEX
  8
0
 10
373.980460
 20
219.829170
 42
0.062647
  0
VERTEX
  8
0
 10
378.199356
 20
222.549442
 42
0.028450
  0
VERTEX
  8
0
 10
382.992598
 20
227.057188
 42
0.028372
  0
VERTEX
  8
0
 10
387.368226
 20
232.226127
 42
0.047873
  0
VERTEX
  8
0
 10
390.334321
 20
237.063173
 42
0.052126
  0
VERTEX
  8
0
 10
393.569286
 20
245.918765
 42
0.060817
  0
VERTEX
  8
0
 10
394.681585
 20
254.799631
 42
0.061757
  0
VERTEX
  8
0
 10
393.621524
 20
263.572940
 42
0.056415
  0
VERTEX
  8
0
 10
390.443412
 20
272.111670
 42
0.019255
  0
VERTEX
  8
0
 10
387.620471
 20
277.187808
 42
0.001096
  0
VERTEX
  8
0
 10
378.282170
 20
292.479710
 42
0.001828
  0
VERTEX
  8
0
 10
367.928704
 20
309.213210
 42
0.002144
  0
VERTEX
  8
0
 10
357.986720
 20
325.000000
 42
-0.001715
  0
VERTEX
  8
0
 10
355.135405
 20
329.518972
 42
-0.000235
  0
VERTEX
  8
0
 10
349.228242
 20
338.962500
 42
-0.000270
  0
VERTEX
  8
0
 10
342.242485
 20
350.155490
 42
-0.000229
  0
VERTEX
  8
0
 10
334.866513
 20
362.000000
 42
0.001766
  0
VERTEX
  8
0
 10
327.648608
 20
373.511658
 42
0.002516
  0
VERTEX
  8
0
 10
321.149957
 20
383.681660
 42
0.001394
  0
VERTEX
  8
0
 10
315.592484
 20
392.230721
 42
0.037265
  0
VERTEX
  8
0
 10
313.942636
 20
394.384375
 42
0.019892
  0
VERTEX
  8
0
 10
312.449319
 20
395.930640
 42
0.102876
  0
VERTEX
  8
0
 10
311.446356
 20
396.556667
 42
0.151635
  0
VERTEX
  8
0
 10
310.478151
 20
396.607058
 42
0.060679
  0
VERTEX
  8
0
 10
309.227174
 20
396.121580
 42
0.100783
  0
VERTEX
  8
0
 10
308.089653
 20
395.178367
 42
0.100591
  0
VERTEX
  8
0
 10
307.410614
 20
393.864829
 42
0.050676
  0
VERTEX
  8
0
 10
307.027905
 20
391.704651
 42
0.008708
  0
VERTEX
  8
0
 10
306.791834
 20
387.543091
 42
0.000000
  0
VERTEX
  8
0
 10
306.500000
 20
380.111772
 42
0.000000
  0
VERTEX
  8
0
 10
285.500000
 20
403.694036
 42
0.000008
  0
VERTEX
  8
0
 10
269.061858
 20
422.152916
 42
0.000202
  0
VERTEX
  8
0
 10
264.622728
 20
427.133534
 42
0.000410
  0
VERTEX
  8
0
 10
260.959026
 20
431.234025
 42
0.000070
  0
VERTEX
  8
0
 10
254.000000
 20
439.007677
 42
0.000430
  0
VERTEX
  8
0
 10
250.704198
 20
442.681876
 42
0.000660
  0
VERTEX
  8
0
 10
247.842196
 20
445.858505
 42
0.000213
  0
VERTEX
  8
0
 10
245.358490
 20
448.605586
 42
0.018941
  0
VERTEX
  8
0
 10
244.973434
 20
449.000000
 42
-0.020866
  0
VERTEX
  8
0
 10
244.584126
 20
449.401851
 42
-0.000161
  0
VERTEX
  8
0
 10
241.573712
 20
452.782738
 42
-0.000596
  0
VERTEX
  8
0
 10
238.128182
 20
456.664111
 42
-0.000383
  0
VERTEX
  8
0
 10
234.139344
 20
461.175280
 42
0.005546
  0
VERTEX
  8
0
 10
226.360236
 20
469.792089
 42
0.053690
  0
VERTEX
  8
0
 10
222.656124
 20
473.028263
 42
0.181815
  0
VERTEX
  8
0
 10
220.180223
 20
473.663362
 42
0.194776
  0
SEQEND
  0
POLYLINE
  8
0
 66
1
 70
1
  0
VERTEX
  8
0
 10
238.966236
 20
442.750000
 42
-0.004865
  0
VERTEX
  8
0
 10
243.162287
 20
438.183208
 42
-0.000522
  0
VERTEX
  8
0
 10
252.772228
 20
427.495313
 42
-0.000642
  0
VERTEX
  8
0
 10
264.186226
 20
414.741380
 42
-0.000517
  0
VERTEX
  8
0
 10
276.426667
 20
401.000000
 42
0.001030
  0
VERTEX
  8
0
 10
288.348282
 20
387.644148
 42
0.001565
  0
VERTEX
  8
0
 10
298.769578
 20
376.090345
 42
0.000563
  0
VERTEX
  8
0
 10
307.794636
 20
366.169717
 42
0.039890
  0
VERTEX
  8
0
 10
309.422320
 20
364.647984
 42
0.031445
  0
VERTEX
  8
0
 10
310.724072
 20
363.739787
 42
0.098906
  0
VERTEX
  8
0
 10
311.720332
 20
363.377114
 42
0.113152
  0
VERTEX
  8
0
 10
312.700975
 20
363.449216
 42
0.048202
  0
VERTEX
  8
0
 10
313.922990
 20
363.958785
 42
0.057051
  0
VERTEX
  8
0
 10
314.822810
 20
364.581513
 42
0.035212
  0
VERTEX
  8
0
 10
315.729910
 20
365.496540
 42
0.034986
  0
VERTEX
  8
0
 10
316.509244
 20
366.541721
 42
0.051907
  0
VERTEX
  8
0
 10
317.023117
 20
367.560802
 42
-0.026391
  0
VERTEX
  8
0
 10
317.434880
 20
368.492620
 42
-0.036642
  0
VERTEX
  8
0
 10
317.905663
 20
369.274254
 42
-0.040183
  0
VERTEX
  8
0
 10
318.366860
 20
369.826624
 42
-0.211921
  0
VERTEX
  8
0
 10
318.725249
 20
369.968575
 42
-0.238349
  0
VERTEX
  8
0
 10
319.918218
 20
369.303615
 42
-0.004898
  0
VERTEX
  8
0
 10
323.805436
 20
363.428659
 42
-0.003884
  0
VERTEX
  8
0
 10
330.594762
 20
352.765281
 42
-0.000231
  0
VERTEX
  8
0
 10
350.831089
 20
320.396969
 42
-0.001557
  0
VERTEX
  8
0
 10
371.461664
 20
287.133975
 42
-0.030932
  0
VERTEX
  8
0
 10
377.101464
 20
276.565532
 42
-0.102692
  0
VERTEX
  8
0
 10
378.695822
 20
269.557229
 42
-0.077996
  0
VERTEX
  8
0
 10
377.619664
 20
261.731354
 42
-0.063381
  0
VERTEX
  8
0
 10
374.864855
 20
255.544727
 42
-0.089976
  0
VERTEX
  8
0
 10
370.880299
 20
251.047125
 42
-0.065600
  0
VERTEX
  8
0
 10
364.615463
 20
247.331464
 42
-0.020114
  0
VERTEX
  8
0
 10
354.314076
 20
243.405785
 42
0.014424
  0
VERTEX
  8
0
 10
346.962660
 20
240.699667
 42
0.028173
  0
VERTEX
  8
0
 10
341.309135
 20
238.052644
 42
0.034437
  0
VERTEX
  8
0
 10
336.822759
 20
235.220691
 42
0.042142
  0
VERTEX
  8
0
 10
333.082763
 20
231.965845
 42
0.044915
  0
VERTEX
  8
0
 10
330.229493
 20
228.442082
 42
0.021007
  0
VERTEX
  8
0
 10
327.163587
 20
223.428686
 42
0.018153
  0
VERTEX
  8
0
 10
324.623956
 20
218.435926
 42
0.108992
  0
VERTEX
  8
0
 10
324.000000
 20
215.607523
 42
-0.091067
  0
VERTEX
  8
0
 10
323.876280
 20
214.933877
 42
-0.026072
  0
VERTEX
  8
0
 10
323.446077
 20
213.958499
 42
-0.025316
  0
VERTEX
  8
0
 10
322.836039
 20
212.888459
 42
-0.024441
  0
VERTEX
  8
0
 10
322.114304
 20
211.872444
 42
0.071723
  0
VERTEX
  8
0
 10
321.278645
 20
210.424090
 42
0.015302
  0
VERTEX
  8
0
 10
320.280732
 20
207.686141
 42
0.015702
  0
VERTEX
  8
0
 10
319.312799
 20
204.412769
 42
0.014374
  0
VERTEX
  8
0
 10
318.520356
 20
200.987585
 42
-0.005431
  0
VERTEX
  8
0
 10
317.818208
 20
197.684790
 42
-0.007888
  0
VERTEX
  8
0
 10
317.121188
 20
194.787763
 42
-0.004445
  0
VERTEX
  8
0
 10
316.476245
 20
192.370926
 42
-0.121523
  0
VERTEX
  8
0
 10
316.156052
 20
191.800545
 42
-0.313292
  0
VERTEX
  8
0
 10
314.725389
 20
191.495319
 42
-0.037587
  0
VERTEX
  8
0
 10
311.687831
 20
193.046546
 42
-0.038480
  0
VERTEX
  8
0
 10
308.338528
 20
195.459031
 42
-0.040450
  0
VERTEX
  8
0
 10
305.458483
 20
198.319538
 42
-0.072434
  0
VERTEX
  8
0
 10
300.807796
 20
205.682888
 42
-0.071517
  0
VERTEX
  8
0
 10
298.424851
 20
214.098798
 42
-0.072955
  0
VERTEX
  8
0
 10
298.532429
 20
222.691964
 42
-0.080722
  0
VERTEX
  8
0
 10
301.138545
 20
230.575554
 42
0.000332
  0
VERTEX
  8
0
 10
302.380270
 20
232.962458
 42
0.000143
  0
VERTEX
  8
0
 10
304.032650
 20
236.146125
 42
0.000142
  0
VERTEX
  8
0
 10
305.789708
 20
239.536197
 42
0.000187
  0
VERTEX
  8
0
 10
307.387537
 20
242.624022
 42
0.049153
  0
VERTEX
  8
0
 10
311.185497
 20
252.162843
 42
0.068217
  0
VERTEX
  8
0
 10
312.508399
 20
261.256112
 42
0.069685
  0
VERTEX
  8
0
 10
311.327999
 20
270.222023
 42
0.054082
  0
VERTEX
  8
0
 10
307.690568
 20
279.379287
 42
0.039437
  0
VERTEX
  8
0
 10
304.079875
 20
285.074973
 42
0.043880
  0
VERTEX
  8
0
 10
299.733410
 20
289.916820
 42
0.041169
  0
VERTEX
  8
0
 10
294.363147
 20
294.165022
 42
0.028440
  0
VERTEX
  8
0
 10
287.672977
 20
298.085894
 42
-0.005629
  0
VERTEX
  8
0
 10
282.332902
 20
300.896632
 42
-0.065976
  0
VERTEX
  8
0
 10
280.432719
 20
302.274887
 42
-0.148561
  0
VERTEX
  8
0
 10
279.619480
 20
303.706684
 42
-0.062320
  0
VERTEX
  8
0
 10
279.402382
 20
305.935436
 42
0.000000
  0
VERTEX
  8
0
 10
279.500000
 20
309.500000
 42
0.000000
  0
VERTEX
  8
0
 10
266.125478
 20
316.240645
 42
-0.019087
  0
VERTEX
  8
0
 10
250.127560
 20
325.084584
 42
-0.023317
  0
VERTEX
  8
0
 10
235.919635
 20
334.593434
 42
-0.023301
  0
VERTEX
  8
0
 10
222.651108
 20
345.389586
 42
-0.019016
  0
VERTEX
  8
0
 10
209.477178
 20
358.103765
 42
-0.012247
  0
VERTEX
  8
0
 10
201.517276
 20
366.810215
 42
-0.014514
  0
VERTEX
  8
0
 10
194.446928
 20
375.427359
 42
-0.009007
  0
VERTEX
  8
0
 10
188.888839
 20
382.891280
 42
-0.610651
  0
VERTEX
  8
0
 10
189.458137
 20
384.000000
 42
-0.164804
  0
VERTEX
  8
0
 10
191.262650
 20
383.388611
 42
-0.000639
  0
VERTEX
  8
0
 10
208.709736
 20
369.997530
 42
-0.003372
  0
VERTEX
  8
0
 10
224.475880
 20
357.694341
 42
-0.014859
  0
VERTEX
  8
0
 10
233.500000
 20
350.107169
 42
0.007990
  0
VERTEX
  8
0
 10
241.615572
 20
343.091361
 42
0.012037
  0
VERTEX
  8
0
 10
248.928005
 20
337.264760
 42
0.012681
  0
VERTEX
  8
0
 10
256.213959
 20
332.026232
 42
0.010466
  0
VERTEX
  8
0
 10
264.232453
 20
326.806327
 42
0.007770
  0
VERTEX
  8
0
 10
269.595415
 20
323.587264
 42
0.055769
  0
VERTEX
  8
0
 10
272.356197
 20
322.375392
 42
0.134351
  0
VERTEX
  8
0
 10
274.204832
 20
322.310459
 42
0.139241
  0
VERTEX
  8
0
 10
275.800000
 20
323.200000
 42
0.153869
  0
VERTEX
  8
0
 10
276.982810
 20
325.471662
 42
0.195992
  0
VERTEX
  8
0
 10
276.489328
 20
327.760347
 42
0.085503
  0
VERTEX
  8
0
 10
273.874193
 20
330.457091
 42
0.016293
  0
VERTEX
  8
0
 10
268.204085
 20
334.316158
 42
-0.025462
  0
VERTEX
  8
0
 10
252.436454
 20
345.475836
 42
-0.023588
  0
VERTEX
  8
0
 10
237.459796
 20
358.453049
 42
-0.023377
  0
VERTEX
  8
0
 10
223.638652
 20
372.910774
 42
-0.023864
  0
VERTEX
  8
0
 10
211.327856
 20
388.500000
 42
-0.008563
  0
VERTEX
  8
0
 10
206.839493
 20
395.010419
 42
-0.009193
  0
VERTEX
  8
0
 10
202.684581
 20
401.520212
 42
-0.002802
  0
VERTEX
  8
0
 10
199.005064
 20
407.602084
 42
-0.343609
  0
VERTEX
  8
0
 10
199.109377
 20
408.442710
 42
-0.371257
  0
VERTEX
  8
0
 10
199.430346
 20
408.466644
 42
-0.005800
  0
VERTEX
  8
0
 10
201.013047
 20
407.268102
 42
-0.012157
  0
VERTEX
  8
0
 10
202.876594
 20
405.748582
 42
-0.007362
  0
VERTEX
  8
0
 10
205.010876
 20
403.864963
 42
0.003235
  0
VERTEX
  8
0
 10
207.826557
 20
401.338332
 42
0.001084
  0
VERTEX
  8
0
 10
211.971945
 20
397.682651
 42
0.001079
  0
VERTEX
  8
0
 10
216.577497
 20
393.656450
 42
0.001233
  0
VERTEX
  8
0
 10
221.000000
 20
389.826199
 42
-0.003940
  0
VERTEX
  8
0
 10
225.846475
 20
385.582616
 42
-0.002084
  0
VERTEX
  8
0
 10
231.793750
 20
380.247222
 42
-0.002074
  0
VERTEX
  8
0
 10
237.833287
 20
374.737732
 42
-0.003207
  0
VERTEX
  8
0
 10
243.000000
 20
369.923517
 42
0.009665
  0
VERTEX
  8
0
 10
251.643761
 20
362.075578
 42
0.010594
  0
VERTEX
  8
0
 10
260.328414
 20
354.810000
 42
0.011012
  0
VERTEX
  8
0
 10
268.126937
 20
348.838943
 42
0.034371
  0
VERTEX
  8
0
 10
273.715772
 20
345.313865
 42
0.067835
  0
VERTEX
  8
0
 10
276.325599
 20
344.335876
 42
0.140054
  0
VERTEX
  8
0
 10
278.482791
 20
344.455124
 42
0.167123
  0
VERTEX
  8
0
 10
280.006086
 20
345.648891
 42
0.107039
  0
VERTEX
  8
0
 10
280.808972
 20
347.771398
 42
0.202379
  0
VERTEX
  8
0
 10
280.441108
 20
349.206118
 42
0.040342
  0
VERTEX
  8
0
 10
278.636151
 20
351.218968
 42
0.024053
  0
VERTEX
  8
0
 10
275.341012
 20
354.057318
 42
0.005289
  0
VERTEX
  8
0
 10
269.403826
 20
358.593186
 42
-0.021251
  0
VERTEX
  8
0
 10
255.883051
 20
369.623520
 42
-0.025151
  0
VERTEX
  8
0
 10
244.123619
 20
381.189205
 42
-0.025198
  0
VERTEX
  8
0
 10
233.603008
 20
393.857900
 42
-0.021479
  0
VERTEX
  8
0
 10
223.799340
 20
408.197294
 42
-0.017397
  0
VERTEX
  8
0
 10
219.601425
 20
415.495998
 42
-0.011754
  0
VERTEX
  8
0
 10
215.306607
 20
424.085431
 42
-0.004124
  0
VERTEX
  8
0
 10
211.390197
 20
432.582274
 42
-0.319524
  0
VERTEX
  8
0
 10
211.663297
 20
433.965811
 42
-0.411289
  0
VERTEX
  8
0
 10
212.831442
 20
433.938900
 42
-0.000576
  0
VERTEX
  8
0
 10
229.651356
 20
416.460822
 42
-0.004189
  0
VERTEX
  8
0
 10
244.698910
 20
400.523213
 42
-0.016211
  0
VERTEX
  8
0
 10
253.620689
 20
390.266038
 42
0.011451
  0
VERTEX
  8
0
 10
261.900352
 20
380.562092
 42
0.012747
  0
VERTEX
  8
0
 10
270.332656
 20
371.596576
 42
0.006989
  0
VERTEX
  8
0
 10
278.031089
 20
364.032954
 42
0.192991
  0
VERTEX
  8
0
 10
280.607589
 20
363.000000
 42
0.089959
  0
VERTEX
  8
0
 10
282.237098
 20
363.295569
 42
0.088315
  0
VERTEX
  8
0
 10
283.670772
 20
364.145324
 42
0.094188
  0
VERTEX
  8
0
 10
284.653685
 20
365.381505
 42
0.121578
  0
VERTEX
  8
0
 10
285.000000
 20
366.784702
 42
0.169423
  0
VERTEX
  8
0
 10
284.691117
 20
367.670110
 42
0.004603
  0
VERTEX
  8
0
 10
282.071200
 20
370.906469
 42
0.009049
  0
VERTEX
  8
0
 10
278.850393
 20
374.670171
 42
0.006021
  0
VERTEX
  8
0
 10
275.029616
 20
378.871772
 42
-0.011562
  0
VERTEX
  8
0
 10
264.225353
 20
391.020699
 42
-0.017762
  0
VERTEX
  8
0
 10
255.504355
 20
402.068458
 42
-0.019064
  0
VERTEX
  8
0
 10
248.051708
 20
413.089336
 42
-0.016739
  0
VERTEX
  8
0
 10
241.111579
 20
425.126718
 42
-0.013400
  0
VERTEX
  8
0
 10
237.016089
 20
433.336625
 42
-0.013960
  0
VERTEX
  8
0
 10
233.425120
 20
441.643933
 42
-0.006696
  0
VERTEX
  8
0
 10
230.556289
 20
449.113463
 42
-0.521916
  0
VERTEX
  8
0
 10
231.174250
 20
450.000000
 42
-0.183846
  0
VERTEX
  8
0
 10
231.794430
 20
449.763988
 42
-0.005530
  0
VERTEX
  8
0
 10
233.875351
 20
447.870313
 42
-0.010293
  0
VERTEX
  8
0
 10
236.290800
 20
445.528276
 42
-0.006849
  0
SEQEND
  0
POLYLINE
  8
0
 66
1
 70
1
  0
VERTEX
  8
0
 10
96.500000
 20
348.699210
 42
-0.000004
  0
VERTEX
  8
0
 10
103.993754
 20
346.684541
 42
-0.000002
  0
VERTEX
  8
0
 10
112.471875
 20
344.405120
 42
-0.000002
  0
VERTEX
  8
0
 10
120.619169
 20
342.214557
 42
-0.000005
  0
VERTEX
  8
0
 10
127.000000
 20
340.498838
 42
-0.000563
  0
VERTEX
  8
0
 10
133.335456
 20
338.787603
 42
-0.000283
  0
VERTEX
  8
0
 10
141.326241
 20
336.614743
 42
-0.000281
  0
VERTEX
  8
0
 10
149.583153
 20
334.359501
 42
-0.000418
  0
VERTEX
  8
0
 10
156.812735
 20
332.373993
 42
0.005541
  0
VERTEX
  8
0
 10
163.256899
 20
330.675004
 42
0.007483
  0
VERTEX
  8
0
 10
169.122988
 20
329.290761
 42
0.005301
  0
VERTEX
  8
0
 10
174.047838
 20
328.260778
 42
0.077795
  0
VERTEX
  8
0
 10
175.812735
 20
328.189631
 42
0.052998
  0
VERTEX
  8
0
 10
177.349566
 20
328.534724
 42
0.195219
  0
VERTEX
  8
0
 10
178.088411
 20
329.172833
 42
0.110167
  0
VERTEX
  8
0
 10
178.403932
 20
330.391270
 42
0.011953
  0
VERTEX
  8
0
 10
178.433249
 20
333.312416
 42
-0.008109
  0
VERTEX
  8
0
 10
178.440466
 20
336.386721
 42
-0.129489
  0
VERTEX
  8
0
 10
178.721969
 20
337.380214
 42
-0.283393
  0
VERTEX
  8
0
 10
179.383169
 20
337.728519
 42
-0.044639
  0
VERTEX
  8
0
 10
180.900788
 20
337.488765
 42
-0.042535
  0
VERTEX
  8
0
 10
183.936392
 20
336.445861
 42
-0.002650
  0
VERTEX
  8
0
 10
192.610268
 20
332.559405
 42
-0.002085
  0
VERTEX
  8
0
 10
206.848403
 20
326.017185
 42
-0.000285
  0
VERTEX
  8
0
 10
236.500000
 20
312.222043
 42
0.000564
  0
VERTEX
  8
0
 10
243.153957
 20
309.130852
 42
0.000378
  0
VERTEX
  8
0
 10
250.765625
 20
305.612164
 42
0.000381
  0
VERTEX
  8
0
 10
258.140891
 20
302.216344
 42
0.000754
  0
VERTEX
  8
0
 10
264.000000
 20
299.534713
 42
-0.005373
  0
VERTEX
  8
0
 10
275.455687
 20
294.163052
 42
-0.043844
  0
VERTEX
  8
0
 10
280.420441
 20
291.208294
 42
-0.082370
  0
VERTEX
  8
0
 10
283.434171
 20
288.173720
 42
-0.043953
  0
VERTEX
  8
0
 10
286.113713
 20
283.597675
 42
-0.061658
  0
VERTEX
  8
0
 10
288.746022
 20
275.620326
 42
-0.104691
  0
VERTEX
  8
0
 10
288.654605
 20
268.620328
 42
-0.085301
  0
VERTEX
  8
0
 10
285.627979
 20
261.296251
 42
-0.030561
  0
VERTEX
  8
0
 10
279.012770
 20
252.091808
 42
0.014282
  0
VERTEX
  8
0
 10
276.463258
 20
248.777512
 42
0.010241
  0
VERTEX
  8
0
 10
273.798406
 20
244.937456
 42
0.010354
  0
VERTEX
  8
0
 10
271.409725
 20
241.173383
 42
0.021828
  0
VERTEX
  8
0
 10
269.747942
 20
238.139562
 42
0.016238
  0
VERTEX
  8
0
 10
268.007183
 20
234.293228
 42
0.043176
  0
VERTEX
  8
0
 10
267.099064
 20
231.420947
 42
0.042303
  0
VERTEX
  8
0
 10
266.687877
 20
228.401971
 42
0.015075
  0
VERTEX
  8
0
 10
266.597881
 20
224.047755
 42
0.077811
  0
VERTEX
  8
0
 10
268.763893
 20
211.022972
 42
0.055283
  0
VERTEX
  8
0
 10
274.953264
 20
197.547099
 42
0.055519
  0
VERTEX
  8
0
 10
283.902565
 20
185.821989
 42
0.080842
  0
VERTEX
  8
0
 10
294.262418
 20
178.001717
 42
-0.007779
  0
VERTEX
  8
0
 10
296.077981
 20
177.007909
 42
-0.012115
  0
VERTEX
  8
0
 10
297.607270
 20
176.089925
 42
-0.006354
  0
VERTEX
  8
0
 10
298.848622
 20
175.280966
 42
-0.252087
  0
VERTEX
  8
0
 10
298.996372
 20
175.001717
 42
-0.188271
  0
VERTEX
  8
0
 10
298.350992
 20
173.383162
 42
-0.000849
  0
VERTEX
  8
0
 10
285.524212
 20
159.705368
 42
-0.000964
  0
VERTEX
  8
0
 10
272.721287
 20
146.151823
 42
-0.160073
  0
VERTEX
  8
0
 10
270.951350
 20
145.197531
 42
-0.105471
  0
VERTEX
  8
0
 10
270.227463
 20
145.221523
 42
-0.105776
  0
VERTEX
  8
0
 10
269.577219
 20
145.538892
 42
-0.094653
  0
VERTEX
  8
0
 10
269.060940
 20
146.130845
 42
-0.068280
  0
VERTEX
  8
0
 10
268.725292
 20
146.942484
 42
0.126641
  0
VERTEX
  8
0
 10
267.715861
 20
148.756811
 42
0.168551
  0
VERTEX
  8
0
 10
266.051858
 20
149.617142
 42
0.110482
  0
VERTEX
  8
0
 10
263.630307
 20
149.430650
 42
0.038850
  0
VERTEX
  8
0
 10
260.367131
 20
148.147710
 42
-0.003684
  0
VERTEX
  8
0
 10
258.640959
 20
147.324735
 42
-0.005452
  0
VERTEX
  8
0
 10
257.114441
 20
146.630890
 42
-0.002617
  0
VERTEX
  8
0
 10
255.810454
 20
146.063401
 42
-0.101658
  0
VERTEX
  8
0
 10
255.501841
 20
146.000000
 42
-0.293271
  0
VERTEX
  8
0
 10
255.291104
 20
146.135237
 42
-0.013573
  0
VERTEX
  8
0
 10
254.942167
 20
146.954688
 42
-0.018878
  0
VERTEX
  8
0
 10
254.573621
 20
148.004332
 42
-0.012022
  0
VERTEX
  8
0
 10
254.220981
 20
149.250000
 42
0.035894
  0
VERTEX
  8
0
 10
253.647434
 20
150.960161
 42
0.111954
  0
VERTEX
  8
0
 10
252.947774
 20
151.943682
 42
0.117153
  0
VERTEX
  8
0
 10
251.912223
 20
152.504373
 42
0.041228
  0
VERTEX
  8
0
 10
250.239024
 20
152.809880
 42
0.033768
  0
VERTEX
  8
0
 10
248.764604
 20
152.855130
 42
0.017103
  0
VERTEX
  8
0
 10
246.910917
 20
152.723237
 42
0.016907
  0
VERTEX
  8
0
 10
244.998581
 20
152.455609
 42
0.024141
  0
VERTEX
  8
0
 10
243.326742
 20
152.079773
 42
-0.040021
  0
VERTEX
  8
0
 10
240.327428
 20
151.504806
 42
-0.196196
  0
VERTEX
  8
0
 10
238.701440
 20
151.968967
 42
-0.270142
  0
VERTEX
  8
0
 10
238.176252
 20
153.293198
 42
-0.069464
  0
VERTEX
  8
0
 10
238.858043
 20
155.587783
 42
0.068091
  0
VERTEX
  8
0
 10
239.542825
 20
157.869579
 42
0.102920
  0
VERTEX
  8
0
 10
239.440472
 20
159.934165
 42
0.123794
  0
VERTEX
  8
0
 10
238.569726
 20
161.524321
 42
0.129757
  0
VERTEX
  8
0
 10
237.064060
 20
162.479668
 42
0.105594
  0
VERTEX
  8
0
 10
236.035189
 20
162.579704
 42
0.022726
  0
VERTEX
  8
0
 10
234.257025
 20
162.294700
 42
0.022771
  0
VERTEX
  8
0
 10
232.188202
 20
161.766651
 42
0.020009
  0
VERTEX
  8
0
 10
230.083088
 20
161.032750
 42
-0.025070
  0
VERTEX
  8
0
 10
226.348917
 20
159.773135
 42
-0.217240
  0
VERTEX
  8
0
 10
224.657314
 20
160.033341
 42
-0.304697
  0
VERTEX
  8
0
 10
224.095538
 20
161.366453
 42
-0.042681
  0
VERTEX
  8
0
 10
224.959329
 20
164.393026
 42
0.083602
  0
VERTEX
  8
0
 10
225.432275
 20
166.768751
 42
0.109205
  0
VERTEX
  8
0
 10
225.019692
 20
168.939100
 42
0.133444
  0
VERTEX
  8
0
 10
223.828912
 20
170.439889
 42
0.160033
  0
VERTEX
  8
0
 10
222.123747
 20
171.000000
 42
0.045107
  0
VERTEX
  8
0
 10
221.125621
 20
170.909771
 42
0.009484
  0
VERTEX
  8
0
 10
219.406342
 20
170.562555
 42
0.009868
  0
VERTEX
  8
0
 10
217.420751
 20
170.080901
 42
0.009206
  0
VERTEX
  8
0
 10
215.408931
 20
169.510824
 42
-0.003744
  0
VERTEX
  8
0
 10
213.473930
 20
168.939608
 42
-0.005113
  0
VERTEX
  8
0
 10
211.721686
 20
168.455914
 42
-0.003412
  0
VERTEX
  8
0
 10
210.246985
 20
168.075771
 42
-0.057821
  0
VERTEX
  8
0
 10
209.750000
 20
168.010824
 42
-0.364989
  0
VERTEX
  8
0
 10
209.112360
 20
168.532285
 42
-0.090625
  0
VERTEX
  8
0
 10
209.105645
 20
169.989221
 42
-0.050650
  0
VERTEX
  8
0
 10
209.741582
 20
172.222936
 42
-0.023297
  0
VERTEX
  8
0
 10
210.990813
 20
174.981992
 42
0.064915
  0
VERTEX
  8
0
 10
212.538623
 20
179.328584
 42
0.300695
  0
VERTEX
  8
0
 10
211.617271
 20
181.691832
 42
0.180146
  0
VERTEX
  8
0
 10
208.424452
 20
182.535716
 42
0.026879
  0
VERTEX
  8
0
 10
201.742053
 20
181.513356
 42
-0.007100
  0
VERTEX
  8
0
 10
198.984517
 20
180.979133
 42
-0.010960
  0
VERTEX
  8
0
 10
196.585871
 20
180.603739
 42
-0.005531
  0
VERTEX
  8
0
 10
194.572290
 20
180.356319
 42
-0.227981
  0
VERTEX
  8
0
 10
194.169007
 20
180.497659
 42
-0.282311
  0
VERTEX
  8
0
 10
194.081160
 20
180.864414
 42
-0.013002
  0
VERTEX
  8
0
 10
194.529458
 20
182.126889
 42
-0.018357
  0
VERTEX
  8
0
 10
195.184529
 20
183.659503
 42
-0.011780
  0
VERTEX
  8
0
 10
196.050648
 20
185.389399
 42
0.012335
  0
VERTEX
  8
0
 10
197.310041
 20
187.911773
 42
0.070967
  0
VERTEX
  8
0
 10
197.745384
 20
189.335676
 42
0.129341
  0
VERTEX
  8
0
 10
197.635336
 20
190.408332
 42
0.083502
  0
VERTEX
  8
0
 10
197.004679
 20
191.494362
 42
0.110620
  0
VERTEX
  8
0
 10
195.915487
 20
192.335731
 42
0.082776
  0
VERTEX
  8
0
 10
194.450402
 20
192.744693
 42
0.041434
  0
VERTEX
  8
0
 10
192.129114
 20
192.800914
 42
0.007421
  0
VERTEX
  8
0
 10
187.805467
 20
192.482780
 42
-0.012389
  0
VERTEX
  8
0
 10
181.963012
 20
192.111210
 42
-0.214109
  0
VERTEX
  8
0
 10
180.231355
 20
192.809114
 42
-0.337376
  0
VERTEX
  8
0
 10
180.057077
 20
194.317008
 42
-0.024988
  0
VERTEX
  8
0
 10
182.500000
 20
198.000000
 42
0.025587
  0
VERTEX
  8
0
 10
184.338590
 20
200.779112
 42
0.125479
  0
VERTEX
  8
0
 10
184.861217
 20
202.571916
 42
0.190369
  0
VERTEX
  8
0
 10
184.357685
 20
203.985321
 42
0.074375
  0
VERTEX
  8
0
 10
182.750000
 20
205.350067
 42
0.072558
  0
VERTEX
  8
0
 10
181.258586
 20
205.999187
 42
0.057501
  0
VERTEX
  8
0
 10
179.518670
 20
206.263527
 42
0.035806
  0
VERTEX
  8
0
 10
177.105622
 20
206.177384
 42
0.009406
  0
VERTEX
  8
0
 10
173.265770
 20
205.690684
 42
-0.009813
  0
VERTEX
  8
0
 10
170.444630
 20
205.335436
 42
-0.014497
  0
VERTEX
  8
0
 10
167.957370
 20
205.144421
 42
-0.009631
  0
VERTEX
  8
0
 10
165.908748
 20
205.086241
 42
-0.201286
  0
VERTEX
  8
0
 10
165.353329
 20
205.313338
 42
-0.184181
  0
VERTEX
  8
0
 10
165.164709
 20
205.734443
 42
-0.047351
  0
VERTEX
  8
0
 10
165.193371
 20
206.492513
 42
-0.041748
  0
VERTEX
  8
0
 10
165.395195
 20
207.412877
 42
-0.032063
  0
VERTEX
  8
0
 10
165.761170
 20
208.375170
 42
-0.100660
  0
VERTEX
  8
0
 10
166.679363
 20
209.639347
 42
-0.061558
  0
VERTEX
  8
0
 10
168.186085
 20
210.712785
 42
-0.039648
  0
VERTEX
  8
0
 10
170.525007
 20
211.748341
 42
-0.012425
  0
VERTEX
  8
0
 10
174.173610
 20
212.927980
 42
0.004558
  0
VERTEX
  8
0
 10
184.784887
 20
216.175258
 42
0.003946
  0
VERTEX
  8
0
 10
195.859422
 20
219.771412
 42
0.002988
  0
VERTEX
  8
0
 10
205.701845
 20
223.119066
 42
0.028576
  0
VERTEX
  8
0
 10
209.800863
 20
224.808606
 42
0.037216
  0
VERTEX
  8
0
 10
212.951055
 20
226.622744
 42
0.129638
  0
VERTEX
  8
0
 10
214.479139
 20
228.378899
 42
0.203488
  0
VERTEX
  8
0
 10
214.580885
 20
230.170354
 42
0.110607
  0
VERTEX
  8
0
 10
213.379839
 20
232.064605
 42
0.000000
  0
VERTEX
  8
0
 10
211.287440
 20
234.157004
 42
0.000000
  0
VERTEX
  8
0
 10
196.270506
 20
229.123241
 42
-0.012735
  0
VERTEX
  8
0
 10
176.028169
 20
222.906621
 42
-0.015490
  0
VERTEX
  8
0
 10
156.769373
 20
218.162601
 42
-0.008228
  0
VERTEX
  8
0
 10
140.126689
 20
214.891259
 42
-0.467252
  0
VERTEX
  8
0
 10
138.000000
 20
216.670152
 42
-0.261567
  0
VERTEX
  8
0
 10
138.914606
 20
218.298856
 42
-0.039151
  0
VERTEX
  8
0
 10
142.389604
 20
220.060507
 42
-0.037957
  0
VERTEX
  8
0
 10
146.987640
 20
221.559040
 42
-0.032595
  0
VERTEX
  8
0
 10
152.000000
 20
222.440143
 42
0.015808
  0
VERTEX
  8
0
 10
158.520857
 20
223.362102
 42
0.013517
  0
VERTEX
  8
0
 10
165.322846
 20
224.734575
 42
0.012016
  0
VERTEX
  8
0
 10
172.781896
 20
226.640504
 42
0.007815
  0
VERTEX
  8
0
 10
181.305819
 20
229.182540
 42
0.019706
  0
VERTEX
  8
0
 10
190.375557
 20
232.440538
 42
0.071193
  0
VERTEX
  8
0
 10
195.669044
 20
235.516630
 42
0.163500
  0
VERTEX
  8
0
 10
197.633582
 20
238.527575
 42
0.241195
  0
VERTEX
  8
0
 10
196.960131
 20
241.548039
 42
0.138107
  0
VERTEX
  8
0
 10
195.398443
 20
242.624708
 42
0.114901
  0
VERTEX
  8
0
 10
193.384759
 20
242.827395
 42
0.057103
  0
VERTEX
  8
0
 10
190.378506
 20
242.083538
 42
0.011420
  0
VERTEX
  8
0
 10
185.238737
 20
240.033709
 42
-0.031833
  0
VERTEX
  8
0
 10
173.058643
 20
235.743216
 42
-0.024574
  0
VERTEX
  8
0
 10
159.332986
 20
232.588753
 42
-0.023246
  0
VERTEX
  8
0
 10
144.520996
 20
230.648082
 42
-0.020983
  0
VERTEX
  8
0
 10
129.075931
 20
230.001554
 42
0.000000
  0
VERTEX
  8
0
 10
116.500000
 20
230.003108
 42
0.000000
  0
VERTEX
  8
0
 10
120.000000
 20
231.947925
 42
-0.019186
  0
VERTEX
  8
0
 10
125.361289
 20
234.663271
 42
-0.049966
  0
VERTEX
  8
0
 10
129.446742
 20
236.065363
 42
-0.038487
  0
VERTEX
  8
0
 10
134.303363
 20
236.818321
 42
-0.007830
  0
VERTEX
  8
0
 10
143.000000
 20
237.351371
 42
0.019061
  0
VERTEX
  8
0
 10
157.156173
 20
238.538644
 42
0.015486
  0
VERTEX
  8
0
 10
172.205917
 20
240.855690
 42
0.011892
  0
VERTEX
  8
0
 10
185.563486
 20
243.668013
 42
0.113819
  0
VERTEX
  8
0
 10
190.750000
 20
246.224476
 42
0.149487
  0
VERTEX
  8
0
 10
191.716851
 20
247.670371
 42
0.089831
  0
VERTEX
  8
0
 10
191.952473
 20
249.738483
 42
0.094777
  0
VERTEX
  8
0
 10
191.451659
 20
251.661842
 42
0.192493
  0
VERTEX
  8
0
 10
190.323285
 20
252.706186
 42
0.108759
  0
VERTEX
  8
0
 10
189.252797
 20
252.867692
 42
0.011984
  0
VERTEX
  8
0
 10
186.767577
 20
252.641188
 42
0.014174
  0
VERTEX
  8
0
 10
183.787513
 20
252.211498
 42
0.011018
  0
VERTEX
  8
0
 10
180.573285
 20
251.581396
 42
-0.009504
  0
VERTEX
  8
0
 10
163.267818
 20
248.134478
 42
-0.017308
  0
VERTEX
  8
0
 10
149.004418
 20
246.080958
 42
-0.019858
  0
VERTEX
  8
0
 10
136.084806
 20
245.192415
 42
-0.019164
  0
VERTEX
  8
0
 10
122.980655
 20
245.315155
 42
-0.011873
  0
VERTEX
  8
0
 10
112.683432
 20
246.051993
 42
-0.007729
  0
VERTEX
  8
0
 10
100.832553
 20
247.368540
 42
-0.005506
  0
VERTEX
  8
0
 10
89.840371
 20
248.885185
 42
-0.058881
  0
VERTEX
  8
0
 10
85.500000
 20
250.066569
 42
-0.726719
  0
VERTEX
  8
0
 10
85.522943
 20
250.396409
 42
-0.037469
  0
VERTEX
  8
0
 10
87.115337
 20
250.669066
 42
-0.016493
  0
VERTEX
  8
0
 10
90.206054
 20
250.859988
 42
-0.005758
  0
VERTEX
  8
0
 10
94.662032
 20
250.936614
 42
0.010947
  0
VERTEX
  8
0
 10
99.508933
 20
251.070284
 42
0.008156
  0
VERTEX
  8
0
 10
104.847620
 20
251.421955
 42
0.008253
  0
VERTEX
  8
0
 10
109.872160
 20
251.918962
 42
0.018494
  0
VERTEX
  8
0
 10
113.662032
 20
252.499829
 42
-0.022230
  0
VERTEX
  8
0
 10
118.119626
 20
253.149001
 42
-0.010201
  0
VERTEX
  8
0
 10
123.974921
 20
253.617031
 42
-0.008867
  0
VERTEX
  8
0
 10
130.969375
 20
253.908375
 42
-0.005888
  0
VERTEX
  8
0
 10
139.000000
 20
254.005724
 42
0.010583
  0
VERTEX
  8
0
 10
150.230912
 20
254.247361
 42
0.011243
  0
VERTEX
  8
0
 10
161.216793
 20
254.964238
 42
0.011992
  0
VERTEX
  8
0
 10
171.066312
 20
256.068329
 42
0.024397
  0
VERTEX
  8
0
 10
178.721135
 20
257.496086
 42
0.143043
  0
VERTEX
  8
0
 10
181.206829
 20
258.910539
 42
0.152441
  0
VERTEX
  8
0
 10
182.464675
 20
261.406877
 42
0.175139
  0
VERTEX
  8
0
 10
182.000209
 20
263.922594
 42
0.185622
  0
VERTEX
  8
0
 10
180.044886
 20
265.485754
 42
0.088709
  0
VERTEX
  8
0
 10
178.896023
 20
265.636393
 42
0.008296
  0
VERTEX
  8
0
 10
176.037065
 20
265.455553
 42
0.010445
  0
VERTEX
  8
0
 10
172.611647
 20
265.109609
 42
0.008025
  0
VERTEX
  8
0
 10
168.887267
 20
264.593907
 42
-0.033105
  0
VERTEX
  8
0
 10
144.927625
 20
262.493127
 42
-0.030711
  0
VERTEX
  8
0
 10
120.284219
 20
263.482628
 42
-0.030394
  0
VERTEX
  8
0
 10
95.688725
 20
267.509945
 42
-0.030790
  0
VERTEX
  8
0
 10
71.871933
 20
274.478161
 42
-0.009197
  0
VERTEX
  8
0
 10
63.478501
 20
277.681506
 42
-0.758978
  0
VERTEX
  8
0
 10
63.577020
 20
278.568400
 42
-0.062292
  0
VERTEX
  8
0
 10
67.350671
 20
278.709217
 42
-0.001178
  0
VERTEX
  8
0
 10
87.000000
 20
276.946261
 42
0.005409
  0
VERTEX
  8
0
 10
91.159683
 20
276.608506
 42
0.003892
  0
VERTEX
  8
0
 10
95.809872
 20
276.317875
 42
0.003931
  0
VERTEX
  8
0
 10
100.238698
 20
276.110578
 42
0.008481
  0
VERTEX
  8
0
 10
103.650627
 20
276.035674
 42
-0.019245
  0
VERTEX
  8
0
 10
107.208398
 20
275.880903
 42
-0.007203
  0
VERTEX
  8
0
 10
112.181511
 20
275.400173
 42
-0.007124
  0
VERTEX
  8
0
 10
117.589870
 20
274.720483
 42
-0.008577
  0
VERTEX
  8
0
 10
122.650627
 20
273.922363
 42
0.023909
  0
VERTEX
  8
0
 10
134.793855
 20
272.387078
 42
0.013819
  0
VERTEX
  8
0
 10
149.501610
 20
271.646362
 42
0.007553
  0
VERTEX
  8
0
 10
163.641795
 20
271.539207
 42
0.172994
  0
VERTEX
  8
0
 10
167.388358
 20
272.907346
 42
0.122881
  0
VERTEX
  8
0
 10
168.479169
 20
274.392365
 42
0.082480
  0
VERTEX
  8
0
 10
168.950063
 20
276.455381
 42
0.088515
  0
VERTEX
  8
0
 10
168.719534
 20
278.420984
 42
0.182978
  0
VERTEX
  8
0
 10
167.790957
 20
279.629195
 42
0.123125
  0
VERTEX
  8
0
 10
166.831529
 20
279.935002
 42
0.002717
  0
VERTEX
  8
0
 10
161.931290
 20
280.220062
 42
0.006010
  0
VERTEX
  8
0
 10
156.158867
 20
280.454857
 42
0.004005
  0
VERTEX
  8
0
 10
149.540957
 20
280.591355
 42
-0.016434
  0
VERTEX
  8
0
 10
133.435439
 20
281.324303
 42
-0.023975
  0
VERTEX
  8
0
 10
119.344977
 20
283.113225
 42
-0.022557
  0
VERTEX
  8
0
 10
104.871048
 20
286.339720
 42
-0.012456
  0
VERTEX
  8
0
 10
87.500000
 20
291.511139
 42
-0.017262
  0
VERTEX
  8
0
 10
78.526411
 20
294.774336
 42
-0.008797
  0
VERTEX
  8
0
 10
67.478564
 20
299.456902
 42
-0.002368
  0
VERTEX
  8
0
 10
56.305748
 20
304.489592
 42
-0.523232
  0
VERTEX
  8
0
 10
56.129867
 20
305.463200
 42
-0.238436
  0
VERTEX
  8
0
 10
56.531795
 20
305.595177
 42
-0.001954
  0
VERTEX
  8
0
 10
59.914432
 20
305.067419
 42
-0.006399
  0
VERTEX
  8
0
 10
63.831359
 20
304.389087
 42
-0.004008
  0
VERTEX
  8
0
 10
68.397668
 20
303.500035
 42
0.006884
  0
VERTEX
  8
0
 10
73.872584
 20
302.466729
 42
0.003765
  0
VERTEX
  8
0
 10
80.610940
 20
301.343016
 42
0.003751
  0
VERTEX
  8
0
 10
87.474360
 20
300.304217
 42
0.005964
  0
VERTEX
  8
0
 10
93.363464
 20
299.529602
 42
-0.004479
  0
VERTEX
  8
0
 10
99.158885
 20
298.784815
 42
-0.003066
  0
VERTEX
  8
0
 10
105.725517
 20
297.839980
 42
-0.003091
  0
VERTEX
  8
0
 10
112.041987
 20
296.851605
 42
-0.006253
  0
VERTEX
  8
0
 10
117.000000
 20
295.980589
 42
0.013173
  0
VERTEX
  8
0
 10
131.214994
 20
293.685641
 42
0.016826
  0
VERTEX
  8
0
 10
144.416499
 20
292.360118
 42
0.011652
  0
VERTEX
  8
0
 10
155.523855
 20
291.880857
 42
0.204068
  0
VERTEX
  8
0
 10
158.800000
 20
293.200000
 42
0.119179
  0
VERTEX
  8
0
 10
159.660584
 20
294.609467
 42
0.077887
  0
VERTEX
  8
0
 10
159.956875
 20
296.500000
 42
0.077887
  0
VERTEX
  8
0
 10
159.660584
 20
298.390533
 42
0.119179
  0
VERTEX
  8
0
 10
158.800000
 20
299.800000
 42
0.147992
  0
VERTEX
  8
0
 10
157.829257
 20
300.319714
 42
0.020150
  0
VERTEX
  8
0
 10
155.528467
 20
300.684888
 42
0.019340
  0
VERTEX
  8
0
 10
152.445907
 20
300.927165
 42
0.009777
  0
VERTEX
  8
0
 10
148.550000
 20
301.005895
 42
-0.034463
  0
VERTEX
  8
0
 10
131.283981
 20
302.208700
 42
-0.026606
  0
VERTEX
  8
0
 10
112.753427
 20
305.804186
 42
-0.025876
  0
VERTEX
  8
0
 10
94.111152
 20
311.501301
 42
-0.027314
  0
VERTEX
  8
0
 10
76.500000
 20
319.008341
 42
-0.015030
  0
VERTEX
  8
0
 10
68.674319
 20
323.158518
 42
-0.013099
  0
VERTEX
  8
0
 10
60.738220
 20
327.957482
 42
-0.005293
  0
VERTEX
  8
0
 10
53.559642
 20
332.667334
 42
-0.472296
  0
VERTEX
  8
0
 10
53.450873
 20
333.784206
 42
-0.257715
  0
VERTEX
  8
0
 10
53.736368
 20
333.866594
 42
-0.001089
  0
VERTEX
  8
0
 10
57.008040
 20
333.115435
 42
-0.004846
  0
VERTEX
  8
0
 10
60.747487
 20
332.210027
 42
-0.002989
  0
VERTEX
  8
0
 10
65.129024
 20
331.076186
 42
0.004687
  0
VERTEX
  8
0
 10
70.383124
 20
329.735561
 42
0.002582
  0
VERTEX
  8
0
 10
76.831651
 20
328.189658
 42
0.002574
  0
VERTEX
  8
0
 10
83.388272
 20
326.689168
 42
0.004126
  0
VERTEX
  8
0
 10
89.000000
 20
325.483815
 42
-0.006624
  0
VERTEX
  8
0
 10
94.443662
 20
324.286086
 42
-0.004807
  0
VERTEX
  8
0
 10
100.471875
 20
322.814509
 42
-0.004856
  0
VERTEX
  8
0
 10
106.168382
 20
321.306696
 42
-0.010581
  0
VERTEX
  8
0
 10
110.500000
 20
320.015828
 42
0.008705
  0
VERTEX
  8
0
 10
125.297326
 20
315.545541
 42
0.015160
  0
VERTEX
  8
0
 10
137.732958
 20
312.427674
 42
0.012381
  0
VERTEX
  8
0
 10
147.614514
 20
310.521323
 42
0.165798
  0
VERTEX
  8
0
 10
151.208563
 20
311.111619
 42
0.155437
  0
VERTEX
  8
0
 10
152.399157
 20
312.337019
 42
0.095679
  0
VERTEX
  8
0
 10
152.943835
 20
314.291318
 42
0.094683
  0
VERTEX
  8
0
 10
152.723657
 20
316.326439
 42
0.148091
  0
VERTEX
  8
0
 10
151.750000
 20
317.778678
 42
0.098782
  0
VERTEX
  8
0
 10
150.850360
 20
318.257620
 42
0.008220
  0
VERTEX
  8
0
 10
148.293688
 20
318.981312
 42
0.010714
  0
VERTEX
  8
0
 10
145.185780
 20
319.735209
 42
0.008063
  0
VERTEX
  8
0
 10
141.739152
 20
320.435399
 42
-0.022717
  0
VERTEX
  8
0
 10
131.255536
 20
322.887034
 42
-0.010692
  0
VERTEX
  8
0
 10
117.948559
 20
326.952891
 42
-0.010709
  0
VERTEX
  8
0
 10
104.642328
 20
331.649840
 42
-0.019757
  0
VERTEX
  8
0
 10
94.077053
 20
336.120019
 42
-0.018953
  0
VERTEX
  8
0
 10
85.587092
 20
340.514892
 42
-0.011041
  0
VERTEX
  8
0
 10
75.735126
 20
346.389079
 42
-0.009189
  0
VERTEX
  8
0
 10
66.746485
 20
352.253922
 42
-0.060033
  0
VERTEX
  8
0
 10
62.688175
 20
355.787641
 42
-0.090750
  0
VERTEX
  8
0
 10
62.058171
 20
356.807270
 42
-0.538973
  0
VERTEX
  8
0
 10
62.355155
 20
357.226609
 42
-0.049236
  0
VERTEX
  8
0
 10
64.032481
 20
357.003066
 42
-0.001862
  0
VERTEX
  8
0
 10
70.188175
 20
355.531790
 42
-0.002933
  0
VERTEX
  8
0
 10
74.913338
 20
354.354410
 42
-0.001000
  0
VERTEX
  8
0
 10
81.758401
 20
352.591511
 42
-0.000994
  0
VERTEX
  8
0
 10
89.308653
 20
350.614849
 42
-0.001147
  0
SEQEND
  0
POLYLINE
  8
0
 66
1
 70
1
  0
VERTEX
  8
0
 10
232.500000
 20
326.163156
 42
-0.001618
  0
VERTEX
  8
0
 10
237.617471
 20
322.545564
 42
-0.117058
  0
VERTEX
  8
0
 10
238.292255
 20
321.774890
 42
-0.708154
  0
VERTEX
  8
0
 10
238.064472
 20
321.528537
 42
-0.004115
  0
VERTEX
  8
0
 10
234.000000
 20
323.324350
 42
0.000299
  0
VERTEX
  8
0
 10
231.068929
 20
324.646217
 42
0.000080
  0
VERTEX
  8
0
 10
226.414669
 20
326.740971
 42
0.000081
  0
VERTEX
  8
0
 10
221.127958
 20
329.118315
 42
0.000084
  0
VERTEX
  8
0
 10
215.901001
 20
331.466706
 42
-0.007813
  0
VERTEX
  8
0
 10
209.213894
 20
334.596231
 42
-0.023842
  0
VERTEX
  8
0
 10
204.819208
 20
337.002865
 42
-0.032576
  0
VERTEX
  8
0
 10
201.490520
 20
339.348323
 42
-0.030114
  0
VERTEX
  8
0
 10
198.401001
 20
342.164560
 42
0.000000
  0
VERTEX
  8
0
 10
193.500000
 20
347.204430
 42
0.000000
  0
VERTEX
  8
0
 10
210.500000
 20
338.438962
 42
-0.003915
  0
VERTEX
  8
0
 10
217.375096
 20
334.825639
 42
-0.004309
  0
VERTEX
  8
0
 10
223.975000
 20
331.217188
 42
-0.004022
  0
VERTEX
  8
0
 10
229.561123
 20
328.040994
 42
-0.021770
  0
SEQEND
  0
POLYLINE
  8
0
 66
1
 70
1
  0
VERTEX
  8
0
 10
301.598126
 20
271.783181
 42
-0.036304
  0
VERTEX
  8
0
 10
302.441545
 20
269.480673
 42
-0.027887
  0
VERTEX
  8
0
 10
303.033445
 20
266.867993
 42
-0.024747
  0
VERTEX
  8
0
 10
303.384511
 20
263.895090
 42
-0.017017
  0
VERTEX
  8
0
 10
303.500000
 20
260.502698
 42
-0.016996
  0
VERTEX
  8
0
 10
303.363226
 20
256.480125
 42
-0.043021
  0
VERTEX
  8
0
 10
302.914851
 20
253.591018
 42
-0.043184
  0
VERTEX
  8
0
 10
301.979806
 20
250.827585
 42
-0.017236
  0
VERTEX
  8
0
 10
300.250000
 20
247.219517
 42
0.000072
  0
VERTEX
  8
0
 10
298.788017
 20
244.420742
 42
0.000045
  0
VERTEX
  8
0
 10
297.074161
 20
241.137921
 42
0.000045
  0
VERTEX
  8
0
 10
295.384303
 20
237.899652
 42
0.000081
  0
VERTEX
  8
0
 10
294.002461
 20
235.250000
 42
0.055446
  0
VERTEX
  8
0
 10
290.680397
 20
226.679175
 42
0.064972
  0
VERTEX
  8
0
 10
289.557531
 20
218.038919
 42
0.063758
  0
VERTEX
  8
0
 10
290.685365
 20
209.266925
 42
0.050607
  0
VERTEX
  8
0
 10
294.020908
 20
200.305966
 42
0.044593
  0
VERTEX
  8
0
 10
296.947965
 20
195.495115
 42
0.035905
  0
VERTEX
  8
0
 10
300.884132
 20
190.892439
 42
0.035841
  0
VERTEX
  8
0
 10
305.447624
 20
186.891031
 42
0.043903
  0
VERTEX
  8
0
 10
310.250000
 20
183.877063
 42
-0.077635
  0
VERTEX
  8
0
 10
313.144768
 20
181.776731
 42
-0.672844
  0
VERTEX
  8
0
 10
312.715258
 20
180.750480
 42
-0.075978
  0
VERTEX
  8
0
 10
308.164568
 20
181.493154
 42
-0.022884
  0
VERTEX
  8
0
 10
301.582372
 20
183.964691
 42
-0.078705
  0
VERTEX
  8
0
 10
294.014592
 20
188.730884
 42
-0.043653
  0
VERTEX
  8
0
 10
286.444090
 20
196.625937
 42
-0.042893
  0
VERTEX
  8
0
 10
280.151766
 20
205.994648
 42
-0.061456
  0
VERTEX
  8
0
 10
276.417386
 20
215.265051
 42
-0.053978
  0
VERTEX
  8
0
 10
275.131039
 20
223.643883
 42
-0.086051
  0
VERTEX
  8
0
 10
276.048118
 20
230.814868
 42
-0.069002
  0
VERTEX
  8
0
 10
279.548286
 20
238.314560
 42
-0.024160
  0
VERTEX
  8
0
 10
286.503211
 20
248.000000
 42
0.015349
  0
VERTEX
  8
0
 10
291.575786
 20
254.807691
 42
0.037153
  0
VERTEX
  8
0
 10
294.774006
 20
260.199148
 42
0.046822
  0
VERTEX
  8
0
 10
296.690477
 20
265.176248
 42
0.042811
  0
VERTEX
  8
0
 10
297.719903
 20
270.575068
 42
-0.012119
  0
VERTEX
  8
0
 10
297.985616
 20
272.654690
 42
-0.019582
  0
VERTEX
  8
0
 10
298.323375
 20
274.406426
 42
-0.014333
  0
VERTEX
  8
0
 10
298.684441
 20
275.773060
 42
-0.332453
  0
VERTEX
  8
0
 10
298.988028
 20
276.000000
 42
-0.243744
  0
VERTEX
  8
0
 10
299.352553
 20
275.811074
 42
-0.015055
  0
VERTEX
  8
0
 10
300.046886
 20
274.761309
 42
-0.019593
  0
VERTEX
  8
0
 10
300.817998
 20
273.399008
 42
-0.013047
  0
SEQEND
  0
POLYLINE
  8
0
 66
1
 70
1
  0
VERTEX
  8
0
 10
385.520674
 20
252.289295
 42
-0.051978
  0
VERTEX
  8
0
 10
383.116261
 20
242.978256
 42
-0.078865
  0
VERTEX
  8
0
 10
379.013536
 20
235.711567
 42
-0.073088
  0
VERTEX
  8
0
 10
372.608184
 20
229.702398
 42
-0.038533
  0
VERTEX
  8
0
 10
363.181239
 20
224.171998
 42
0.032702
  0
VERTEX
  8
0
 10
355.898949
 20
220.013015
 42
0.043665
  0
VERTEX
  8
0
 10
349.941476
 20
215.278026
 42
0.048644
  0
VERTEX
  8
0
 10
345.426497
 20
210.075369
 42
0.063267
  0
VERTEX
  8
0
 10
342.453350
 20
204.517020
 42
-0.013297
  0
VERTEX
  8
0
 10
341.738995
 20
202.786061
 42
-0.020204
  0
VERTEX
  8
0
 10
341.018959
 20
201.326875
 42
-0.015655
  0
VERTEX
  8
0
 10
340.360341
 20
200.203061
 42
-0.257842
  0
VERTEX
  8
0
 10
339.992751
 20
200.000000
 42
-0.156265
  0
VERTEX
  8
0
 10
339.535699
 20
200.146418
 42
-0.007200
  0
VERTEX
  8
0
 10
338.203392
 20
201.126927
 42
-0.011380
  0
VERTEX
  8
0
 10
336.643928
 20
202.366502
 42
-0.007864
  0
VERTEX
  8
0
 10
334.934193
 20
203.836349
 42
0.000000
  0
VERTEX
  8
0
 10
330.611169
 20
207.672698
 42
0.000000
  0
VERTEX
  8
0
 10
332.879450
 20
214.586349
 42
-0.015180
  0
VERTEX
  8
0
 10
333.919077
 20
217.457766
 42
-0.013616
  0
VERTEX
  8
0
 10
335.166691
 20
220.368266
 42
-0.013792
  0
VERTEX
  8
0
 10
336.429676
 20
222.918857
 42
-0.040987
  0
VERTEX
  8
0
 10
337.480554
 20
224.560940
 42
-0.079390
  0
VERTEX
  8
0
 10
340.581962
 20
227.515372
 42
-0.029642
  0
VERTEX
  8
0
 10
345.744783
 20
230.634165
 42
-0.024808
  0
VERTEX
  8
0
 10
352.584778
 20
233.808855
 42
-0.014595
  0
VERTEX
  8
0
 10
361.037683
 20
236.949638
 42
0.024960
  0
VERTEX
  8
0
 10
368.872081
 20
240.046812
 42
0.044932
  0
VERTEX
  8
0
 10
374.875659
 20
243.453908
 42
0.053703
  0
VERTEX
  8
0
 10
379.404657
 20
247.372731
 42
0.061628
  0
VERTEX
  8
0
 10
382.759610
 20
252.002282
 42
-0.005133
  0
VERTEX
  8
0
 10
383.836306
 20
253.908026
 42
-0.008132
  0
VERTEX
  8
0
 10
384.801801
 20
255.515802
 42
-0.003048
  0
VERTEX
  8
0
 10
385.653873
 20
256.865382
 42
-0.245228
  0
VERTEX
  8
0
 10
385.863544
 20
256.985592
 42
-0.440689
  0
VERTEX
  8
0
 10
385.989419
 20
256.858411
 42
-0.005738
  0
VERTEX
  8
0
 10
385.912788
 20
255.611998
 42
-0.011954
  0
VERTEX
  8
0
 10
385.765479
 20
254.094744
 42
-0.007040
  0
SEQEND
  0
POLYLINE
  8
0
 66
1
 70
1
  0
VERTEX
  8
0
 10
336.854139
 20
191.681088
 42
0.024452
  0
VERTEX
  8
0
 10
349.552549
 20
184.050725
 42
0.013262
  0
VERTEX
  8
0
 10
365.832825
 20
175.869647
 42
0.010670
  0
VERTEX
  8
0
 10
386.388498
 20
166.744318
 42
0.005482
  0
VERTEX
  8
0
 10
412.500000
 20
156.148365
 42
-0.007231
  0
VERTEX
  8
0
 10
417.483324
 20
154.105824
 42
-0.030347
  0
VERTEX
  8
0
 10
420.376340
 20
152.657576
 42
-0.052966
  0
VERTEX
  8
0
 10
422.009726
 20
151.465053
 42
-0.211659
  0
VERTEX
  8
0
 10
422.500000
 20
150.358772
 42
-0.326810
  0
VERTEX
  8
0
 10
421.583816
 20
149.106774
 42
-0.132803
  0
VERTEX
  8
0
 10
419.350478
 20
149.010095
 42
-0.034762
  0
VERTEX
  8
0
 10
414.670248
 20
150.408241
 42
-0.003653
  0
VERTEX
  8
0
 10
404.000000
 20
154.511252
 42
0.001655
  0
VERTEX
  8
0
 10
389.608275
 20
160.111392
 42
0.013018
  0
VERTEX
  8
0
 10
382.853182
 20
162.514220
 42
0.026952
  0
VERTEX
  8
0
 10
378.819884
 20
163.595042
 42
0.113949
  0
VERTEX
  8
0
 10
376.334631
 20
163.547851
 42
0.061413
  0
VERTEX
  8
0
 10
375.284018
 20
163.142076
 42
0.102647
  0
VERTEX
  8
0
 10
374.559580
 20
162.537039
 42
0.103917
  0
VERTEX
  8
0
 10
374.141195
 20
161.699541
 42
0.064140
  0
VERTEX
  8
0
 10
374.000000
 20
160.603393
 42
0.109649
  0
VERTEX
  8
0
 10
374.451886
 20
158.567566
 42
0.123817
  0
VERTEX
  8
0
 10
375.713689
 20
157.017474
 42
0.054114
  0
VERTEX
  8
0
 10
378.395297
 20
155.435218
 42
0.007109
  0
VERTEX
  8
0
 10
384.466581
 20
152.791237
 42
-0.008495
  0
VERTEX
  8
0
 10
389.447663
 20
150.605588
 42
-0.071188
  0
VERTEX
  8
0
 10
391.508053
 20
149.277320
 42
-0.105493
  0
VERTEX
  8
0
 10
392.759872
 20
147.616314
 42
-0.028213
  0
VERTEX
  8
0
 10
393.991753
 20
144.525023
 42
0.028913
  0
VERTEX
  8
0
 10
394.839597
 20
142.406067
 42
0.020970
  0
VERTEX
  8
0
 10
396.014148
 20
140.151926
 42
0.021295
  0
VERTEX
  8
0
 10
397.314772
 20
138.099686
 42
0.042691
  0
VERTEX
  8
0
 10
398.539618
 20
136.624023
 42
0.000000
  0
VERTEX
  8
0
 10
401.423340
 20
133.697999
 42
0.000000
  0
VERTEX
  8
0
 10
397.725684
 20
134.391684
 42
0.056922
  0
VERTEX
  8
0
 10
394.721728
 20
134.607508
 42
0.092050
  0
VERTEX
  8
0
 10
392.231570
 20
134.036050
 42
0.124198
  0
VERTEX
  8
0
 10
390.603333
 20
132.782011
 42
0.168409
  0
VERTEX
  8
0
 10
390.000000
 20
131.041542
 42
0.095048
  0
VERTEX
  8
0
 10
390.181155
 20
130.097182
 42
0.027576
  0
VERTEX
  8
0
 10
390.807813
 20
128.745766
 42
0.026648
  0
VERTEX
  8
0
 10
391.697478
 20
127.270337
 42
0.025616
  0
VERTEX
  8
0
 10
392.750000
 20
125.877496
 42
-0.005467
  0
VERTEX
  8
0
 10
394.271468
 20
124.024259
 42
-0.096871
  0
VERTEX
  8
0
 10
394.629602
 20
123.341904
 42
-0.556902
  0
VERTEX
  8
0
 10
394.425133
 20
123.111608
 42
-0.048426
  0
VERTEX
  8
0
 10
393.500000
 20
123.365950
 42
0.046000
  0
VERTEX
  8
0
 10
381.372004
 20
126.763460
 42
0.045142
  0
VERTEX
  8
0
 10
368.749636
 20
127.915010
 42
0.032406
  0
VERTEX
  8
0
 10
352.905628
 20
126.899091
 42
0.010797
  0
VERTEX
  8
0
 10
329.911150
 20
123.414082
 42
0.000000
  0
VERTEX
  8
0
 10
326.322301
 20
122.790617
 42
0.000000
  0
VERTEX
  8
0
 10
324.686710
 20
128.645309
 42
-0.028678
  0
VERTEX
  8
0
 10
323.134247
 20
135.751790
 42
-0.014162
  0
VERTEX
  8
0
 10
321.941212
 20
144.918875
 42
-0.013988
  0
VERTEX
  8
0
 10
321.280193
 20
153.942875
 42
-0.036535
  0
VERTEX
  8
0
 10
321.461447
 20
160.440136
 42
-0.003241
  0
VERTEX
  8
0
 10
322.902233
 20
173.802703
 42
-0.006290
  0
VERTEX
  8
0
 10
324.256475
 20
184.453622
 42
-0.006699
  0
VERTEX
  8
0
 10
325.505074
 20
192.580386
 42
-0.038324
  0
VERTEX
  8
0
 10
326.551991
 20
196.813382
 42
-0.243091
  0
VERTEX
  8
0
 10
327.165433
 20
197.413954
 42
-0.192334
  0
VERTEX
  8
0
 10
328.103782
 20
197.336684
 42
-0.030733
  0
VERTEX
  8
0
 10
330.044907
 20
196.215882
 42
-0.001222
  0
SEQEND
  0
POLYLINE
  8
0
 66
1
 70
1
  0
VERTEX
  8
0
 10
311.418213
 20
171.393011
 42
-0.230853
  0
VERTEX
  8
0
 10
312.263464
 20
170.486845
 42
-0.047835
  0
VERTEX
  8
0
 10
312.711748
 20
168.289803
 42
-0.022991
  0
VERTEX
  8
0
 10
312.945812
 20
164.374121
 42
-0.003433
  0
VERTEX
  8
0
 10
313.000000
 20
156.480979
 42
0.013096
  0
VERTEX
  8
0
 10
313.263010
 20
146.441044
 42
0.019393
  0
VERTEX
  8
0
 10
314.064479
 20
137.673699
 42
0.022110
  0
VERTEX
  8
0
 10
315.407857
 20
130.038195
 42
0.031698
  0
VERTEX
  8
0
 10
317.317855
 20
123.439316
 42
0.000000
  0
VERTEX
  8
0
 10
318.777693
 20
119.378632
 42
0.000000
  0
VERTEX
  8
0
 10
314.638846
 20
117.231550
 42
-0.034251
  0
VERTEX
  8
0
 10
305.634056
 20
113.317026
 42
-0.014024
  0
VERTEX
  8
0
 10
292.945130
 20
109.202694
 42
-0.012866
  0
VERTEX
  8
0
 10
280.435798
 20
105.877998
 42
-0.058577
  0
VERTEX
  8
0
 10
272.967130
 20
105.000000
 42
0.000000
  0
VERTEX
  8
0
 10
269.230082
 20
105.000000
 42
0.000000
  0
VERTEX
  8
0
 10
268.047085
 20
113.250000
 42
0.002382
  0
VERTEX
  8
0
 10
267.554051
 20
116.575498
 42
0.002737
  0
VERTEX
  8
0
 10
267.050891
 20
119.745248
 42
0.002461
  0
VERTEX
  8
0
 10
266.596433
 20
122.427762
 42
0.015779
  0
VERTEX
  8
0
 10
266.317015
 20
123.776378
 42
0.136931
  0
VERTEX
  8
0
 10
264.966640
 20
126.201773
 42
0.149448
  0
VERTEX
  8
0
 10
262.597685
 20
127.477252
 42
0.172375
  0
VERTEX
  8
0
 10
260.168605
 20
127.124551
 42
0.181660
  0
VERTEX
  8
0
 10
258.570861
 20
125.324066
 42
0.126167
  0
VERTEX
  8
0
 10
258.262131
 20
122.660650
 42
0.003226
  0
VERTEX
  8
0
 10
259.986288
 20
110.605449
 42
0.007179
  0
VERTEX
  8
0
 10
261.882956
 20
99.063134
 42
0.027722
  0
VERTEX
  8
0
 10
263.556529
 20
92.000000
 42
0.032613
  0
VERTEX
  8
0
 10
265.204370
 20
87.531351
 42
0.021071
  0
VERTEX
  8
0
 10
267.656595
 20
82.589604
 42
0.020821
  0
VERTEX
  8
0
 10
270.572792
 20
77.772796
 42
0.027712
  0
VERTEX
  8
0
 10
273.634259
 20
73.673275
 42
-0.012968
  0
VERTEX
  8
0
 10
274.540246
 20
72.531870
 42
-0.016931
  0
VERTEX
  8
0
 10
275.305064
 20
71.440200
 42
-0.014579
  0
VERTEX
  8
0
 10
275.877342
 20
70.502820
 42
-0.130471
  0
VERTEX
  8
0
 10
276.000000
 20
70.040762
 42
-0.345885
  0
VERTEX
  8
0
 10
275.728055
 20
69.694679
 42
-0.010124
  0
VERTEX
  8
0
 10
273.792373
 20
69.264804
 42
-0.016247
  0
VERTEX
  8
0
 10
271.365862
 20
68.858775
 42
-0.009967
  0
VERTEX
  8
0
 10
268.484672
 20
68.530732
 42
0.021933
  0
VERTEX
  8
0
 10
262.341058
 20
67.681914
 42
0.141958
  0
VERTEX
  8
0
 10
259.572403
 20
66.299195
 42
0.192976
  0
VERTEX
  8
0
 10
258.421096
 20
63.880823
 42
0.046872
  0
VERTEX
  8
0
 10
258.559192
 20
59.372540
 42
-0.017436
  0
VERTEX
  8
0
 10
258.885881
 20
55.729263
 42
-0.182453
  0
VERTEX
  8
0
 10
258.441376
 20
54.324089
 42
-0.313656
  0
VERTEX
  8
0
 10
257.351071
 20
53.992056
 42
-0.044813
  0
VERTEX
  8
0
 10
255.080278
 20
54.957037
 42
0.017331
  0
VERTEX
  8
0
 10
254.074533
 20
55.451252
 42
0.003838
  0
VERTEX
  8
0
 10
252.317570
 20
56.224096
 42
0.003985
  0
VERTEX
  8
0
 10
250.272264
 20
57.085839
 42
0.003830
  0
VERTEX
  8
0
 10
248.186459
 20
57.926505
 42
0.000000
  0
VERTEX
  8
0
 10
243.080880
 20
59.938936
 42
0.000000
  0
VERTEX
  8
0
 10
239.998205
 20
57.345036
 42
-0.012562
  0
VERTEX
  8
0
 10
238.788868
 20
56.378274
 42
-0.020335
  0
VERTEX
  8
0
 10
237.708633
 20
55.625528
 42
-0.015355
  0
VERTEX
  8
0
 10
236.816440
 20
55.094077
 42
-0.334700
  0
VERTEX
  8
0
 10
236.532778
 20
55.133889
 42
-0.208188
  0
VERTEX
  8
0
 10
236.391719
 20
55.492365
 42
-0.001170
  0
VERTEX
  8
0
 10
236.533332
 20
59.220514
 42
-0.004701
  0
VERTEX
  8
0
 10
236.746250
 20
63.500349
 42
-0.002937
  0
VERTEX
  8
0
 10
237.072148
 20
68.508321
 42
0.002677
  0
VERTEX
  8
0
 10
237.472978
 20
74.618577
 42
0.001337
  0
VERTEX
  8
0
 10
237.918042
 20
82.353320
 42
0.001328
  0
VERTEX
  8
0
 10
238.336114
 20
90.363122
 42
0.001958
  0
VERTEX
  8
0
 10
238.656894
 20
97.396597
 42
0.002479
  0
VERTEX
  8
0
 10
239.011815
 20
107.062652
 42
0.025135
  0
VERTEX
  8
0
 10
238.937382
 20
111.082157
 42
0.067855
  0
VERTEX
  8
0
 10
238.480818
 20
113.285992
 42
0.151044
  0
VERTEX
  8
0
 10
237.468629
 20
114.646597
 42
0.030125
  0
VERTEX
  8
0
 10
235.894398
 20
115.658164
 42
0.139749
  0
VERTEX
  8
0
 10
234.853274
 20
115.905462
 42
0.149946
  0
VERTEX
  8
0
 10
233.879029
 20
115.558460
 42
0.036406
  0
VERTEX
  8
0
 10
232.571429
 20
114.428571
 42
0.093371
  0
VERTEX
  8
0
 10
231.904631
 20
113.452231
 42
0.043451
  0
VERTEX
  8
0
 10
231.411352
 20
111.993793
 42
0.036385
  0
VERTEX
  8
0
 10
231.101572
 20
110.151166
 42
0.023460
  0
VERTEX
  8
0
 10
231.000000
 20
107.987588
 42
-0.014373
  0
VERTEX
  8
0
 10
230.945485
 20
106.091582
 42
-0.020854
  0
VERTEX
  8
0
 10
230.779687
 20
104.425598
 42
-0.017199
  0
VERTEX
  8
0
 10
230.544748
 20
103.099066
 42
-0.216379
  0
VERTEX
  8
0
 10
230.250000
 20
102.699760
 42
-0.150676
  0
VERTEX
  8
0
 10
227.340708
 20
102.080784
 42
-0.003485
  0
VERTEX
  8
0
 10
213.178520
 20
103.450835
 42
-0.007734
  0
VERTEX
  8
0
 10
199.707916
 20
105.059783
 42
-0.036288
  0
VERTEX
  8
0
 10
192.077790
 20
106.661303
 42
-0.633115
  0
VERTEX
  8
0
 10
191.948258
 20
107.451232
 42
-0.001585
  0
VERTEX
  8
0
 10
204.033855
 20
115.743083
 42
-0.006117
  0
VERTEX
  8
0
 10
217.180204
 20
124.467983
 42
-0.005790
  0
VERTEX
  8
0
 10
230.777383
 20
133.032840
 42
0.000949
  0
VERTEX
  8
0
 10
233.869388
 20
134.938931
 42
0.000795
  0
VERTEX
  8
0
 10
237.142505
 20
136.972460
 42
0.000802
  0
VERTEX
  8
0
 10
240.128203
 20
138.840663
 42
0.002205
  0
VERTEX
  8
0
 10
242.226581
 20
140.171279
 42
0.000000
  0
VERTEX
  8
0
 10
246.398398
 20
142.842558
 42
0.000000
  0
VERTEX
  8
0
 10
249.329051
 20
140.376576
 42
0.040800
  0
VERTEX
  8
0
 10
251.145220
 20
139.085608
 42
0.073433
  0
VERTEX
  8
0
 10
252.832022
 20
138.392651
 42
0.055168
  0
VERTEX
  8
0
 10
254.957402
 20
138.108378
 42
0.014689
  0
VERTEX
  8
0
 10
258.379852
 20
138.131094
 42
-0.020415
  0
VERTEX
  8
0
 10
260.957814
 20
138.118690
 42
-0.018577
  0
VERTEX
  8
0
 10
263.609226
 20
137.898689
 42
-0.019045
  0
VERTEX
  8
0
 10
265.971754
 20
137.522224
 42
-0.053014
  0
VERTEX
  8
0
 10
267.573644
 20
137.023127
 42
0.090952
  0
VERTEX
  8
0
 10
271.014755
 20
136.229895
 42
0.114446
  0
VERTEX
  8
0
 10
274.221941
 20
136.822611
 42
0.079296
  0
VERTEX
  8
0
 10
277.675368
 20
139.030836
 42
0.025492
  0
VERTEX
  8
0
 10
282.020381
 20
143.313255
 42
0.000459
  0
VERTEX
  8
0
 10
284.889851
 20
146.451045
 42
0.000159
  0
VERTEX
  8
0
 10
289.027936
 20
150.987331
 42
0.000158
  0
VERTEX
  8
0
 10
293.584974
 20
155.989246
 42
0.000183
  0
VERTEX
  8
0
 10
297.916359
 20
160.750000
 42
-0.003850
  0
VERTEX
  8
0
 10
301.897927
 20
165.062297
 42
-0.006067
  0
VERTEX
  8
0
 10
305.388311
 20
168.695312
 42
-0.001973
  0
VERTEX
  8
0
 10
308.441544
 20
171.772697
 42
-0.198911
  0
VERTEX
  8
0
 10
308.990307
 20
172.000000
 42
-0.046510
  0
VERTEX
  8
0
 10
309.421414
 20
171.959811
 42
-0.014770
  0
VERTEX
  8
0
 10
310.052528
 20
171.821697
 42
-0.014603
  0
VERTEX
  8
0
 10
310.750541
 20
171.625366
 42
-0.015756
  0
SEQEND
  0
POLYLINE
  8
0
 66
1
 70
1
  0
VERTEX
  8
0
 10
202.687023
 20
160.453946
 42
-0.370575
  0
VERTEX
  8
0
 10
202.257061
 20
159.414852
 42
-0.000237
  0
VERTEX
  8
0
 10
172.001421
 20
144.113797
 42
-0.000235
  0
VERTEX
  8
0
 10
141.728237
 20
128.839714
 42
-0.383904
  0
VERTEX
  8
0
 10
140.671554
 20
129.127960
 42
-0.062718
  0
VERTEX
  8
0
 10
140.051758
 20
130.423879
 42
-0.006777
  0
VERTEX
  8
0
 10
139.045722
 20
133.594127
 42
-0.002533
  0
VERTEX
  8
0
 10
138.030112
 20
137.014142
 42
-0.297153
  0
VERTEX
  8
0
 10
138.158200
 20
137.437059
 42
-0.078044
  0
VERTEX
  8
0
 10
138.447043
 20
137.611479
 42
-0.000734
  0
VERTEX
  8
0
 10
140.749596
 20
138.547241
 42
-0.002448
  0
VERTEX
  8
0
 10
143.409035
 20
139.608374
 42
-0.001579
  0
VERTEX
  8
0
 10
146.500000
 20
140.812924
 42
0.003141
  0
VERTEX
  8
0
 10
150.938946
 20
142.558772
 42
0.000674
  0
VERTEX
  8
0
 10
158.612500
 20
145.644604
 42
0.000704
  0
VERTEX
  8
0
 10
167.490613
 20
149.243299
 42
0.000672
  0
VERTEX
  8
0
 10
176.500000
 20
152.924098
 42
-0.003562
  0
VERTEX
  8
0
 10
190.210647
 20
158.433334
 42
-0.023745
  0
VERTEX
  8
0
 10
197.177241
 20
160.799888
 42
-0.052239
  0
VERTEX
  8
0
 10
201.127218
 20
161.500739
 42
-0.343804
  0
SEQEND
  0
POLYLINE
  8
0
 66
1
 70
1
  0
VERTEX
  8
0
 10
218.550546
 20
152.782788
 42
-0.461799
  0
VERTEX
  8
0
 10
218.498347
 20
152.130434
 42
-0.016568
  0
VERTEX
  8
0
 10
216.145160
 20
150.546060
 42
-0.013108
  0
VERTEX
  8
0
 10
212.114411
 20
148.166871
 42
-0.002377
  0
VERTEX
  8
0
 10
204.500000
 20
143.984748
 42
0.000490
  0
VERTEX
  8
0
 10
201.452333
 20
142.325796
 42
0.000167
  0
VERTEX
  8
0
 10
197.031250
 20
139.911705
 42
0.000166
  0
VERTEX
  8
0
 10
192.151369
 20
137.242868
 42
0.000192
  0
VERTEX
  8
0
 10
187.500000
 20
134.694679
 42
-0.000682
  0
VERTEX
  8
0
 10
182.326444
 20
131.867008
 42
-0.000341
  0
VERTEX
  8
0
 10
175.777942
 20
128.305227
 42
-0.000339
  0
VERTEX
  8
0
 10
168.996514
 20
124.628701
 42
-0.000501
  0
VERTEX
  8
0
 10
163.041932
 20
121.413374
 42
0.000000
  0
VERTEX
  8
0
 10
149.583864
 20
114.163750
 42
0.000000
  0
VERTEX
  8
0
 10
147.382916
 20
117.331875
 42
-0.022412
  0
VERTEX
  8
0
 10
146.587546
 20
118.593901
 42
-0.033754
  0
VERTEX
  8
0
 10
146.022083
 20
119.764335
 42
-0.036056
  0
VERTEX
  8
0
 10
145.716467
 20
120.716796
 42
-0.260739
  0
VERTEX
  8
0
 10
145.840984
 20
121.163735
 42
-0.081195
  0
VERTEX
  8
0
 10
147.310137
 20
122.228027
 42
-0.000757
  0
VERTEX
  8
0
 10
159.318273
 20
128.228147
 42
-0.002444
  0
VERTEX
  8
0
 10
173.550547
 20
135.226124
 42
-0.001386
  0
VERTEX
  8
0
 10
190.846362
 20
143.566559
 42
-0.005173
  0
VERTEX
  8
0
 10
203.878863
 20
149.641716
 42
-0.026184
  0
VERTEX
  8
0
 10
211.344769
 20
152.567608
 42
-0.048199
  0
VERTEX
  8
0
 10
216.034708
 20
153.640163
 42
-0.232536
  0
SEQEND
  0
POLYLINE
  8
0
 66
1
 70
1
  0
VERTEX
  8
0
 10
231.342309
 20
145.250000
 42
-0.385595
  0
VERTEX
  8
0
 10
231.172947
 20
144.347762
 42
-0.010343
  0
VERTEX
  8
0
 10
227.624253
 20
141.768483
 42
-0.005321
  0
VERTEX
  8
0
 10
220.654299
 20
137.028911
 42
-0.000228
  0
VERTEX
  8
0
 10
195.935633
 20
120.618396
 42
-0.002915
  0
VERTEX
  8
0
 10
185.623812
 20
113.865488
 42
-0.004532
  0
VERTEX
  8
0
 10
176.645952
 20
108.175404
 42
-0.001473
  0
VERTEX
  8
0
 10
168.837869
 20
103.357181
 42
-0.138358
  0
VERTEX
  8
0
 10
167.571787
 20
103.000000
 42
-0.103969
  0
VERTEX
  8
0
 10
165.548095
 20
103.425401
 42
-0.018200
  0
VERTEX
  8
0
 10
162.023354
 20
105.131450
 42
-0.012619
  0
VERTEX
  8
0
 10
158.564381
 20
107.077243
 42
-0.264187
  0
VERTEX
  8
0
 10
158.000000
 20
108.070841
 42
-0.271466
  0
VERTEX
  8
0
 10
158.391984
 20
108.739612
 42
-0.000721
  0
VERTEX
  8
0
 10
168.058809
 20
114.134683
 42
-0.002214
  0
VERTEX
  8
0
 10
182.814860
 20
122.256823
 42
-0.000296
  0
VERTEX
  8
0
 10
213.992841
 20
139.214673
 42
-0.008351
  0
VERTEX
  8
0
 10
221.653709
 20
143.211359
 42
-0.032357
  0
VERTEX
  8
0
 10
226.586445
 20
145.293778
 42
-0.056589
  0
VERTEX
  8
0
 10
229.783140
 20
146.014387
 42
-0.289980
  0
SEQEND
  0
POLYLINE
  8
0
 66
1
 70
1
  0
VERTEX
  8
0
 10
407.081787
 20
144.000000
 42
-0.108102
  0
VERTEX
  8
0
 10
407.432104
 20
143.923365
 42
-0.099646
  0
VERTEX
  8
0
 10
407.730275
 20
143.706250
 42
-0.095575
  0
VERTEX
  8
0
 10
407.930205
 20
143.381772
 42
-0.090658
  0
VERTEX
  8
0
 10
408.000000
 20
143.000000
 42
-0.272053
  0
VERTEX
  8
0
 10
407.551200
 20
142.236208
 42
-0.169929
  0
VERTEX
  8
0
 10
406.498922
 20
142.053781
 42
-0.101795
  0
VERTEX
  8
0
 10
405.094416
 20
142.595110
 42
-0.079454
  0
VERTEX
  8
0
 10
403.872445
 20
143.687231
 42
-0.007209
  0
VERTEX
  8
0
 10
403.075142
 20
144.696794
 42
-0.278007
  0
VERTEX
  8
0
 10
403.044372
 20
144.971061
 42
-0.381878
  0
VERTEX
  8
0
 10
403.260173
 20
145.065015
 42
-0.009993
  0
VERTEX
  8
0
 10
404.331787
 20
144.687231
 42
0.014589
  0
VERTEX
  8
0
 10
405.100458
 20
144.424163
 42
0.013921
  0
VERTEX
  8
0
 10
405.895212
 20
144.201874
 42
0.014007
  0
VERTEX
  8
0
 10
406.607566
 20
144.044915
 42
0.047250
  0
SEQEND
  0
POLYLINE
  8
0
 66
1
 70
1
  0
VERTEX
  8
0
 10
436.482697
 20
138.080517
 42
-0.013876
  0
VERTEX
  8
0
 10
439.724559
 20
136.500718
 42
-0.046094
  0
VERTEX
  8
0
 10
441.714645
 20
135.215799
 42
-0.071824
  0
VERTEX
  8
0
 10
442.919982
 20
133.952578
 42
-0.093432
  0
VERTEX
  8
0
 10
443.588485
 20
132.503470
 42
-0.094912
  0
VERTEX
  8
0
 10
443.724916
 20
130.097647
 42
-0.077347
  0
VERTEX
  8
0
 10
442.993317
 20
127.618855
 42
-0.072111
  0
VERTEX
  8
0
 10
441.475255
 20
125.328649
 42
-0.065450
  0
VERTEX
  8
0
 10
439.323391
 20
123.476238
 42
-0.052731
  0
VERTEX
  8
0
 10
437.833285
 20
122.710531
 42
-0.188051
  0
VERTEX
  8
0
 10
436.780347
 20
122.713111
 42
-0.099602
  0
VERTEX
  8
0
 10
435.615447
 20
123.464317
 42
-0.009642
  0
VERTEX
  8
0
 10
433.238834
 20
125.865735
 42
0.048947
  0
VERTEX
  8
0
 10
430.189972
 20
128.497239
 42
0.059514
  0
VERTEX
  8
0
 10
426.872566
 20
130.289576
 42
0.045612
  0
VERTEX
  8
0
 10
422.563848
 20
131.553344
 42
0.016452
  0
VERTEX
  8
0
 10
416.256090
 20
132.579322
 42
0.000000
  0
VERTEX
  8
0
 10
411.012181
 20
133.256046
 42
0.000000
  0
VERTEX
  8
0
 10
415.540819
 20
136.128023
 42
-0.015387
  0
VERTEX
  8
0
 10
417.400407
 20
137.228614
 42
-0.017627
  0
VERTEX
  8
0
 10
419.243030
 20
138.160855
 42
-0.016974
  0
VERTEX
  8
0
 10
420.848436
 20
138.838073
 42
-0.089316
  0
VERTEX
  8
0
 10
421.784728
 20
139.015313
 42
0.044978
  0
VERTEX
  8
0
 10
422.550574
 20
139.091242
 42
0.027123
  0
VERTEX
  8
0
 10
423.436764
 20
139.310881
 42
0.027032
  0
VERTEX
  8
0
 10
424.300751
 20
139.627469
 42
0.042138
  0
VERTEX
  8
0
 10
425.000000
 20
140.000000
 42
-0.097691
  0
VERTEX
  8
0
 10
426.926554
 20
140.767192
 42
-0.087684
  0
VERTEX
  8
0
 10
429.078519
 20
140.787181
 42
-0.052089
  0
VERTEX
  8
0
 10
431.965108
 20
139.989178
 42
-0.012975
  0
SEQEND
  0
POLYLINE
  8
0
 66
1
 70
1
  0
VERTEX
  8
0
 10
131.610015
 20
128.175472
 42
0.000000
  0
VERTEX
  8
0
 10
132.960226
 20
124.850945
 42
0.000000
  0
VERTEX
  8
0
 10
110.730113
 20
114.061135
 42
-0.000102
  0
VERTEX
  8
0
 10
55.440410
 20
87.239163
 42
-0.005135
  0
VERTEX
  8
0
 10
44.523643
 20
82.083803
 42
-0.020465
  0
VERTEX
  8
0
 10
39.217342
 20
79.902615
 42
-0.266504
  0
VERTEX
  8
0
 10
37.194338
 20
80.253677
 42
-0.040912
  0
VERTEX
  8
0
 10
36.454752
 20
80.977319
 42
-0.005128
  0
VERTEX
  8
0
 10
35.001822
 20
82.687459
 42
-0.006005
  0
VERTEX
  8
0
 10
33.318684
 20
84.760379
 42
-0.004948
  0
VERTEX
  8
0
 10
31.572007
 20
87.010541
 42
0.000000
  0
VERTEX
  8
0
 10
27.261084
 20
92.679032
 42
0.000000
  0
VERTEX
  8
0
 10
42.380542
 20
98.734484
 42
0.000513
  0
VERTEX
  8
0
 10
50.133463
 20
101.848822
 42
0.000167
  0
VERTEX
  8
0
 10
61.577409
 20
106.463928
 42
0.000166
  0
VERTEX
  8
0
 10
74.288398
 20
111.599866
 42
0.000188
  0
VERTEX
  8
0
 10
86.500000
 20
116.544084
 42
-0.000406
  0
VERTEX
  8
0
 10
114.651997
 20
127.927892
 42
-0.007052
  0
VERTEX
  8
0
 10
123.885584
 20
131.502358
 42
-0.013532
  0
VERTEX
  8
0
 10
128.817804
 20
133.181758
 42
-0.408003
  0
VERTEX
  8
0
 10
129.879902
 20
132.637358
 42
0.009942
  0
VERTEX
  8
0
 10
130.107590
 20
131.998274
 42
0.001942
  0
VERTEX
  8
0
 10
130.544832
 20
130.857519
 42
0.002062
  0
VERTEX
  8
0
 10
131.065232
 20
129.531675
 42
0.001908
  0
SEQEND
  0
POLYLINE
  8
0
 66
1
 70
1
  0
VERTEX
  8
0
 10
138.878682
 20
113.950221
 42
-0.022176
  0
VERTEX
  8
0
 10
139.716309
 20
112.705389
 42
-0.028368
  0
VERTEX
  8
0
 10
140.368059
 20
111.487092
 42
-0.028595
  0
VERTEX
  8
0
 10
140.783061
 20
110.439968
 42
-0.161869
  0
VERTEX
  8
0
 10
140.782590
 20
109.847769
 42
-0.162097
  0
VERTEX
  8
0
 10
140.352394
 20
109.273755
 42
-0.007830
  0
VERTEX
  8
0
 10
138.341680
 20
107.925756
 42
-0.012092
  0
VERTEX
  8
0
 10
135.851761
 20
106.396619
 42
-0.008362
  0
VERTEX
  8
0
 10
132.965849
 20
104.782966
 42
0.000805
  0
VERTEX
  8
0
 10
129.350698
 20
102.832686
 42
0.000346
  0
VERTEX
  8
0
 10
124.535281
 20
100.220558
 42
0.000343
  0
VERTEX
  8
0
 10
119.412021
 20
97.432293
 42
0.000453
  0
VERTEX
  8
0
 10
114.750000
 20
94.885418
 42
-0.000141
  0
VERTEX
  8
0
 10
109.821962
 20
92.189214
 42
-0.000080
  0
VERTEX
  8
0
 10
103.853125
 20
88.926991
 42
-0.000080
  0
VERTEX
  8
0
 10
97.836746
 20
85.641274
 42
-0.000131
  0
VERTEX
  8
0
 10
92.750000
 20
82.866039
 42
0.000228
  0
VERTEX
  8
0
 10
88.112891
 20
80.334951
 42
0.000229
  0
VERTEX
  8
0
 10
83.482812
 20
77.802205
 42
0.000223
  0
VERTEX
  8
0
 10
79.445759
 20
75.589109
 42
0.000915
  0
VERTEX
  8
0
 10
77.000000
 20
74.241101
 42
-0.001134
  0
VERTEX
  8
0
 10
74.712415
 20
72.981578
 42
-0.000389
  0
VERTEX
  8
0
 10
71.391964
 20
71.166522
 42
-0.000386
  0
VERTEX
  8
0
 10
67.724922
 20
69.169382
 42
-0.000446
  0
VERTEX
  8
0
 10
64.227962
 20
67.272416
 42
0.000000
  0
VERTEX
  8
0
 10
55.955925
 20
62.794707
 42
0.000000
  0
VERTEX
  8
0
 10
50.348065
 20
67.585651
 42
0.000000
  0
VERTEX
  8
0
 10
44.740206
 20
72.376595
 42
0.000000
  0
VERTEX
  8
0
 10
63.620103
 20
81.711490
 42
-0.000834
  0
VERTEX
  8
0
 10
87.038203
 20
93.241679
 42
-0.000767
  0
VERTEX
  8
0
 10
111.150061
 20
105.017667
 42
-0.000051
  0
VERTEX
  8
0
 10
135.213803
 20
116.721433
 42
-0.092879
  0
VERTEX
  8
0
 10
136.061942
 20
116.953746
 42
-0.215385
  0
VERTEX
  8
0
 10
136.381579
 20
116.839900
 42
-0.012758
  0
VERTEX
  8
0
 10
137.121160
 20
116.090540
 42
-0.017377
  0
VERTEX
  8
0
 10
137.973952
 20
115.115404
 42
-0.011795
  0
SEQEND
  0
POLYLINE
  8
0
 66
1
 70
1
  0
VERTEX
  8
0
 10
335.442805
 20
111.827537
 42
0.020034
  0
VERTEX
  8
0
 10
336.399975
 20
110.346069
 42
0.009092
  0
VERTEX
  8
0
 10
337.763705
 20
108.483012
 42
0.008986
  0
VERTEX
  8
0
 10
339.275013
 20
106.567658
 42
0.012179
  0
VERTEX
  8
0
 10
340.712139
 20
104.896867
 42
0.000000
  0
VERTEX
  8
0
 10
344.107454
 20
101.138660
 42
0.000000
  0
VERTEX
  8
0
 10
339.303727
 20
100.516353
 42
0.007618
  0
VERTEX
  8
0
 10
329.561564
 20
99.103064
 42
0.117167
  0
VERTEX
  8
0
 10
326.448658
 20
97.814125
 42
0.231358
  0
VERTEX
  8
0
 10
325.232476
 20
95.535335
 42
0.039977
  0
VERTEX
  8
0
 10
325.455788
 20
90.507563
 42
-0.008031
  0
VERTEX
  8
0
 10
325.685274
 20
88.395608
 42
-0.013544
  0
VERTEX
  8
0
 10
325.801146
 20
86.617847
 42
-0.007233
  0
VERTEX
  8
0
 10
325.835189
 20
85.171564
 42
-0.416872
  0
VERTEX
  8
0
 10
325.665174
 20
85.000000
 42
-0.098044
  0
VERTEX
  8
0
 10
325.319619
 20
85.068417
 42
-0.001397
  0
VERTEX
  8
0
 10
323.362924
 20
85.881250
 42
-0.003812
  0
VERTEX
  8
0
 10
321.097217
 20
86.850249
 42
-0.002496
  0
VERTEX
  8
0
 10
318.500000
 20
88.000000
 42
0.006862
  0
VERTEX
  8
0
 10
315.842057
 20
89.148981
 42
0.009051
  0
VERTEX
  8
0
 10
313.387001
 20
90.118750
 42
0.006898
  0
VERTEX
  8
0
 10
311.317085
 20
90.860982
 42
0.082814
  0
VERTEX
  8
0
 10
310.483508
 20
91.000000
 42
0.110072
  0
VERTEX
  8
0
 10
309.782033
 20
90.843680
 42
0.022675
  0
VERTEX
  8
0
 10
308.653610
 20
90.250656
 42
0.022830
  0
VERTEX
  8
0
 10
307.380035
 20
89.425575
 42
0.019751
  0
VERTEX
  8
0
 10
306.121807
 20
88.449040
 42
0.000000
  0
VERTEX
  8
0
 10
303.090164
 20
85.898081
 42
0.000000
  0
VERTEX
  8
0
 10
303.683552
 20
94.699040
 42
-0.001147
  0
VERTEX
  8
0
 10
303.919093
 20
98.077027
 42
-0.001895
  0
VERTEX
  8
0
 10
304.135394
 20
100.928849
 42
-0.000163
  0
VERTEX
  8
0
 10
304.339430
 20
103.479685
 42
-0.277682
  0
VERTEX
  8
0
 10
304.388470
 20
103.548107
 42
0.000532
  0
VERTEX
  8
0
 10
304.479330
 20
103.587412
 42
0.000000
  0
VERTEX
  8
0
 10
308.285988
 20
105.238952
 42
0.000003
  0
VERTEX
  8
0
 10
312.507525
 20
107.070520
 42
0.000002
  0
VERTEX
  8
0
 10
317.500000
 20
109.236623
 42
-0.003638
  0
VERTEX
  8
0
 10
322.592232
 20
111.402138
 42
-0.005240
  0
VERTEX
  8
0
 10
327.131978
 20
113.238223
 42
-0.002871
  0
VERTEX
  8
0
 10
330.985904
 20
114.724656
 42
-0.080755
  0
VERTEX
  8
0
 10
332.034392
 20
114.938516
 42
-0.151410
  0
VERTEX
  8
0
 10
332.752309
 20
114.747160
 42
-0.044725
  0
VERTEX
  8
0
 10
333.668550
 20
114.050028
 42
-0.040402
  0
VERTEX
  8
0
 10
334.612550
 20
113.037179
 42
-0.033989
  0
SEQEND
  0
POLYLINE
  8
0
 66
1
 70
1
  0
VERTEX
  8
0
 10
150.845630
 20
101.213964
 42
0.009572
  0
VERTEX
  8
0
 10
152.058832
 20
100.430956
 42
0.005854
  0
VERTEX
  8
0
 10
153.518066
 20
99.551702
 42
0.005866
  0
VERTEX
  8
0
 10
154.984280
 20
98.714442
 42
0.010372
  0
VERTEX
  8
0
 10
156.215871
 20
98.063250
 42
-0.027453
  0
VERTEX
  8
0
 10
157.223093
 20
97.485852
 42
-0.044795
  0
VERTEX
  8
0
 10
157.997505
 20
96.878667
 42
-0.057768
  0
VERTEX
  8
0
 10
158.461131
 20
96.329248
 42
-0.292725
  0
VERTEX
  8
0
 10
158.467234
 20
95.946984
 42
-0.095468
  0
VERTEX
  8
0
 10
158.014709
 20
95.455283
 42
-0.000743
  0
VERTEX
  8
0
 10
153.659088
 20
92.245939
 42
-0.002699
  0
VERTEX
  8
0
 10
148.630767
 20
88.594079
 42
-0.001727
  0
VERTEX
  8
0
 10
142.751364
 20
84.403102
 42
0.002063
  0
VERTEX
  8
0
 10
129.909266
 20
75.235934
 42
0.004179
  0
VERTEX
  8
0
 10
119.893536
 20
67.895888
 42
0.004891
  0
VERTEX
  8
0
 10
111.101090
 20
61.203857
 42
0.004435
  0
VERTEX
  8
0
 10
102.148004
 20
54.122008
 42
0.000000
  0
VERTEX
  8
0
 10
92.796008
 20
46.588803
 42
0.000000
  0
VERTEX
  8
0
 10
86.148004
 20
48.295258
 42
-0.031171
  0
VERTEX
  8
0
 10
79.819647
 20
50.347438
 42
-0.018545
  0
VERTEX
  8
0
 10
72.559905
 20
53.528595
 42
-0.010165
  0
VERTEX
  8
0
 10
65.936452
 20
56.896470
 42
-0.503401
  0
VERTEX
  8
0
 10
65.750366
 20
58.150366
 42
-0.071426
  0
VERTEX
  8
0
 10
67.091611
 20
59.154807
 42
-0.000049
  0
VERTEX
  8
0
 10
106.845961
 20
80.876840
 42
-0.000029
  0
VERTEX
  8
0
 10
146.891025
 20
102.749558
 42
-0.123612
  0
VERTEX
  8
0
 10
147.845630
 20
102.997266
 42
-0.132204
  0
VERTEX
  8
0
 10
148.073279
 20
102.937930
 42
-0.004615
  0
VERTEX
  8
0
 10
148.869452
 20
102.474549
 42
-0.008309
  0
VERTEX
  8
0
 10
149.803494
 20
101.898105
 42
-0.005683
  0
SEQEND
  0
POLYLINE
  8
0
 66
1
 70
1
  0
VERTEX
  8
0
 10
350.268876
 20
77.229395
 42
-0.005318
  0
VERTEX
  8
0
 10
353.222227
 20
75.851310
 42
-0.009144
  0
VERTEX
  8
0
 10
355.648359
 20
74.632595
 42
-0.003561
  0
VERTEX
  8
0
 10
357.639383
 20
73.568259
 42
-0.501114
  0
VERTEX
  8
0
 10
357.672524
 20
73.339191
 42
-0.284790
  0
VERTEX
  8
0
 10
357.148099
 20
73.216119
 42
-0.001673
  0
VERTEX
  8
0
 10
352.217161
 20
74.892572
 42
-0.006496
  0
VERTEX
  8
0
 10
346.744278
 20
76.853590
 42
-0.004826
  0
VERTEX
  8
0
 10
340.750000
 20
79.155858
 42
-0.043929
  0
VERTEX
  8
0
 10
338.779907
 20
80.142163
 42
-0.203687
  0
VERTEX
  8
0
 10
338.059388
 20
81.157939
 42
-0.485651
  0
VERTEX
  8
0
 10
338.525005
 20
81.723105
 42
-0.068887
  0
VERTEX
  8
0
 10
340.250000
 20
81.444573
 42
-0.021829
  0
VERTEX
  8
0
 10
341.559023
 20
80.979616
 42
-0.003325
  0
VERTEX
  8
0
 10
344.121170
 20
79.921656
 42
-0.003716
  0
VERTEX
  8
0
 10
347.129506
 20
78.629580
 42
-0.003211
  0
SEQEND
  0
POLYLINE
  8
0
 66
1
 70
1
  0
VERTEX
  8
0
 10
284.564656
 20
45.055513
 42
-0.005044
  0
VERTEX
  8
0
 10
288.532351
 20
42.888754
 42
-0.845783
  0
VERTEX
  8
0
 10
288.445153
 20
42.644750
 42
-0.042475
  0
VERTEX
  8
0
 10
286.756228
 20
43.096576
 42
-0.000817
  0
VERTEX
  8
0
 10
278.249536
 20
46.181863
 42
-0.010490
  0
VERTEX
  8
0
 10
275.123313
 20
47.396381
 42
-0.017963
  0
VERTEX
  8
0
 10
272.577279
 20
48.556195
 42
-0.012635
  0
VERTEX
  8
0
 10
270.642881
 20
49.584606
 42
-0.425879
  0
VERTEX
  8
0
 10
270.525481
 20
50.041228
 42
-0.327613
  0
VERTEX
  8
0
 10
271.621326
 20
50.484057
 42
-0.023025
  0
VERTEX
  8
0
 10
274.979842
 20
49.462802
 42
-0.024313
  0
VERTEX
  8
0
 10
279.335416
 20
47.673174
 42
-0.012823
  0
SEQEND
  0
ENDSEC
  0
EOF
