  0
SECTION
  2
HEADER
  9
$ACADVER
  1
AC1006
  9
$EXTMIN
 10
0.000000
 20
0.000000
 30
0.000000
  9
$EXTMAX
 10
394.000000
 20
407.000000
 30
0.000000
  0
ENDSEC
  0
SECTION
  2
ENTITIES
  0
POLYLINE
  8
0
 66
1
 70
1
  0
VERTEX
  8
0
 10
366.000000
 20
338.629956
 42
0.041450
  0
VERTEX
  8
0
 10
361.648132
 20
337.037878
 42
0.034486
  0
VERTEX
  8
0
 10
357.328676
 20
334.664046
 42
0.035361
  0
VERTEX
  8
0
 10
353.515223
 20
331.812012
 42
0.053682
  0
VERTEX
  8
0
 10
350.693918
 20
328.787766
 42
0.033106
  0
VERTEX
  8
0
 10
347.367895
 20
323.680536
 42
0.044050
  0
VERTEX
  8
0
 10
345.094852
 20
318.631489
 42
0.027863
  0
VERTEX
  8
0
 10
343.112997
 20
311.720093
 42
0.005808
  0
VERTEX
  8
0
 10
340.458669
 20
299.383612
 42
-0.098232
  0
VERTEX
  8
0
 10
340.018587
 20
298.331443
 42
-0.114552
  0
VERTEX
  8
0
 10
339.227903
 20
297.593810
 42
-0.075038
  0
VERTEX
  8
0
 10
337.917464
 20
297.081322
 42
-0.022420
  0
VERTEX
  8
0
 10
335.799569
 20
296.699942
 42
0.070977
  0
VERTEX
  8
0
 10
331.626280
 20
295.522233
 42
0.231038
  0
VERTEX
  8
0
 10
329.826169
 20
293.384727
 42
0.196310
  0
VERTEX
  8
0
 10
330.258311
 20
290.359308
 42
0.052160
  0
VERTEX
  8
0
 10
333.203412
 20
286.352044
 42
-0.029229
  0
VERTEX
  8
0
 10
334.306498
 20
284.986775
 42
-0.141347
  0
VERTEX
  8
0
 10
334.635922
 20
284.056400
 42
-0.117324
  0
VERTEX
  8
0
 10
334.450610
 20
283.002849
 42
-0.017392
  0
VERTEX
  8
0
 10
333.519787
 20
281.038264
 42
-0.034228
  0
VERTEX
  8
0
 10
332.805787
 20
279.862324
 42
-0.050207
  0
VERTEX
  8
0
 10
332.013622
 20
278.948925
 42
-0.063011
  0
VERTEX
  8
0
 10
331.263970
 20
278.402140
 42
-0.229095
  0
VERTEX
  8
0
 10
330.691338
 20
278.371244
 42
0.021421
  0
VERTEX
  8
0
 10
324.382626
 20
280.700444
 42
0.157652
  0
VERTEX
  8
0
 10
321.211752
 20
280.694460
 42
0.259548
  0
VERTEX
  8
0
 10
319.520056
 20
278.872307
 42
0.060172
  0
VERTEX
  8
0
 10
319.000000
 20
274.566569
 42
-0.014397
  0
VERTEX
  8
0
 10
318.917169
 20
271.690560
 42
-0.057647
  0
VERTEX
  8
0
 10
318.614932
 20
269.958457
 42
-0.097176
  0
VERTEX
  8
0
 10
318.027300
 20
268.834292
 42
-0.101343
  0
VERTEX
  8
0
 10
317.065741
 20
268.035184
 42
-0.068138
  0
VERTEX
  8
0
 10
314.772090
 20
267.184050
 42
-0.111647
  0
VERTEX
  8
0
 10
312.709083
 20
267.190459
 42
-0.099538
  0
VERTEX
  8
0
 10
310.686560
 20
268.103147
 42
-0.046155
  0
VERTEX
  8
0
 10
308.500000
 20
270.000000
 42
0.058224
  0
VERTEX
  8
0
 10
305.438640
 20
272.529205
 42
0.196924
  0
VERTEX
  8
0
 10
302.939948
 20
272.997602
 42
0.191080
  0
VERTEX
  8
0
 10
300.780105
 20
271.578912
 42
0.054591
  0
VERTEX
  8
0
 10
298.811256
 20
268.000000
 42
-0.020969
  0
VERTEX
  8
0
 10
297.829230
 20
265.891100
 42
-0.040894
  0
VERTEX
  8
0
 10
296.845160
 20
264.319644
 42
-0.053520
  0
VERTEX
  8
0
 10
295.908048
 20
263.309993
 42
-0.180860
  0
VERTEX
  8
0
 10
295.079083
 20
263.000000
 42
-0.145568
  0
VERTEX
  8
0
 10
294.165000
 20
263.271884
 42
-0.018137
  0
VERTEX
  8
0
 10
292.453402
 20
264.479603
 42
-0.020137
  0
VERTEX
  8
0
 10
290.484426
 20
266.108047
 42
-0.015423
  0
VERTEX
  8
0
 10
288.463608
 20
268.036947
 42
0.029102
  0
VERTEX
  8
0
 10
284.297126
 20
271.801671
 42
0.187999
  0
VERTEX
  8
0
 10
281.644001
 20
272.636758
 42
0.216845
  0
VERTEX
  8
0
 10
279.355022
 20
271.404652
 42
0.039512
  0
VERTEX
  8
0
 10
276.686531
 20
267.250000
 42
-0.013424
  0
VERTEX
  8
0
 10
274.949164
 20
264.207153
 42
-0.081805
  0
VERTEX
  8
0
 10
273.773776
 20
262.836599
 42
-0.125616
  0
VERTEX
  8
0
 10
272.454217
 20
262.201235
 42
-0.049744
  0
VERTEX
  8
0
 10
270.436531
 20
262.000000
 42
-0.022211
  0
VERTEX
  8
0
 10
269.119449
 20
262.058537
 42
-0.035627
  0
VERTEX
  8
0
 10
268.009481
 20
262.237724
 42
-0.040258
  0
VERTEX
  8
0
 10
267.209817
 20
262.495423
 42
-0.303477
  0
VERTEX
  8
0
 10
267.000000
 20
262.809275
 42
0.190358
  0
VERTEX
  8
0
 10
266.806789
 20
263.298381
 42
0.006886
  0
VERTEX
  8
0
 10
265.389090
 20
264.771584
 42
0.011771
  0
VERTEX
  8
0
 10
263.617466
 20
266.480149
 42
0.007888
  0
VERTEX
  8
0
 10
261.516050
 20
268.353048
 42
0.009381
  0
VERTEX
  8
0
 10
258.431264
 20
270.916840
 42
0.055341
  0
VERTEX
  8
0
 10
256.657609
 20
272.038967
 42
0.115894
  0
VERTEX
  8
0
 10
255.321752
 20
272.341568
 42
0.121442
  0
VERTEX
  8
0
 10
254.016050
 20
272.008590
 42
0.055593
  0
VERTEX
  8
0
 10
253.244964
 20
271.478263
 42
0.052359
  0
VERTEX
  8
0
 10
252.592215
 20
270.781275
 42
0.056339
  0
VERTEX
  8
0
 10
252.147127
 20
270.031038
 42
0.106119
  0
VERTEX
  8
0
 10
252.000000
 20
269.345627
 42
0.126813
  0
VERTEX
  8
0
 10
252.636785
 20
266.875271
 42
0.011996
  0
VERTEX
  8
0
 10
255.814877
 20
261.433043
 42
0.015227
  0
VERTEX
  8
0
 10
259.285690
 20
256.169872
 42
0.065603
  0
VERTEX
  8
0
 10
261.821191
 20
253.417791
 42
-0.013325
  0
VERTEX
  8
0
 10
263.160522
 20
252.238437
 42
-0.127462
  0
VERTEX
  8
0
 10
263.566986
 20
251.602370
 42
-0.311139
  0
VERTEX
  8
0
 10
263.428274
 20
251.134508
 42
-0.078379
  0
VERTEX
  8
0
 10
262.701820
 20
250.715819
 42
0.211351
  0
VERTEX
  8
0
 10
260.845024
 20
248.867981
 42
0.022613
  0
VERTEX
  8
0
 10
258.851264
 20
242.970865
 42
0.022215
  0
VERTEX
  8
0
 10
257.393725
 20
236.920198
 42
0.224850
  0
VERTEX
  8
0
 10
258.018334
 20
234.477909
 42
0.037943
  0
VERTEX
  8
0
 10
258.565129
 20
233.912398
 42
0.037601
  0
VERTEX
  8
0
 10
259.192678
 20
233.434136
 42
0.040192
  0
VERTEX
  8
0
 10
259.805165
 20
233.102944
 42
0.104215
  0
VERTEX
  8
0
 10
260.293704
 20
233.000000
 42
-0.098482
  0
VERTEX
  8
0
 10
260.812078
 20
232.896899
 42
-0.029731
  0
VERTEX
  8
0
 10
261.537818
 20
232.544440
 42
-0.028519
  0
VERTEX
  8
0
 10
262.323069
 20
232.042699
 42
-0.027499
  0
VERTEX
  8
0
 10
263.056182
 20
231.449156
 42
0.073025
  0
VERTEX
  8
0
 10
264.212723
 20
230.675168
 42
0.121186
  0
VERTEX
  8
0
 10
265.356184
 20
230.440060
 42
0.063263
  0
VERTEX
  8
0
 10
266.961338
 20
230.706957
 42
0.009102
  0
VERTEX
  8
0
 10
270.134923
 20
231.721191
 42
0.005524
  0
VERTEX
  8
0
 10
272.280688
 20
232.476797
 42
0.006539
  0
VERTEX
  8
0
 10
274.291196
 20
233.239775
 42
0.005764
  0
VERTEX
  8
0
 10
275.969760
 20
233.924488
 42
0.040785
  0
VERTEX
  8
0
 10
276.750000
 20
234.331052
 42
0.182803
  0
VERTEX
  8
0
 10
277.763223
 20
235.671399
 42
0.135730
  0
VERTEX
  8
0
 10
277.792939
 20
237.543957
 42
0.080218
  0
VERTEX
  8
0
 10
276.718011
 20
239.990090
 42
0.030477
  0
VERTEX
  8
0
 10
274.500000
 20
243.000000
 42
-0.009665
  0
VERTEX
  8
0
 10
273.159288
 20
244.669274
 42
-0.013412
  0
VERTEX
  8
0
 10
272.028125
 20
246.219002
 42
-0.009892
  0
VERTEX
  8
0
 10
271.155170
 20
247.540108
 42
-0.141975
  0
VERTEX
  8
0
 10
271.000000
 20
248.075562
 42
-0.225413
  0
VERTEX
  8
0
 10
271.180838
 20
248.456306
 42
-0.047968
  0
VERTEX
  8
0
 10
271.807813
 20
248.874379
 42
-0.041399
  0
VERTEX
  8
0
 10
272.696813
 20
249.260226
 42
-0.028996
  0
VERTEX
  8
0
 10
273.750000
 20
249.550302
 42
0.013905
  0
VERTEX
  8
0
 10
275.085530
 20
249.875139
 42
0.005723
  0
VERTEX
  8
0
 10
276.877008
 20
250.386115
 42
0.005657
  0
VERTEX
  8
0
 10
278.787830
 20
250.978477
 42
0.007233
  0
VERTEX
  8
0
 10
280.533433
 20
251.569354
 42
-0.019963
  0
VERTEX
  8
0
 10
283.276406
 20
252.420660
 42
-0.030669
  0
VERTEX
  8
0
 10
285.712906
 20
252.913790
 42
-0.032455
  0
VERTEX
  8
0
 10
287.555924
 20
253.049477
 42
-0.416735
  0
VERTEX
  8
0
 10
288.000000
 20
252.609204
 42
-0.096872
  0
VERTEX
  8
0
 10
287.946069
 20
252.333455
 42
-0.002077
  0
VERTEX
  8
0
 10
287.418951
 20
251.052688
 42
-0.004702
  0
VERTEX
  8
0
 10
286.779961
 20
249.558000
 42
-0.003145
  0
VERTEX
  8
0
 10
286.021962
 20
247.859204
 42
0.027777
  0
VERTEX
  8
0
 10
284.457850
 20
243.831794
 42
0.114935
  0
VERTEX
  8
0
 10
284.235005
 20
241.247936
 42
0.153453
  0
VERTEX
  8
0
 10
285.196117
 20
239.244818
 42
0.062942
  0
VERTEX
  8
0
 10
287.540953
 20
237.296952
 42
0.032920
  0
VERTEX
  8
0
 10
289.562710
 20
236.188124
 42
0.063364
  0
VERTEX
  8
0
 10
291.319705
 20
235.626712
 42
0.055322
  0
VERTEX
  8
0
 10
293.314309
 20
235.482476
 42
0.019888
  0
VERTEX
  8
0
 10
296.156631
 20
235.704956
 42
0.025756
  0
VERTEX
  8
0
 10
298.342438
 20
236.078786
 42
0.029232
  0
VERTEX
  8
0
 10
300.385689
 20
236.664861
 42
0.031753
  0
VERTEX
  8
0
 10
302.083312
 20
237.385142
 42
0.080334
  0
VERTEX
  8
0
 10
303.167469
 20
238.167469
 42
0.040399
  0
VERTEX
  8
0
 10
304.184269
 20
239.363339
 42
0.145770
  0
VERTEX
  8
0
 10
304.509007
 20
240.298003
 42
0.099151
  0
VERTEX
  8
0
 10
304.330158
 20
241.459614
 42
0.013459
  0
VERTEX
  8
0
 10
303.418656
 20
243.759465
 42
-0.000278
  0
VERTEX
  8
0
 10
302.771324
 20
245.274893
 42
-0.000312
  0
VERTEX
  8
0
 10
302.149608
 20
246.735119
 42
-0.000286
  0
VERTEX
  8
0
 10
301.621523
 20
247.979557
 42
-0.001663
  0
VERTEX
  8
0
 10
301.345685
 20
248.636686
 42
-0.227660
  0
VERTEX
  8
0
 10
301.377432
 20
249.228538
 42
-0.045272
  0
VERTEX
  8
0
 10
301.985185
 20
250.132790
 42
-0.039702
  0
VERTEX
  8
0
 10
302.951942
 20
251.146687
 42
-0.027730
  0
VERTEX
  8
0
 10
304.186494
 20
252.133609
 42
-0.036123
  0
VERTEX
  8
0
 10
306.045352
 20
253.264924
 42
-0.054003
  0
VERTEX
  8
0
 10
307.818976
 20
253.945940
 42
-0.049862
  0
VERTEX
  8
0
 10
309.799842
 20
254.263716
 42
-0.025791
  0
VERTEX
  8
0
 10
312.310067
 20
254.283432
 42
0.058886
  0
VERTEX
  8
0
 10
317.180808
 20
254.644136
 42
0.041220
  0
VERTEX
  8
0
 10
322.484546
 20
256.134574
 42
0.042144
  0
VERTEX
  8
0
 10
327.206352
 20
258.360870
 42
0.092426
  0
VERTEX
  8
0
 10
330.227025
 20
260.952760
 42
-0.041378
  0
VERTEX
  8
0
 10
331.403154
 20
262.190134
 42
-0.019870
  0
VERTEX
  8
0
 10
333.095912
 20
263.582464
 42
-0.019548
  0
VERTEX
  8
0
 10
334.988190
 20
264.903598
 42
-0.026401
  0
VERTEX
  8
0
 10
336.801611
 20
265.936161
 42
0.074306
  0
VERTEX
  8
0
 10
340.334578
 20
268.422107
 42
0.045110
  0
VERTEX
  8
0
 10
343.706943
 20
272.273895
 42
0.045675
  0
VERTEX
  8
0
 10
346.209393
 20
276.470604
 42
0.112065
  0
VERTEX
  8
0
 10
347.000000
 20
279.953737
 42
-0.061682
  0
VERTEX
  8
0
 10
347.159433
 20
281.241195
 42
-0.020066
  0
VERTEX
  8
0
 10
347.702068
 20
283.082812
 42
-0.019657
  0
VERTEX
  8
0
 10
348.475183
 20
285.100114
 42
-0.020922
  0
VERTEX
  8
0
 10
349.390018
 20
287.007957
 42
0.033572
  0
VERTEX
  8
0
 10
350.413906
 20
289.289417
 42
0.013223
  0
VERTEX
  8
0
 10
351.524695
 20
292.550618
 42
0.013018
  0
VERTEX
  8
0
 10
352.543439
 20
296.150185
 42
0.015871
  0
VERTEX
  8
0
 10
353.300811
 20
299.568617
 42
-0.009859
  0
VERTEX
  8
0
 10
354.006620
 20
302.946061
 42
-0.008817
  0
VERTEX
  8
0
 10
354.869626
 20
306.421921
 42
-0.008880
  0
VERTEX
  8
0
 10
355.755331
 20
309.516523
 42
-0.027070
  0
VERTEX
  8
0
 10
356.505901
 20
311.568617
 42
-0.004265
  0
VERTEX
  8
0
 10
357.669712
 20
314.222324
 42
-0.166160
  0
VERTEX
  8
0
 10
358.103302
 20
314.686687
 42
-0.426663
  0
VERTEX
  8
0
 10
358.504218
 20
314.555511
 42
-0.017138
  0
VERTEX
  8
0
 10
359.187245
 20
313.000000
 42
-0.078025
  0
VERTEX
  8
0
 10
359.571980
 20
311.309285
 42
-0.008980
  0
VERTEX
  8
0
 10
359.767618
 20
307.404022
 42
-0.010189
  0
VERTEX
  8
0
 10
359.824424
 20
302.556074
 42
-0.006782
  0
VERTEX
  8
0
 10
359.700926
 20
297.000000
 42
-0.010308
  0
VERTEX
  8
0
 10
359.225333
 20
288.577068
 42
-0.023170
  0
VERTEX
  8
0
 10
358.438018
 20
282.226750
 42
-0.021299
  0
VERTEX
  8
0
 10
357.023028
 20
275.661259
 42
-0.007491
  0
VERTEX
  8
0
 10
354.453044
 20
266.369612
 42
0.196887
  0
VERTEX
  8
0
 10
354.677660
 20
264.217139
 42
0.071467
  0
VERTEX
  8
0
 10
356.535213
 20
261.698506
 42
0.068514
  0
VERTEX
  8
0
 10
359.160242
 20
259.678723
 42
0.130485
  0
VERTEX
  8
0
 10
361.716729
 20
259.000000
 42
0.167352
  0
VERTEX
  8
0
 10
363.834203
 20
259.729147
 42
0.098054
  0
VERTEX
  8
0
 10
365.604888
 20
261.780679
 42
0.052595
  0
VERTEX
  8
0
 10
367.258426
 20
265.569832
 42
0.013456
  0
VERTEX
  8
0
 10
369.106681
 20
272.010124
 42
0.019314
  0
VERTEX
  8
0
 10
370.239664
 20
277.224892
 42
0.021771
  0
VERTEX
  8
0
 10
370.913386
 20
282.307657
 42
0.015400
  0
VERTEX
  8
0
 10
371.280856
 20
288.696862
 42
0.004482
  0
VERTEX
  8
0
 10
371.455268
 20
298.554588
 42
-0.004785
  0
VERTEX
  8
0
 10
371.693277
 20
311.560983
 42
-0.058496
  0
VERTEX
  8
0
 10
372.409720
 20
316.476732
 42
-0.112880
  0
VERTEX
  8
0
 10
374.196169
 20
319.855270
 42
-0.035538
  0
VERTEX
  8
0
 10
378.250000
 20
323.934721
 42
0.057278
  0
VERTEX
  8
0
 10
380.926112
 20
326.872247
 42
0.143414
  0
VERTEX
  8
0
 10
381.882800
 20
329.580662
 42
0.134320
  0
VERTEX
  8
0
 10
381.254425
 20
332.494759
 42
0.047643
  0
VERTEX
  8
0
 10
378.915971
 20
336.106096
 42
0.051268
  0
VERTEX
  8
0
 10
376.427555
 20
338.660577
 42
0.126437
  0
VERTEX
  8
0
 10
374.082260
 20
339.777655
 42
0.094442
  0
VERTEX
  8
0
 10
371.058074
 20
339.791716
 42
0.021050
  0
SEQEND
  0
POLYLINE
  8
0
 66
1
 70
1
  0
VERTEX
  8
0
 10
224.197403
 20
267.737856
 42
0.057959
  0
VERTEX
  8
0
 10
223.669275
 20
266.926347
 42
0.008407
  0
VERTEX
  8
0
 10
222.820319
 20
265.143140
 42
0.009427
  0
VERTEX
  8
0
 10
221.887814
 20
262.989771
 42
0.007947
  0
VERTEX
  8
0
 10
220.980397
 20
260.677153
 42
-0.029764
  0
VERTEX
  8
0
 10
219.323890
 20
256.943067
 42
-0.097143
  0
VERTEX
  8
0
 10
217.651031
 20
254.834680
 42
-0.105616
  0
VERTEX
  8
0
 10
215.388592
 20
253.610595
 42
-0.038817
  0
VERTEX
  8
0
 10
211.815415
 20
252.856855
 42
-0.097472
  0
VERTEX
  8
0
 10
210.317475
 20
252.952897
 42
-0.046672
  0
VERTEX
  8
0
 10
208.500333
 20
253.619574
 42
-0.034361
  0
VERTEX
  8
0
 10
206.282745
 20
254.870523
 42
-0.014956
  0
VERTEX
  8
0
 10
203.513322
 20
256.815253
 42
0.025125
  0
VERTEX
  8
0
 10
198.386044
 20
260.262234
 42
0.190682
  0
VERTEX
  8
0
 10
195.567307
 20
260.731017
 42
0.238654
  0
VERTEX
  8
0
 10
193.567816
 20
259.112183
 42
0.039676
  0
VERTEX
  8
0
 10
191.854720
 20
254.305461
 42
-0.007837
  0
VERTEX
  8
0
 10
190.381293
 20
249.156732
 42
-0.081685
  0
VERTEX
  8
0
 10
189.413205
 20
247.189953
 42
-0.148437
  0
VERTEX
  8
0
 10
188.061112
 20
246.149952
 42
-0.043902
  0
VERTEX
  8
0
 10
185.518260
 20
245.437448
 42
-0.056223
  0
VERTEX
  8
0
 10
183.463263
 20
245.286921
 42
-0.079808
  0
VERTEX
  8
0
 10
181.670017
 20
245.647605
 42
-0.051760
  0
VERTEX
  8
0
 10
179.570238
 20
246.691057
 42
-0.011772
  0
VERTEX
  8
0
 10
176.259896
 20
248.898716
 42
0.015735
  0
VERTEX
  8
0
 10
173.864560
 20
250.468876
 42
0.018585
  0
VERTEX
  8
0
 10
171.502224
 20
251.795248
 42
0.017716
  0
VERTEX
  8
0
 10
169.448151
 20
252.759785
 42
0.101240
  0
VERTEX
  8
0
 10
168.273944
 20
253.000000
 42
0.132871
  0
VERTEX
  8
0
 10
166.812925
 20
252.604768
 42
0.157322
  0
VERTEX
  8
0
 10
165.862552
 20
251.543488
 42
0.055437
  0
VERTEX
  8
0
 10
165.129450
 20
249.234837
 42
0.005467
  0
VERTEX
  8
0
 10
164.051596
 20
243.500000
 42
-0.031327
  0
VERTEX
  8
0
 10
163.172676
 20
239.868828
 42
-0.064066
  0
VERTEX
  8
0
 10
161.958229
 20
237.207257
 42
-0.091462
  0
VERTEX
  8
0
 10
160.470872
 20
235.573238
 42
-0.163929
  0
VERTEX
  8
0
 10
158.769420
 20
235.000000
 42
-0.125381
  0
VERTEX
  8
0
 10
158.228278
 20
235.137865
 42
-0.006468
  0
VERTEX
  8
0
 10
156.643616
 20
236.028125
 42
-0.009944
  0
VERTEX
  8
0
 10
154.776641
 20
237.159150
 42
-0.007028
  0
VERTEX
  8
0
 10
152.723898
 20
238.500000
 42
0.009828
  0
VERTEX
  8
0
 10
150.646402
 20
239.840484
 42
0.013053
  0
VERTEX
  8
0
 10
148.703248
 20
240.971875
 42
0.010370
  0
VERTEX
  8
0
 10
147.052770
 20
241.832009
 42
0.115428
  0
VERTEX
  8
0
 10
146.334777
 20
242.000000
 42
0.165838
  0
VERTEX
  8
0
 10
144.471324
 20
241.364458
 42
0.120465
  0
VERTEX
  8
0
 10
143.093955
 20
239.638899
 42
0.076988
  0
VERTEX
  8
0
 10
142.259407
 20
236.738921
 42
0.031644
  0
VERTEX
  8
0
 10
142.000000
 20
232.644179
 42
-0.010736
  0
VERTEX
  8
0
 10
141.917841
 20
228.818245
 42
-0.081804
  0
VERTEX
  8
0
 10
141.550350
 20
227.061248
 42
-0.127360
  0
VERTEX
  8
0
 10
140.691516
 20
225.865304
 42
-0.040295
  0
VERTEX
  8
0
 10
138.880850
 20
224.588688
 42
-0.033298
  0
VERTEX
  8
0
 10
136.815065
 20
223.547144
 42
-0.128149
  0
VERTEX
  8
0
 10
135.404041
 20
223.340361
 42
-0.076890
  0
VERTEX
  8
0
 10
133.712408
 20
223.795582
 42
-0.007377
  0
VERTEX
  8
0
 10
129.825817
 20
225.583252
 42
0.028757
  0
VERTEX
  8
0
 10
124.671676
 20
227.692010
 42
0.225527
  0
VERTEX
  8
0
 10
122.168143
 20
227.408481
 42
0.228058
  0
VERTEX
  8
0
 10
120.824067
 20
225.292705
 42
0.029384
  0
VERTEX
  8
0
 10
120.500000
 20
219.783045
 42
-0.031064
  0
VERTEX
  8
0
 10
120.192739
 20
214.842209
 42
-0.113167
  0
VERTEX
  8
0
 10
119.123204
 20
211.908476
 42
-0.113789
  0
VERTEX
  8
0
 10
116.885993
 20
209.742473
 42
-0.031579
  0
VERTEX
  8
0
 10
112.524109
 20
207.474478
 42
-0.008710
  0
VERTEX
  8
0
 10
109.301715
 20
206.116140
 42
-0.085310
  0
VERTEX
  8
0
 10
107.863662
 20
205.807672
 42
-0.136336
  0
VERTEX
  8
0
 10
106.680970
 20
206.084475
 42
-0.033946
  0
VERTEX
  8
0
 10
104.991052
 20
207.164737
 42
0.041634
  0
VERTEX
  8
0
 10
103.748440
 20
207.932444
 42
0.022516
  0
VERTEX
  8
0
 10
102.109616
 20
208.674488
 42
0.022279
  0
VERTEX
  8
0
 10
100.361413
 20
209.284245
 42
0.032554
  0
VERTEX
  8
0
 10
98.772824
 20
209.649440
 42
0.105974
  0
VERTEX
  8
0
 10
91.112486
 20
209.263921
 42
0.119056
  0
VERTEX
  8
0
 10
84.643149
 20
205.742802
 42
0.099859
  0
VERTEX
  8
0
 10
79.702111
 20
199.054985
 42
0.057108
  0
VERTEX
  8
0
 10
76.502222
 20
189.500000
 42
-0.086540
  0
VERTEX
  8
0
 10
75.836319
 20
187.841043
 42
-0.024979
  0
VERTEX
  8
0
 10
74.260955
 20
185.559496
 42
-0.021883
  0
VERTEX
  8
0
 10
72.025393
 20
182.894621
 42
-0.013540
  0
VERTEX
  8
0
 10
69.182869
 20
179.956435
 42
-0.041347
  0
VERTEX
  8
0
 10
61.955397
 20
173.964330
 42
-0.030178
  0
VERTEX
  8
0
 10
53.054296
 20
168.516406
 42
-0.030749
  0
VERTEX
  8
0
 10
44.079402
 20
164.428358
 42
-0.067428
  0
VERTEX
  8
0
 10
36.747027
 20
162.701571
 42
0.082038
  0
VERTEX
  8
0
 10
24.998640
 20
159.571916
 42
0.152614
  0
VERTEX
  8
0
 10
17.702553
 20
153.082566
 42
0.210068
  0
VERTEX
  8
0
 10
16.689779
 20
145.141186
 42
0.153803
  0
VERTEX
  8
0
 10
21.714082
 20
137.677420
 42
-0.055396
  0
VERTEX
  8
0
 10
22.588777
 20
136.805557
 42
-0.044128
  0
VERTEX
  8
0
 10
23.328511
 20
135.696291
 42
-0.045587
  0
VERTEX
  8
0
 10
23.833773
 20
134.530067
 42
-0.079598
  0
VERTEX
  8
0
 10
24.000000
 20
133.492520
 42
0.055011
  0
VERTEX
  8
0
 10
24.304714
 20
130.731317
 42
0.058798
  0
VERTEX
  8
0
 10
25.203610
 20
128.168042
 42
0.066880
  0
VERTEX
  8
0
 10
26.507017
 20
126.214218
 42
0.149384
  0
VERTEX
  8
0
 10
28.012040
 20
125.286600
 42
-0.039123
  0
VERTEX
  8
0
 10
28.772907
 20
125.022593
 42
-0.050658
  0
VERTEX
  8
0
 10
29.416037
 20
124.659958
 42
-0.060175
  0
VERTEX
  8
0
 10
29.859425
 20
124.259267
 42
-0.180868
  0
VERTEX
  8
0
 10
30.000000
 20
123.883369
 42
0.260967
  0
VERTEX
  8
0
 10
30.190022
 20
123.544092
 42
0.060316
  0
VERTEX
  8
0
 10
30.807812
 20
123.261347
 42
0.047347
  0
VERTEX
  8
0
 10
31.696448
 20
123.068123
 42
0.030455
  0
VERTEX
  8
0
 10
32.750000
 20
123.006323
 42
0.062007
  0
VERTEX
  8
0
 10
34.128318
 20
123.181133
 42
0.085909
  0
VERTEX
  8
0
 10
35.262822
 20
123.689690
 42
0.076298
  0
VERTEX
  8
0
 10
36.253106
 20
124.603228
 42
0.039033
  0
VERTEX
  8
0
 10
37.203490
 20
126.006323
 42
-0.062848
  0
VERTEX
  8
0
 10
38.769221
 20
128.096729
 42
-0.176854
  0
VERTEX
  8
0
 10
40.387209
 20
128.882924
 42
-0.229047
  0
VERTEX
  8
0
 10
41.841566
 20
128.355166
 42
-0.102620
  0
VERTEX
  8
0
 10
42.963068
 20
126.597139
 42
0.026810
  0
VERTEX
  8
0
 10
43.392103
 20
125.628430
 42
0.026274
  0
VERTEX
  8
0
 10
43.924935
 20
124.704412
 42
0.027231
  0
VERTEX
  8
0
 10
44.477873
 20
123.946132
 42
0.083372
  0
VERTEX
  8
0
 10
44.954629
 20
123.528041
 42
-0.092208
  0
VERTEX
  8
0
 10
45.318843
 20
123.197166
 42
-0.096075
  0
VERTEX
  8
0
 10
45.533307
 20
122.761967
 42
-0.099377
  0
VERTEX
  8
0
 10
45.565505
 20
122.290590
 42
-0.106316
  0
VERTEX
  8
0
 10
45.410815
 20
121.855696
 42
-0.265592
  0
VERTEX
  8
0
 10
44.984205
 20
121.623731
 42
-0.094386
  0
VERTEX
  8
0
 10
44.279835
 20
121.773411
 42
-0.059636
  0
VERTEX
  8
0
 10
43.370213
 20
122.290288
 42
-0.029590
  0
VERTEX
  8
0
 10
42.349561
 20
123.141331
 42
0.092657
  0
VERTEX
  8
0
 10
39.892556
 20
124.714121
 42
0.285460
  0
VERTEX
  8
0
 10
38.031091
 20
124.391685
 42
0.171359
  0
VERTEX
  8
0
 10
36.821794
 20
122.197578
 42
0.038474
  0
VERTEX
  8
0
 10
36.443561
 20
117.880949
 42
-0.019370
  0
VERTEX
  8
0
 10
36.334180
 20
115.660647
 42
-0.018950
  0
VERTEX
  8
0
 10
36.053092
 20
113.439028
 42
-0.019233
  0
VERTEX
  8
0
 10
35.657965
 20
111.511705
 42
-0.064949
  0
VERTEX
  8
0
 10
35.193561
 20
110.315741
 42
0.080758
  0
VERTEX
  8
0
 10
33.958839
 20
106.813404
 42
0.120748
  0
VERTEX
  8
0
 10
34.160788
 20
103.589529
 42
0.093426
  0
VERTEX
  8
0
 10
35.939844
 20
100.247739
 42
0.034467
  0
VERTEX
  8
0
 10
39.572026
 20
96.304999
 42
0.091595
  0
VERTEX
  8
0
 10
49.656534
 20
89.772856
 42
0.082779
  0
VERTEX
  8
0
 10
61.776144
 20
86.974449
 42
0.073237
  0
VERTEX
  8
0
 10
75.434792
 20
88.130997
 42
0.051778
  0
VERTEX
  8
0
 10
90.000000
 20
93.187604
 42
-0.009623
  0
VERTEX
  8
0
 10
94.288772
 20
95.094472
 42
-0.003544
  0
VERTEX
  8
0
 10
100.409375
 20
97.624951
 42
-0.003511
  0
VERTEX
  8
0
 10
107.134077
 20
100.294714
 42
-0.004213
  0
VERTEX
  8
0
 10
113.500000
 20
102.708876
 42
0.003495
  0
VERTEX
  8
0
 10
119.886619
 20
105.120403
 42
0.002870
  0
VERTEX
  8
0
 10
126.674023
 20
107.782473
 42
0.002899
  0
VERTEX
  8
0
 10
132.882748
 20
110.300611
 42
0.007677
  0
VERTEX
  8
0
 10
137.283910
 20
112.194988
 42
-0.014975
  0
VERTEX
  8
0
 10
142.745210
 20
114.451783
 42
-0.034477
  0
VERTEX
  8
0
 10
146.998548
 20
115.734891
 42
-0.026392
  0
VERTEX
  8
0
 10
152.022456
 20
116.603964
 42
-0.005800
  0
VERTEX
  8
0
 10
160.733695
 20
117.538944
 42
0.009433
  0
VERTEX
  8
0
 10
174.126133
 20
119.074851
 42
0.018129
  0
VERTEX
  8
0
 10
184.776435
 20
120.895432
 42
0.022010
  0
VERTEX
  8
0
 10
193.686619
 20
123.166524
 42
0.027826
  0
VERTEX
  8
0
 10
201.674591
 20
126.075327
 42
0.000000
  0
VERTEX
  8
0
 10
205.849181
 20
127.864277
 42
0.000000
  0
VERTEX
  8
0
 10
199.316271
 20
119.682138
 42
-0.005053
  0
VERTEX
  8
0
 10
193.997059
 20
113.156456
 42
-0.050126
  0
VERTEX
  8
0
 10
191.479302
 20
110.682473
 42
-0.095724
  0
VERTEX
  8
0
 10
189.126508
 20
109.440806
 42
-0.039648
  0
VERTEX
  8
0
 10
185.597553
 20
108.668425
 42
0.027982
  0
VERTEX
  8
0
 10
183.519275
 20
108.264061
 42
0.012712
  0
VERTEX
  8
0
 10
180.851261
 20
107.515490
 42
0.012542
  0
VERTEX
  8
0
 10
178.070666
 20
106.581529
 42
0.016816
  0
VERTEX
  8
0
 10
175.604005
 20
105.588415
 42
0.043150
  0
VERTEX
  8
0
 10
171.340647
 20
103.244727
 42
0.216511
  0
VERTEX
  8
0
 10
169.939828
 20
100.987760
 42
0.218145
  0
VERTEX
  8
0
 10
170.723169
 20
98.460133
 42
0.043787
  0
VERTEX
  8
0
 10
174.250000
 20
95.153457
 42
0.003945
  0
VERTEX
  8
0
 10
175.984215
 20
93.813671
 42
0.004378
  0
VERTEX
  8
0
 10
177.680546
 20
92.547674
 42
0.004063
  0
VERTEX
  8
0
 10
179.145410
 20
91.492452
 42
0.022626
  0
VERTEX
  8
0
 10
179.960370
 20
90.969067
 42
-0.122609
  0
VERTEX
  8
0
 10
180.655025
 20
90.295962
 42
-0.145278
  0
VERTEX
  8
0
 10
180.896748
 20
89.417824
 42
-0.063432
  0
VERTEX
  8
0
 10
180.688173
 20
88.005445
 42
-0.009050
  0
VERTEX
  8
0
 10
179.845330
 20
85.195500
 42
0.036387
  0
VERTEX
  8
0
 10
179.047400
 20
81.888621
 42
0.078855
  0
VERTEX
  8
0
 10
179.030081
 20
79.281286
 42
0.133417
  0
VERTEX
  8
0
 10
179.757285
 20
77.635269
 42
0.226119
  0
VERTEX
  8
0
 10
181.090183
 20
77.000000
 42
-0.108975
  0
VERTEX
  8
0
 10
181.640107
 20
76.878704
 42
-0.017151
  0
VERTEX
  8
0
 10
182.634964
 20
76.375244
 42
-0.018356
  0
VERTEX
  8
0
 10
183.783654
 20
75.687477
 42
-0.015110
  0
VERTEX
  8
0
 10
184.957674
 20
74.873172
 42
0.035657
  0
VERTEX
  8
0
 10
186.559113
 20
73.857163
 42
0.068354
  0
VERTEX
  8
0
 10
187.981874
 20
73.325567
 42
0.067592
  0
VERTEX
  8
0
 10
189.505948
 20
73.194020
 42
0.034155
  0
VERTEX
  8
0
 10
191.424203
 20
73.419803
 42
-0.020626
  0
VERTEX
  8
0
 10
193.482029
 20
73.718615
 42
-0.118662
  0
VERTEX
  8
0
 10
194.565376
 20
73.573381
 42
-0.162416
  0
VERTEX
  8
0
 10
195.289067
 20
72.974259
 42
-0.048525
  0
VERTEX
  8
0
 10
195.934136
 20
71.673236
 42
0.112259
  0
VERTEX
  8
0
 10
197.513727
 20
69.298194
 42
0.053443
  0
VERTEX
  8
0
 10
200.443950
 20
67.054272
 42
0.053813
  0
VERTEX
  8
0
 10
203.655861
 20
65.545223
 42
0.161131
  0
VERTEX
  8
0
 10
206.050555
 20
65.516046
 42
0.053913
  0
VERTEX
  8
0
 10
207.079960
 20
65.969654
 42
0.016342
  0
VERTEX
  8
0
 10
208.531824
 20
66.870733
 42
0.016162
  0
VERTEX
  8
0
 10
210.104123
 20
67.994296
 42
0.016940
  0
VERTEX
  8
0
 10
211.575373
 20
69.200322
 42
-0.022195
  0
VERTEX
  8
0
 10
213.526004
 20
70.765338
 42
-0.073077
  0
VERTEX
  8
0
 10
214.981170
 20
71.533806
 42
-0.089991
  0
VERTEX
  8
0
 10
216.423412
 20
71.767262
 42
-0.045475
  0
VERTEX
  8
0
 10
218.259668
 20
71.564625
 42
0.005759
  0
VERTEX
  8
0
 10
223.528856
 20
70.555191
 42
0.032173
  0
VERTEX
  8
0
 10
226.384043
 20
70.229906
 42
0.064551
  0
VERTEX
  8
0
 10
228.198792
 20
70.375043
 42
0.121593
  0
VERTEX
  8
0
 10
229.513773
 20
71.011431
 42
0.175010
  0
VERTEX
  8
0
 10
230.671325
 20
72.980005
 42
0.055333
  0
VERTEX
  8
0
 10
230.929036
 20
76.433048
 42
0.046884
  0
VERTEX
  8
0
 10
230.372707
 20
80.696340
 42
0.034953
  0
VERTEX
  8
0
 10
229.000504
 20
85.239273
 42
-0.030112
  0
VERTEX
  8
0
 10
227.359580
 20
90.487902
 42
-0.093635
  0
VERTEX
  8
0
 10
227.152709
 20
94.172951
 42
-0.101703
  0
VERTEX
  8
0
 10
228.306686
 20
97.505458
 42
-0.039336
  0
VERTEX
  8
0
 10
231.139505
 20
101.518331
 42
0.013498
  0
VERTEX
  8
0
 10
232.823266
 20
103.659688
 42
0.011985
  0
VERTEX
  8
0
 10
234.459408
 20
105.974066
 42
0.012122
  0
VERTEX
  8
0
 10
235.831357
 20
108.127928
 42
0.035736
  0
VERTEX
  8
0
 10
236.628380
 20
109.691256
 42
-0.048319
  0
VERTEX
  8
0
 10
237.468560
 20
111.241709
 42
-0.015711
  0
VERTEX
  8
0
 10
238.993834
 20
113.357649
 42
-0.015496
  0
VERTEX
  8
0
 10
240.846347
 20
115.616009
 42
-0.016846
  0
VERTEX
  8
0
 10
242.786128
 20
117.691256
 42
0.042973
  0
VERTEX
  8
0
 10
246.609974
 20
122.236008
 42
0.026455
  0
VERTEX
  8
0
 10
250.330158
 20
128.160908
 42
0.025032
  0
VERTEX
  8
0
 10
253.204572
 20
133.995890
 42
0.102272
  0
VERTEX
  8
0
 10
254.000000
 20
137.843998
 42
0.055531
  0
VERTEX
  8
0
 10
253.859210
 20
139.107760
 42
0.018757
  0
VERTEX
  8
0
 10
253.383382
 20
140.900727
 42
0.018393
  0
VERTEX
  8
0
 10
252.704394
 20
142.859365
 42
0.020092
  0
VERTEX
  8
0
 10
251.900874
 20
144.704766
 42
-0.034790
  0
VERTEX
  8
0
 10
250.578655
 20
148.002825
 42
-0.129438
  0
VERTEX
  8
0
 10
250.458251
 20
150.218268
 42
-0.157720
  0
VERTEX
  8
0
 10
251.442230
 20
151.952827
 42
-0.059696
  0
VERTEX
  8
0
 10
253.732640
 20
153.597224
 42
0.001377
  0
VERTEX
  8
0
 10
255.394229
 20
154.518322
 42
0.000189
  0
VERTEX
  8
0
 10
258.853753
 20
156.450288
 42
0.000217
  0
VERTEX
  8
0
 10
262.949863
 20
158.742116
 42
0.000183
  0
VERTEX
  8
0
 10
267.280136
 20
161.169515
 42
-0.004329
  0
VERTEX
  8
0
 10
273.843810
 20
164.777681
 42
-0.038354
  0
VERTEX
  8
0
 10
276.861870
 20
166.115691
 42
-0.091154
  0
VERTEX
  8
0
 10
278.925046
 20
166.446152
 42
-0.092693
  0
VERTEX
  8
0
 10
280.957841
 20
166.017463
 42
-0.110438
  0
VERTEX
  8
0
 10
285.309688
 20
162.958463
 42
-0.169648
  0
VERTEX
  8
0
 10
287.094491
 20
158.760819
 42
-0.092039
  0
VERTEX
  8
0
 10
286.340460
 20
152.379882
 42
-0.019098
  0
VERTEX
  8
0
 10
282.564599
 20
141.684422
 42
0.006366
  0
VERTEX
  8
0
 10
280.791903
 20
137.043038
 42
0.009086
  0
VERTEX
  8
0
 10
279.346386
 20
132.876356
 42
0.005634
  0
VERTEX
  8
0
 10
278.242232
 20
129.362910
 42
0.122538
  0
VERTEX
  8
0
 10
278.189305
 20
128.291605
 42
0.086240
  0
VERTEX
  8
0
 10
278.452015
 20
127.607287
 42
0.043055
  0
VERTEX
  8
0
 10
278.996233
 20
126.852445
 42
0.041043
  0
VERTEX
  8
0
 10
279.711779
 20
126.147357
 42
0.047636
  0
VERTEX
  8
0
 10
280.500000
 20
125.607183
 42
-0.026668
  0
VERTEX
  8
0
 10
281.324353
 20
125.091595
 42
-0.021892
  0
VERTEX
  8
0
 10
282.147409
 20
124.458048
 42
-0.022433
  0
VERTEX
  8
0
 10
282.853304
 20
123.807448
 42
-0.053086
  0
VERTEX
  8
0
 10
283.299690
 20
123.250000
 42
0.162721
  0
VERTEX
  8
0
 10
283.919744
 20
122.749565
 42
0.035090
  0
VERTEX
  8
0
 10
285.261111
 20
122.354713
 42
0.031990
  0
VERTEX
  8
0
 10
287.000807
 20
122.087923
 42
0.022056
  0
VERTEX
  8
0
 10
288.992986
 20
122.000000
 42
-0.020086
  0
VERTEX
  8
0
 10
291.375941
 20
121.904233
 42
-0.051055
  0
VERTEX
  8
0
 10
293.076437
 20
121.590657
 42
-0.071738
  0
VERTEX
  8
0
 10
294.302155
 20
121.032066
 42
-0.094095
  0
VERTEX
  8
0
 10
295.193296
 20
120.187666
 42
0.036536
  0
VERTEX
  8
0
 10
295.907953
 20
119.335268
 42
0.013463
  0
VERTEX
  8
0
 10
297.031849
 20
118.238665
 42
0.013261
  0
VERTEX
  8
0
 10
298.327974
 20
117.102648
 42
0.015539
  0
VERTEX
  8
0
 10
299.617254
 20
116.097750
 42
0.000000
  0
VERTEX
  8
0
 10
302.734509
 20
113.820169
 42
0.000000
  0
VERTEX
  8
0
 10
307.093787
 20
115.818620
 42
-0.014891
  0
VERTEX
  8
0
 10
309.649374
 20
116.899311
 42
-0.071923
  0
VERTEX
  8
0
 10
311.182230
 20
117.252873
 42
-0.098753
  0
VERTEX
  8
0
 10
312.510872
 20
117.101051
 42
-0.041676
  0
VERTEX
  8
0
 10
314.176872
 20
116.408536
 42
0.052327
  0
VERTEX
  8
0
 10
316.726721
 20
115.411638
 42
0.064210
  0
VERTEX
  8
0
 10
319.256769
 20
115.055381
 42
0.076005
  0
VERTEX
  8
0
 10
321.407275
 20
115.358591
 42
0.147629
  0
VERTEX
  8
0
 10
322.840343
 20
116.307626
 42
0.053518
  0
VERTEX
  8
0
 10
323.341785
 20
117.063406
 42
0.013608
  0
VERTEX
  8
0
 10
323.984908
 20
118.389209
 42
0.013715
  0
VERTEX
  8
0
 10
324.640301
 20
119.952422
 42
0.013495
  0
VERTEX
  8
0
 10
325.212788
 20
121.557626
 42
-0.032960
  0
VERTEX
  8
0
 10
326.081022
 20
123.722032
 42
-0.091663
  0
VERTEX
  8
0
 10
327.042611
 20
125.040320
 42
-0.086158
  0
VERTEX
  8
0
 10
328.448372
 20
125.973207
 42
-0.026900
  0
VERTEX
  8
0
 10
330.825434
 20
126.868506
 42
0.056412
  0
VERTEX
  8
0
 10
333.962808
 20
128.266280
 42
0.115163
  0
VERTEX
  8
0
 10
335.903751
 20
130.115285
 42
0.138191
  0
VERTEX
  8
0
 10
336.621166
 20
132.388565
 42
0.098914
  0
VERTEX
  8
0
 10
336.177895
 20
135.032102
 42
0.047859
  0
VERTEX
  8
0
 10
335.480119
 20
136.444138
 42
0.006755
  0
VERTEX
  8
0
 10
333.732381
 20
139.182161
 42
0.007651
  0
VERTEX
  8
0
 10
331.564481
 20
142.371923
 42
0.006444
  0
VERTEX
  8
0
 10
329.174358
 20
145.683853
 42
-0.006602
  0
VERTEX
  8
0
 10
326.688252
 20
149.131080
 42
-0.006135
  0
VERTEX
  8
0
 10
324.231418
 20
152.727365
 42
-0.006129
  0
VERTEX
  8
0
 10
322.125311
 20
155.978683
 42
-0.020526
  0
VERTEX
  8
0
 10
320.860466
 20
158.180097
 42
-0.066197
  0
VERTEX
  8
0
 10
319.204799
 20
162.740465
 42
-0.053821
  0
VERTEX
  8
0
 10
318.641280
 20
167.912885
 42
-0.052103
  0
VERTEX
  8
0
 10
319.194600
 20
173.258963
 42
-0.053284
  0
VERTEX
  8
0
 10
320.840718
 20
178.332905
 42
0.027083
  0
VERTEX
  8
0
 10
321.667781
 20
180.490660
 42
0.019345
  0
VERTEX
  8
0
 10
322.365711
 20
182.981555
 42
0.019611
  0
VERTEX
  8
0
 10
322.846990
 20
185.414640
 42
0.039037
  0
VERTEX
  8
0
 10
323.000000
 20
187.371463
 42
-0.037954
  0
VERTEX
  8
0
 10
323.144045
 20
189.266382
 42
-0.022382
  0
VERTEX
  8
0
 10
323.587500
 20
191.494053
 42
-0.022310
  0
VERTEX
  8
0
 10
324.233546
 20
193.692105
 42
-0.035265
  0
VERTEX
  8
0
 10
325.000000
 20
195.500000
 42
0.020534
  0
VERTEX
  8
0
 10
325.765559
 20
197.167422
 42
0.019075
  0
VERTEX
  8
0
 10
326.412500
 20
198.933091
 42
0.019462
  0
VERTEX
  8
0
 10
326.866279
 20
200.546669
 42
0.058874
  0
VERTEX
  8
0
 10
327.000000
 20
201.678387
 42
-0.142496
  0
VERTEX
  8
0
 10
327.425968
 20
203.142706
 42
-0.015907
  0
VERTEX
  8
0
 10
329.402639
 20
206.044542
 42
-0.016216
  0
VERTEX
  8
0
 10
332.268336
 20
209.720061
 42
-0.007965
  0
VERTEX
  8
0
 10
336.138081
 20
214.216945
 42
0.009508
  0
VERTEX
  8
0
 10
339.781805
 20
218.477694
 42
0.010203
  0
VERTEX
  8
0
 10
343.174047
 20
222.776423
 42
0.009811
  0
VERTEX
  8
0
 10
345.935323
 20
226.579140
 42
0.046666
  0
VERTEX
  8
0
 10
347.258109
 20
228.915557
 42
-0.027951
  0
VERTEX
  8
0
 10
348.223765
 20
230.780458
 42
-0.020586
  0
VERTEX
  8
0
 10
349.488843
 20
232.733271
 42
-0.020926
  0
VERTEX
  8
0
 10
350.842783
 20
234.485547
 42
-0.042923
  0
VERTEX
  8
0
 10
352.068938
 20
235.711461
 42
0.046863
  0
VERTEX
  8
0
 10
353.341875
 20
237.004322
 42
0.018233
  0
VERTEX
  8
0
 10
354.857103
 20
239.007828
 42
0.017861
  0
VERTEX
  8
0
 10
356.350584
 20
241.310748
 42
0.021153
  0
VERTEX
  8
0
 10
357.588089
 20
243.590521
 42
0.000000
  0
VERTEX
  8
0
 10
360.278359
 20
249.089233
 42
0.000000
  0
VERTEX
  8
0
 10
358.389179
 20
253.068852
 42
0.063508
  0
VERTEX
  8
0
 10
356.511289
 20
255.998238
 42
0.121738
  0
VERTEX
  8
0
 10
354.271631
 20
257.636728
 42
0.175414
  0
VERTEX
  8
0
 10
352.082178
 20
257.728804
 42
0.162214
  0
VERTEX
  8
0
 10
350.255674
 20
256.405748
 42
0.020363
  0
VERTEX
  8
0
 10
347.580685
 20
252.336683
 42
0.013248
  0
VERTEX
  8
0
 10
344.812897
 20
247.438591
 42
0.009043
  0
VERTEX
  8
0
 10
342.440828
 20
242.766118
 42
0.113402
  0
VERTEX
  8
0
 10
342.000000
 20
240.847461
 42
0.072091
  0
VERTEX
  8
0
 10
342.112075
 20
240.074182
 42
0.063853
  0
VERTEX
  8
0
 10
342.440625
 20
239.329277
 42
0.066857
  0
VERTEX
  8
0
 10
342.926452
 20
238.724112
 42
0.098927
  0
VERTEX
  8
0
 10
343.500000
 20
238.361626
 42
-0.056486
  0
VERTEX
  8
0
 10
344.073632
 20
238.063527
 42
-0.058275
  0
VERTEX
  8
0
 10
344.559375
 20
237.647256
 42
-0.064608
  0
VERTEX
  8
0
 10
344.889645
 20
237.181502
 42
-0.122552
  0
VERTEX
  8
0
 10
345.000000
 20
236.738024
 42
-0.313578
  0
VERTEX
  8
0
 10
344.831858
 20
236.496284
 42
-0.172480
  0
VERTEX
  8
0
 10
344.454981
 20
236.491109
 42
-0.072530
  0
VERTEX
  8
0
 10
343.857865
 20
236.796437
 42
-0.029529
  0
VERTEX
  8
0
 10
343.144618
 20
237.369123
 42
0.111585
  0
VERTEX
  8
0
 10
341.374592
 20
238.366916
 42
0.171702
  0
VERTEX
  8
0
 10
339.635840
 20
238.281605
 42
0.105209
  0
VERTEX
  8
0
 10
337.722504
 20
236.976099
 42
0.028336
  0
VERTEX
  8
0
 10
335.325481
 20
234.163131
 42
-0.008647
  0
VERTEX
  8
0
 10
333.986787
 20
232.460733
 42
-0.004277
  0
VERTEX
  8
0
 10
332.231642
 20
230.343711
 42
-0.004242
  0
VERTEX
  8
0
 10
330.373064
 20
228.178108
 42
-0.006192
  0
VERTEX
  8
0
 10
328.696224
 20
226.304823
 42
0.000000
  0
VERTEX
  8
0
 10
324.846348
 20
222.109646
 42
0.000000
  0
VERTEX
  8
0
 10
319.798935
 20
227.104221
 42
0.021357
  0
VERTEX
  8
0
 10
316.358840
 20
230.229157
 42
0.100380
  0
VERTEX
  8
0
 10
314.020271
 20
231.490471
 42
0.199890
  0
VERTEX
  8
0
 10
312.229865
 20
231.310762
 42
0.129268
  0
VERTEX
  8
0
 10
310.687025
 20
229.868467
 42
0.091302
  0
VERTEX
  8
0
 10
310.307512
 20
228.917898
 42
0.077880
  0
VERTEX
  8
0
 10
310.261798
 20
227.838183
 42
0.057744
  0
VERTEX
  8
0
 10
310.565904
 20
226.530502
 42
0.024625
  0
VERTEX
  8
0
 10
311.255111
 20
224.868467
 42
-0.033608
  0
VERTEX
  8
0
 10
313.080710
 20
220.232535
 42
-0.033459
  0
VERTEX
  8
0
 10
314.271947
 20
215.386985
 42
-0.033430
  0
VERTEX
  8
0
 10
314.806944
 20
210.421668
 42
-0.033415
  0
VERTEX
  8
0
 10
314.675562
 20
205.428587
 42
0.010388
  0
VERTEX
  8
0
 10
314.404663
 20
201.690088
 42
0.059441
  0
VERTEX
  8
0
 10
314.537961
 20
199.708987
 42
0.098245
  0
VERTEX
  8
0
 10
315.107033
 20
198.291578
 42
0.055512
  0
VERTEX
  8
0
 10
316.287961
 20
196.856522
 42
-0.009813
  0
VERTEX
  8
0
 10
317.069509
 20
196.066241
 42
-0.037162
  0
VERTEX
  8
0
 10
317.509535
 20
195.528649
 42
-0.363663
  0
VERTEX
  8
0
 10
317.496545
 20
195.377901
 42
-0.336474
  0
VERTEX
  8
0
 10
317.340242
 20
195.356177
 42
0.210439
  0
VERTEX
  8
0
 10
315.521474
 20
195.531721
 42
0.145700
  0
VERTEX
  8
0
 10
313.801228
 20
194.334602
 42
0.062649
  0
VERTEX
  8
0
 10
311.954208
 20
191.310711
 42
0.013386
  0
VERTEX
  8
0
 10
309.572672
 20
185.621243
 42
0.045013
  0
VERTEX
  8
0
 10
306.567828
 20
175.159445
 42
0.086280
  0
VERTEX
  8
0
 10
306.414647
 20
166.453344
 42
0.083342
  0
VERTEX
  8
0
 10
309.220970
 20
158.008766
 42
0.039708
  0
VERTEX
  8
0
 10
315.383561
 20
148.320099
 42
-0.001548
  0
VERTEX
  8
0
 10
320.607175
 20
141.344989
 42
-0.070102
  0
VERTEX
  8
0
 10
321.468542
 20
139.767220
 42
-0.527960
  0
VERTEX
  8
0
 10
321.042591
 20
139.160086
 42
-0.043259
  0
VERTEX
  8
0
 10
318.742860
 20
139.388461
 42
0.075017
  0
VERTEX
  8
0
 10
316.014329
 20
139.485892
 42
0.122628
  0
VERTEX
  8
0
 10
313.858293
 20
138.679034
 42
0.137386
  0
VERTEX
  8
0
 10
312.490286
 20
137.040298
 42
0.106029
  0
VERTEX
  8
0
 10
312.000000
 20
134.754257
 42
0.000000
  0
VERTEX
  8
0
 10
312.000000
 20
132.651372
 42
0.000000
  0
VERTEX
  8
0
 10
309.685549
 20
134.825686
 42
0.037983
  0
VERTEX
  8
0
 10
307.671554
 20
136.448537
 42
0.165279
  0
VERTEX
  8
0
 10
306.217324
 20
136.858431
 42
0.172419
  0
VERTEX
  8
0
 10
304.851676
 20
136.290133
 42
0.042139
  0
VERTEX
  8
0
 10
303.163404
 20
134.480605
 42
-0.017481
  0
VERTEX
  8
0
 10
301.999436
 20
133.102826
 42
-0.133908
  0
VERTEX
  8
0
 10
301.292113
 20
132.651318
 42
-0.227699
  0
VERTEX
  8
0
 10
300.646869
 20
132.746112
 42
-0.060734
  0
VERTEX
  8
0
 10
299.840824
 20
133.445901
 42
-0.012615
  0
VERTEX
  8
0
 10
297.182801
 20
136.542730
 42
-0.115213
  0
VERTEX
  8
0
 10
296.408020
 20
138.127779
 42
-0.119177
  0
VERTEX
  8
0
 10
296.428936
 20
139.870850
 42
-0.013878
  0
VERTEX
  8
0
 10
297.503045
 20
143.648990
 42
0.035306
  0
VERTEX
  8
0
 10
298.741386
 20
148.840445
 42
0.041107
  0
VERTEX
  8
0
 10
299.153819
 20
153.895393
 42
0.044833
  0
VERTEX
  8
0
 10
298.735672
 20
158.510167
 42
0.065869
  0
VERTEX
  8
0
 10
297.488857
 20
162.382239
 42
0.051623
  0
VERTEX
  8
0
 10
296.411054
 20
164.155188
 42
0.016423
  0
VERTEX
  8
0
 10
294.459862
 20
166.557150
 42
0.016198
  0
VERTEX
  8
0
 10
292.095497
 20
169.108123
 42
0.017366
  0
VERTEX
  8
0
 10
289.623473
 20
171.439952
 42
-0.020966
  0
VERTEX
  8
0
 10
287.023778
 20
173.927808
 42
-0.014280
  0
VERTEX
  8
0
 10
284.273294
 20
176.958948
 42
-0.014411
  0
VERTEX
  8
0
 10
281.783401
 20
180.041034
 42
-0.027922
  0
VERTEX
  8
0
 10
280.009017
 20
182.663429
 42
0.029147
  0
VERTEX
  8
0
 10
275.411105
 20
189.423062
 42
0.069625
  0
VERTEX
  8
0
 10
271.089901
 20
193.665320
 42
0.154711
  0
VERTEX
  8
0
 10
267.760038
 20
194.806494
 42
0.316903
  0
VERTEX
  8
0
 10
265.578471
 20
193.343897
 42
0.145656
  0
VERTEX
  8
0
 10
265.422932
 20
191.331281
 42
0.018489
  0
VERTEX
  8
0
 10
266.507475
 20
187.068277
 42
0.017584
  0
VERTEX
  8
0
 10
267.898012
 20
182.889858
 42
0.166718
  0
VERTEX
  8
0
 10
269.076460
 20
181.452745
 42
-0.256826
  0
VERTEX
  8
0
 10
269.800118
 20
180.172380
 42
-0.185745
  0
VERTEX
  8
0
 10
269.217746
 20
178.604539
 42
-0.066676
  0
VERTEX
  8
0
 10
266.840401
 20
176.541704
 42
-0.014851
  0
VERTEX
  8
0
 10
262.250000
 20
173.715742
 42
-0.006914
  0
VERTEX
  8
0
 10
254.212210
 20
169.237643
 42
-0.009491
  0
VERTEX
  8
0
 10
246.854433
 20
165.449167
 42
-0.006472
  0
VERTEX
  8
0
 10
240.619341
 20
162.486598
 42
-0.108073
  0
VERTEX
  8
0
 10
238.394394
 20
162.000000
 42
-0.106754
  0
VERTEX
  8
0
 10
237.472399
 20
162.199122
 42
-0.016700
  0
VERTEX
  8
0
 10
235.794098
 20
163.028125
 42
-0.017927
  0
VERTEX
  8
0
 10
233.853705
 20
164.159944
 42
-0.014774
  0
VERTEX
  8
0
 10
231.867115
 20
165.500000
 42
0.011652
  0
VERTEX
  8
0
 10
229.906613
 20
166.840346
 42
0.015087
  0
VERTEX
  8
0
 10
228.045250
 20
167.971875
 42
0.012797
  0
VERTEX
  8
0
 10
226.455890
 20
168.820530
 42
0.116739
  0
VERTEX
  8
0
 10
225.697685
 20
169.000000
 42
0.123414
  0
VERTEX
  8
0
 10
224.441162
 20
168.685059
 42
0.075851
  0
VERTEX
  8
0
 10
223.213151
 20
167.765814
 42
0.075495
  0
VERTEX
  8
0
 10
222.309704
 20
166.516504
 42
0.119411
  0
VERTEX
  8
0
 10
222.000000
 20
165.238201
 42
0.171482
  0
VERTEX
  8
0
 10
222.304805
 20
164.375600
 42
0.005055
  0
VERTEX
  8
0
 10
224.790625
 20
161.360219
 42
0.009572
  0
VERTEX
  8
0
 10
227.859555
 20
157.851836
 42
0.006392
  0
VERTEX
  8
0
 10
231.500000
 20
153.948875
 42
-0.006311
  0
VERTEX
  8
0
 10
236.229021
 20
148.880486
 42
-0.023873
  0
VERTEX
  8
0
 10
238.990776
 20
145.537096
 42
-0.038070
  0
VERTEX
  8
0
 10
240.538568
 20
143.104031
 42
-0.123249
  0
VERTEX
  8
0
 10
240.999865
 20
141.260674
 42
-0.092002
  0
VERTEX
  8
0
 10
240.708231
 20
139.689579
 42
-0.018761
  0
VERTEX
  8
0
 10
239.590205
 20
137.078319
 42
-0.018409
  0
VERTEX
  8
0
 10
237.989134
 20
133.994453
 42
-0.013536
  0
VERTEX
  8
0
 10
235.999865
 20
130.696478
 42
0.007507
  0
VERTEX
  8
0
 10
234.084581
 20
127.606019
 42
0.010420
  0
VERTEX
  8
0
 10
232.468710
 20
124.776994
 42
0.007218
  0
VERTEX
  8
0
 10
231.209587
 20
122.380025
 42
0.117852
  0
VERTEX
  8
0
 10
231.000000
 20
121.503182
 42
0.110058
  0
VERTEX
  8
0
 10
231.140876
 20
120.870927
 42
0.045686
  0
VERTEX
  8
0
 10
231.585631
 20
120.111462
 42
0.042288
  0
VERTEX
  8
0
 10
232.230875
 20
119.354066
 42
0.042437
  0
VERTEX
  8
0
 10
232.993639
 20
118.717009
 42
-0.053138
  0
VERTEX
  8
0
 10
234.425201
 20
117.468533
 42
-0.469062
  0
VERTEX
  8
0
 10
234.330330
 20
116.741480
 42
-0.249219
  0
VERTEX
  8
0
 10
233.249494
 20
116.659862
 42
-0.041755
  0
VERTEX
  8
0
 10
231.359758
 20
117.683847
 42
0.024894
  0
VERTEX
  8
0
 10
229.887852
 20
118.546781
 42
0.137742
  0
VERTEX
  8
0
 10
228.998239
 20
118.733351
 42
0.141016
  0
VERTEX
  8
0
 10
228.152424
 20
118.427266
 42
0.026533
  0
VERTEX
  8
0
 10
226.860798
 20
117.381799
 42
0.026212
  0
VERTEX
  8
0
 10
225.710784
 20
116.230574
 42
0.004457
  0
VERTEX
  8
0
 10
223.657044
 20
113.905664
 42
0.004855
  0
VERTEX
  8
0
 10
221.293175
 20
111.127058
 42
0.004307
  0
VERTEX
  8
0
 10
218.886422
 20
108.190675
 42
0.023971
  0
VERTEX
  8
0
 10
214.858562
 20
102.666930
 42
0.090861
  0
VERTEX
  8
0
 10
213.197406
 20
98.747666
 42
0.116497
  0
VERTEX
  8
0
 10
213.243044
 20
95.031911
 42
0.052674
  0
VERTEX
  8
0
 10
214.920689
 20
90.428561
 42
-0.023577
  0
VERTEX
  8
0
 10
216.137204
 20
87.611022
 42
-0.250891
  0
VERTEX
  8
0
 10
215.979243
 20
86.413884
 42
-0.361081
  0
VERTEX
  8
0
 10
215.015454
 20
86.162702
 42
-0.035506
  0
VERTEX
  8
0
 10
212.760778
 20
87.421089
 42
0.027195
  0
VERTEX
  8
0
 10
211.376890
 20
88.223889
 42
0.113223
  0
VERTEX
  8
0
 10
210.447447
 20
88.457061
 42
0.123418
  0
VERTEX
  8
0
 10
209.552614
 20
88.251993
 42
0.035049
  0
VERTEX
  8
0
 10
208.319626
 20
87.511321
 42
-0.054783
  0
VERTEX
  8
0
 10
207.033026
 20
86.805847
 42
-0.173144
  0
VERTEX
  8
0
 10
206.065877
 20
86.758215
 42
-0.104011
  0
VERTEX
  8
0
 10
204.990435
 20
87.347065
 42
-0.013625
  0
VERTEX
  8
0
 10
203.046441
 20
89.106054
 42
0.027267
  0
VERTEX
  8
0
 10
201.726014
 20
90.236886
 42
0.035663
  0
VERTEX
  8
0
 10
200.399104
 20
91.110773
 42
0.038559
  0
VERTEX
  8
0
 10
199.238257
 20
91.648812
 42
0.182833
  0
VERTEX
  8
0
 10
198.518314
 20
91.645402
 42
-0.164104
  0
VERTEX
  8
0
 10
197.924960
 20
91.621002
 42
-0.129504
  0
VERTEX
  8
0
 10
197.370963
 20
91.954429
 42
-0.088422
  0
VERTEX
  8
0
 10
196.897893
 20
92.653310
 42
-0.043218
  0
VERTEX
  8
0
 10
196.545720
 20
93.673860
 42
-0.103197
  0
VERTEX
  8
0
 10
196.482252
 20
95.250324
 42
-0.092172
  0
VERTEX
  8
0
 10
197.043570
 20
96.791633
 42
-0.049283
  0
VERTEX
  8
0
 10
198.458678
 20
98.726126
 42
-0.009869
  0
VERTEX
  8
0
 10
201.374420
 20
101.857286
 42
0.002348
  0
VERTEX
  8
0
 10
211.371959
 20
112.274788
 42
0.004568
  0
VERTEX
  8
0
 10
219.236938
 20
120.700398
 42
0.003121
  0
VERTEX
  8
0
 10
225.318319
 20
127.419491
 42
0.063520
  0
VERTEX
  8
0
 10
226.870079
 20
129.675525
 42
0.102625
  0
VERTEX
  8
0
 10
227.454236
 20
131.777199
 42
0.113634
  0
VERTEX
  8
0
 10
227.119343
 20
133.855990
 42
0.085444
  0
VERTEX
  8
0
 10
225.773754
 20
136.019028
 42
0.036775
  0
VERTEX
  8
0
 10
223.327253
 20
138.392778
 42
0.062002
  0
VERTEX
  8
0
 10
220.966302
 20
139.915898
 42
0.056989
  0
VERTEX
  8
0
 10
218.236531
 20
140.866937
 42
0.027151
  0
VERTEX
  8
0
 10
213.934126
 20
141.592643
 42
0.003670
  0
VERTEX
  8
0
 10
204.827253
 20
142.556755
 42
-0.006973
  0
VERTEX
  8
0
 10
195.395263
 20
143.618341
 42
-0.012107
  0
VERTEX
  8
0
 10
187.603465
 20
144.797864
 42
-0.014441
  0
VERTEX
  8
0
 10
181.367314
 20
146.083651
 42
-0.034967
  0
VERTEX
  8
0
 10
176.878939
 20
147.482494
 42
0.180367
  0
VERTEX
  8
0
 10
175.514521
 20
147.503134
 42
0.072068
  0
VERTEX
  8
0
 10
173.835451
 20
146.616879
 42
0.071396
  0
VERTEX
  8
0
 10
172.458738
 20
145.276312
 42
0.165525
  0
VERTEX
  8
0
 10
172.000000
 20
143.928571
 42
0.122901
  0
VERTEX
  8
0
 10
172.114343
 20
143.470415
 42
0.032609
  0
VERTEX
  8
0
 10
172.514062
 20
142.824771
 42
0.031040
  0
VERTEX
  8
0
 10
173.080197
 20
142.126975
 42
0.027581
  0
VERTEX
  8
0
 10
173.750000
 20
141.474905
 42
0.002640
  0
VERTEX
  8
0
 10
177.591082
 20
138.162990
 42
0.012338
  0
VERTEX
  8
0
 10
179.859435
 20
136.322653
 42
0.016702
  0
VERTEX
  8
0
 10
181.370808
 20
135.235613
 42
0.148610
  0
VERTEX
  8
0
 10
182.146023
 20
135.000000
 42
-0.104069
  0
VERTEX
  8
0
 10
182.471874
 20
134.931435
 42
-0.098993
  0
VERTEX
  8
0
 10
182.749144
 20
134.736768
 42
-0.096683
  0
VERTEX
  8
0
 10
182.934962
 20
134.445946
 42
-0.094226
  0
VERTEX
  8
0
 10
183.000000
 20
134.103890
 42
-0.349584
  0
VERTEX
  8
0
 10
182.480163
 20
133.451245
 42
-0.002354
  0
VERTEX
  8
0
 10
174.951950
 20
131.760880
 42
-0.007588
  0
VERTEX
  8
0
 10
167.953720
 20
130.335041
 42
-0.046913
  0
VERTEX
  8
0
 10
164.302539
 20
129.997965
 42
-0.455268
  0
VERTEX
  8
0
 10
163.976097
 20
130.374208
 42
-0.036721
  0
VERTEX
  8
0
 10
164.289798
 20
131.823126
 42
-0.027471
  0
VERTEX
  8
0
 10
165.044738
 20
133.946826
 42
-0.011177
  0
VERTEX
  8
0
 10
166.292636
 20
136.750000
 42
0.017841
  0
VERTEX
  8
0
 10
167.929785
 20
140.563524
 42
0.034114
  0
VERTEX
  8
0
 10
168.919422
 20
143.744397
 42
0.032931
  0
VERTEX
  8
0
 10
169.487692
 20
147.103454
 42
0.015462
  0
VERTEX
  8
0
 10
169.799615
 20
151.500000
 42
0.040263
  0
VERTEX
  8
0
 10
169.524801
 20
158.268952
 42
0.075922
  0
VERTEX
  8
0
 10
168.056244
 20
163.521782
 42
0.076189
  0
VERTEX
  8
0
 10
165.091023
 20
168.084890
 42
0.040803
  0
VERTEX
  8
0
 10
160.212539
 20
172.730011
 42
0.030391
  0
VERTEX
  8
0
 10
156.046264
 20
175.695404
 42
0.097750
  0
VERTEX
  8
0
 10
152.879261
 20
176.898085
 42
0.194977
  0
VERTEX
  8
0
 10
150.719283
 20
176.421709
 42
0.182666
  0
VERTEX
  8
0
 10
149.425706
 20
174.560013
 42
0.082958
  0
VERTEX
  8
0
 10
149.314297
 20
173.176733
 42
0.093012
  0
VERTEX
  8
0
 10
149.671093
 20
171.890839
 42
0.063085
  0
VERTEX
  8
0
 10
150.609934
 20
170.464575
 42
0.019312
  0
VERTEX
  8
0
 10
152.366190
 20
168.567143
 42
-0.058736
  0
VERTEX
  8
0
 10
155.439076
 20
164.672985
 42
-0.080617
  0
VERTEX
  8
0
 10
157.131864
 20
160.552904
 42
-0.074720
  0
VERTEX
  8
0
 10
157.506205
 20
155.871055
 42
-0.043168
  0
VERTEX
  8
0
 10
156.628378
 20
150.277242
 42
-0.059624
  0
VERTEX
  8
0
 10
153.704358
 20
142.533518
 42
-0.069025
  0
VERTEX
  8
0
 10
149.140214
 20
136.113027
 42
-0.058053
  0
VERTEX
  8
0
 10
142.325110
 20
130.384328
 42
-0.028412
  0
VERTEX
  8
0
 10
132.500000
 20
124.677399
 42
-0.016321
  0
VERTEX
  8
0
 10
127.190134
 20
122.198524
 42
-0.004957
  0
VERTEX
  8
0
 10
118.988398
 20
118.786645
 42
-0.001945
  0
VERTEX
  8
0
 10
110.382624
 20
115.345252
 42
-0.094410
  0
VERTEX
  8
0
 10
108.570453
 20
115.000000
 42
-0.419771
  0
VERTEX
  8
0
 10
108.473252
 20
115.099059
 42
-0.013241
  0
VERTEX
  8
0
 10
108.501597
 20
115.722698
 42
-0.018449
  0
VERTEX
  8
0
 10
108.588331
 20
116.516779
 42
-0.010799
  0
VERTEX
  8
0
 10
108.747650
 20
117.460250
 42
0.141535
  0
VERTEX
  8
0
 10
108.505231
 20
120.078675
 42
0.075003
  0
VERTEX
  8
0
 10
106.863078
 20
122.925278
 42
0.075347
  0
VERTEX
  8
0
 10
104.465503
 20
125.147294
 42
0.146679
  0
VERTEX
  8
0
 10
102.000000
 20
125.925451
 42
0.083759
  0
VERTEX
  8
0
 10
100.433533
 20
125.684397
 42
0.007079
  0
VERTEX
  8
0
 10
96.562500
 20
124.341269
 42
0.009239
  0
VERTEX
  8
0
 10
91.969880
 20
122.577855
 42
0.007016
  0
VERTEX
  8
0
 10
87.000000
 20
120.481784
 42
-0.000682
  0
VERTEX
  8
0
 10
82.189624
 20
118.380821
 42
-0.001109
  0
VERTEX
  8
0
 10
78.098438
 20
116.611398
 42
-0.000125
  0
VERTEX
  8
0
 10
74.442772
 20
115.041036
 42
-0.100705
  0
VERTEX
  8
0
 10
74.250000
 20
115.001004
 42
-0.355648
  0
VERTEX
  8
0
 10
74.151400
 20
115.080637
 42
-0.017250
  0
VERTEX
  8
0
 10
74.073437
 20
115.525400
 42
-0.021625
  0
VERTEX
  8
0
 10
74.018006
 20
116.102331
 42
-0.013136
  0
VERTEX
  8
0
 10
74.000000
 20
116.787592
 42
-0.179635
  0
VERTEX
  8
0
 10
74.727382
 20
118.746874
 42
-0.014570
  0
VERTEX
  8
0
 10
78.488646
 20
122.865358
 42
-0.020102
  0
VERTEX
  8
0
 10
82.586149
 20
126.770497
 42
-0.062197
  0
VERTEX
  8
0
 10
85.741664
 20
128.915129
 42
-0.073034
  0
VERTEX
  8
0
 10
87.173008
 20
129.400434
 42
-0.045552
  0
VERTEX
  8
0
 10
88.940243
 20
129.559990
 42
-0.031619
  0
VERTEX
  8
0
 10
91.289099
 20
129.408947
 42
-0.011245
  0
VERTEX
  8
0
 10
94.616882
 20
128.906262
 42
0.017226
  0
VERTEX
  8
0
 10
97.505961
 20
128.505123
 42
0.012965
  0
VERTEX
  8
0
 10
100.704076
 20
128.256489
 42
0.013148
  0
VERTEX
  8
0
 10
103.726649
 20
128.179800
 42
0.029248
  0
VERTEX
  8
0
 10
106.024041
 20
128.316441
 42
-0.012169
  0
VERTEX
  8
0
 10
108.712880
 20
128.568717
 42
-0.080680
  0
VERTEX
  8
0
 10
110.050924
 20
128.445541
 42
-0.166729
  0
VERTEX
  8
0
 10
110.817463
 20
127.939786
 42
-0.100681
  0
VERTEX
  8
0
 10
111.302055
 20
126.952943
 42
0.089457
  0
VERTEX
  8
0
 10
111.676771
 20
126.144903
 42
0.048527
  0
VERTEX
  8
0
 10
112.392559
 20
125.311516
 42
0.046252
  0
VERTEX
  8
0
 10
113.312461
 20
124.580100
 42
0.054050
  0
VERTEX
  8
0
 10
114.306092
 20
124.073724
 42
-0.025474
  0
VERTEX
  8
0
 10
115.311100
 20
123.631818
 42
-0.025604
  0
VERTEX
  8
0
 10
116.264201
 20
123.090664
 42
-0.026456
  0
VERTEX
  8
0
 10
117.042794
 20
122.534246
 42
-0.086171
  0
VERTEX
  8
0
 10
117.461878
 20
122.061683
 42
0.236901
  0
VERTEX
  8
0
 10
119.035095
 20
121.092810
 42
0.075652
  0
VERTEX
  8
0
 10
121.858737
 20
121.274470
 42
0.050266
  0
VERTEX
  8
0
 10
125.721389
 20
122.536154
 42
0.022661
  0
VERTEX
  8
0
 10
130.500000
 20
124.912490
 42
0.024482
  0
VERTEX
  8
0
 10
136.637183
 20
128.723886
 42
0.027142
  0
VERTEX
  8
0
 10
142.155391
 20
132.997459
 42
0.029134
  0
VERTEX
  8
0
 10
146.768528
 20
137.484013
 42
0.043999
  0
VERTEX
  8
0
 10
150.171856
 20
141.932041
 42
0.025626
  0
VERTEX
  8
0
 10
152.163867
 20
145.460627
 42
0.093743
  0
VERTEX
  8
0
 10
152.860097
 20
147.921131
 42
0.157159
  0
VERTEX
  8
0
 10
152.444796
 20
149.752882
 42
0.120028
  0
VERTEX
  8
0
 10
151.000000
 20
151.232073
 42
-0.040331
  0
VERTEX
  8
0
 10
150.234769
 20
151.800471
 42
-0.042858
  0
VERTEX
  8
0
 10
149.587500
 20
152.473823
 42
-0.046947
  0
VERTEX
  8
0
 10
149.140171
 20
153.147500
 42
-0.123709
  0
VERTEX
  8
0
 10
149.000000
 20
153.705363
 42
0.201039
  0
VERTEX
  8
0
 10
148.515486
 20
154.861686
 42
0.072462
  0
VERTEX
  8
0
 10
147.048181
 20
155.937257
 42
0.070177
  0
VERTEX
  8
0
 10
145.266211
 20
156.583193
 42
0.149920
  0
VERTEX
  8
0
 10
143.822442
 20
156.452909
 42
0.108674
  0
VERTEX
  8
0
 10
143.155343
 20
155.992477
 42
0.017278
  0
VERTEX
  8
0
 10
142.106866
 20
154.786441
 42
0.018449
  0
VERTEX
  8
0
 10
140.954887
 20
153.252635
 42
0.015219
  0
VERTEX
  8
0
 10
139.839229
 20
151.538013
 42
-0.020692
  0
VERTEX
  8
0
 10
138.648813
 20
149.751565
 42
-0.018559
  0
VERTEX
  8
0
 10
137.272910
 20
148.001537
 42
-0.018949
  0
VERTEX
  8
0
 10
135.919974
 20
146.523652
 42
-0.053861
  0
VERTEX
  8
0
 10
134.839229
 20
145.642531
 42
-0.102156
  0
VERTEX
  8
0
 10
131.323621
 20
144.267739
 42
-0.004617
  0
VERTEX
  8
0
 10
118.455802
 20
142.192072
 42
-0.008104
  0
VERTEX
  8
0
 10
105.790239
 20
140.478368
 42
-0.030144
  0
VERTEX
  8
0
 10
97.757757
 20
140.011869
 42
-0.021695
  0
VERTEX
  8
0
 10
95.347727
 20
140.121942
 42
-0.012109
  0
VERTEX
  8
0
 10
92.428841
 20
140.453903
 42
-0.012062
  0
VERTEX
  8
0
 10
89.487894
 20
140.933285
 42
-0.019134
  0
VERTEX
  8
0
 10
87.000000
 20
141.500000
 42
0.038223
  0
VERTEX
  8
0
 10
81.395380
 20
142.553618
 42
0.025522
  0
VERTEX
  8
0
 10
74.873711
 20
142.934788
 42
0.025266
  0
VERTEX
  8
0
 10
68.770391
 20
142.671113
 42
0.075117
  0
VERTEX
  8
0
 10
64.717881
 20
141.663709
 42
-0.010004
  0
VERTEX
  8
0
 10
63.285326
 20
141.102143
 42
-0.006839
  0
VERTEX
  8
0
 10
61.637440
 20
140.519393
 42
-0.006895
  0
VERTEX
  8
0
 10
60.033040
 20
140.001137
 42
-0.013825
  0
VERTEX
  8
0
 10
58.750000
 20
139.644657
 42
-0.023612
  0
VERTEX
  8
0
 10
57.179339
 20
139.332573
 42
-0.182663
  0
VERTEX
  8
0
 10
56.460082
 20
139.487694
 42
-0.217922
  0
VERTEX
  8
0
 10
56.094615
 20
140.060512
 42
-0.034707
  0
VERTEX
  8
0
 10
56.000000
 20
141.421931
 42
-0.061878
  0
VERTEX
  8
0
 10
56.246237
 20
143.404012
 42
-0.231207
  0
VERTEX
  8
0
 10
57.034213
 20
144.336452
 42
-0.154118
  0
VERTEX
  8
0
 10
58.519578
 20
144.498871
 42
-0.025222
  0
VERTEX
  8
0
 10
61.359651
 20
143.781693
 42
0.058027
  0
VERTEX
  8
0
 10
64.365806
 20
143.228888
 42
0.201180
  0
VERTEX
  8
0
 10
66.197204
 20
143.858491
 42
0.171709
  0
VERTEX
  8
0
 10
67.210771
 20
145.702804
 42
0.040624
  0
VERTEX
  8
0
 10
67.500000
 20
149.256772
 42
-0.018348
  0
VERTEX
  8
0
 10
67.590639
 20
151.725891
 42
-0.125449
  0
VERTEX
  8
0
 10
67.973955
 20
152.871145
 42
-0.163214
  0
VERTEX
  8
0
 10
68.812369
 20
153.541747
 42
-0.037099
  0
VERTEX
  8
0
 10
70.587290
 20
154.046197
 42
0.023637
  0
VERTEX
  8
0
 10
73.370381
 20
154.756866
 42
0.094154
  0
VERTEX
  8
0
 10
74.922019
 20
155.574611
 42
0.142320
  0
VERTEX
  8
0
 10
75.722888
 20
156.707713
 42
0.083324
  0
VERTEX
  8
0
 10
76.000000
 20
158.359017
 42
-0.161068
  0
VERTEX
  8
0
 10
76.942064
 20
161.207569
 42
-0.182662
  0
VERTEX
  8
0
 10
79.352336
 20
162.754754
 42
-0.094662
  0
VERTEX
  8
0
 10
83.620386
 20
162.842551
 42
-0.026346
  0
VERTEX
  8
0
 10
90.175994
 20
161.370582
 42
0.030476
  0
VERTEX
  8
0
 10
94.413627
 20
160.455757
 42
0.123403
  0
VERTEX
  8
0
 10
97.023777
 20
160.701520
 42
0.204916
  0
VERTEX
  8
0
 10
98.473889
 20
162.035419
 42
0.106116
  0
VERTEX
  8
0
 10
99.000000
 20
164.486444
 42
0.179831
  0
VERTEX
  8
0
 10
98.244680
 20
166.518616
 42
0.046495
  0
VERTEX
  8
0
 10
95.684075
 20
168.982537
 42
0.043189
  0
VERTEX
  8
0
 10
92.164641
 20
171.323281
 42
0.041313
  0
VERTEX
  8
0
 10
88.243850
 20
173.064838
 42
-0.045484
  0
VERTEX
  8
0
 10
86.099786
 20
174.038656
 42
-0.182171
  0
VERTEX
  8
0
 10
85.194578
 20
175.128387
 42
-0.187412
  0
VERTEX
  8
0
 10
85.247263
 20
176.523311
 42
-0.048516
  0
VERTEX
  8
0
 10
86.355807
 20
178.527494
 42
0.040419
  0
VERTEX
  8
0
 10
86.994182
 20
179.638845
 42
0.010316
  0
VERTEX
  8
0
 10
87.841418
 20
181.536201
 42
0.010444
  0
VERTEX
  8
0
 10
88.721541
 20
183.749683
 42
0.010415
  0
VERTEX
  8
0
 10
89.509308
 20
186.000000
 42
-0.016476
  0
VERTEX
  8
0
 10
91.059955
 20
190.263150
 42
-0.038438
  0
VERTEX
  8
0
 10
92.562588
 20
193.306405
 42
-0.053181
  0
VERTEX
  8
0
 10
94.087406
 20
195.346963
 42
-0.114594
  0
VERTEX
  8
0
 10
95.703120
 20
196.439571
 42
-0.058729
  0
VERTEX
  8
0
 10
97.161426
 20
196.810515
 42
-0.474918
  0
VERTEX
  8
0
 10
97.598626
 20
196.399116
 42
-0.143823
  0
VERTEX
  8
0
 10
97.197923
 20
195.323671
 42
-0.014291
  0
VERTEX
  8
0
 10
95.468941
 20
193.145458
 42
0.063514
  0
VERTEX
  8
0
 10
93.775676
 20
190.519069
 42
0.117012
  0
VERTEX
  8
0
 10
93.241632
 20
188.047782
 42
0.147584
  0
VERTEX
  8
0
 10
93.910007
 20
185.983940
 42
0.126606
  0
VERTEX
  8
0
 10
95.643348
 20
184.485990
 42
-0.015787
  0
VERTEX
  8
0
 10
96.576537
 20
183.985385
 42
-0.010635
  0
VERTEX
  8
0
 10
97.610264
 20
183.358385
 42
-0.010719
  0
VERTEX
  8
0
 10
98.585351
 20
182.708438
 42
-0.020844
  0
VERTEX
  8
0
 10
99.329426
 20
182.141564
 42
0.182744
  0
VERTEX
  8
0
 10
101.065394
 20
181.544575
 42
0.126708
  0
VERTEX
  8
0
 10
103.079136
 20
182.128757
 42
0.053586
  0
VERTEX
  8
0
 10
105.904156
 20
184.238664
 42
0.009210
  0
VERTEX
  8
0
 10
110.728136
 20
188.888136
 42
-0.028649
  0
VERTEX
  8
0
 10
114.964424
 20
192.664916
 42
-0.052480
  0
VERTEX
  8
0
 10
118.864989
 20
195.142938
 42
-0.060795
  0
VERTEX
  8
0
 10
122.771104
 20
196.523211
 42
-0.056254
  0
VERTEX
  8
0
 10
127.000000
 20
196.972461
 42
-0.088946
  0
VERTEX
  8
0
 10
130.599843
 20
196.302589
 42
-0.043785
  0
VERTEX
  8
0
 10
134.809457
 20
194.274729
 42
-0.034148
  0
VERTEX
  8
0
 10
139.677707
 20
190.910474
 42
-0.017373
  0
VERTEX
  8
0
 10
145.333643
 20
186.071477
 42
0.007838
  0
VERTEX
  8
0
 10
149.468601
 20
182.394936
 42
0.032779
  0
VERTEX
  8
0
 10
152.126980
 20
180.392540
 42
0.057352
  0
VERTEX
  8
0
 10
154.112015
 20
179.395526
 42
0.117033
  0
VERTEX
  8
0
 10
155.833643
 20
179.191649
 42
0.142403
  0
VERTEX
  8
0
 10
157.752176
 20
179.998356
 42
0.165581
  0
VERTEX
  8
0
 10
158.801799
 20
181.666329
 42
0.129455
  0
VERTEX
  8
0
 10
158.746321
 20
183.978329
 42
0.074782
  0
VERTEX
  8
0
 10
157.577127
 20
186.522633
 42
-0.078766
  0
VERTEX
  8
0
 10
156.190143
 20
189.604991
 42
-0.385206
  0
VERTEX
  8
0
 10
156.983147
 20
191.167092
 42
-0.146920
  0
VERTEX
  8
0
 10
159.895555
 20
191.382757
 42
-0.018552
  0
VERTEX
  8
0
 10
166.068734
 20
189.773973
 42
0.021220
  0
VERTEX
  8
0
 10
170.991336
 20
188.519102
 42
0.090546
  0
VERTEX
  8
0
 10
174.010909
 20
188.438854
 42
0.172809
  0
VERTEX
  8
0
 10
175.830471
 20
189.424085
 42
0.135361
  0
VERTEX
  8
0
 10
176.840505
 20
191.446394
 42
0.296758
  0
VERTEX
  8
0
 10
174.992884
 20
196.034328
 42
0.055109
  0
VERTEX
  8
0
 10
166.619435
 20
200.618407
 42
0.049579
  0
VERTEX
  8
0
 10
155.401953
 20
203.986669
 42
0.053104
  0
VERTEX
  8
0
 10
144.000000
 20
204.975609
 42
-0.002563
  0
VERTEX
  8
0
 10
138.134662
 20
204.890753
 42
-0.045791
  0
VERTEX
  8
0
 10
136.256111
 20
205.045474
 42
-0.155665
  0
VERTEX
  8
0
 10
135.279884
 20
205.556870
 42
-0.103616
  0
VERTEX
  8
0
 10
134.589736
 20
206.626748
 42
-0.148854
  0
VERTEX
  8
0
 10
134.471891
 20
208.286823
 42
-0.152043
  0
VERTEX
  8
0
 10
135.301757
 20
209.714792
 42
-0.116389
  0
VERTEX
  8
0
 10
137.024529
 20
210.680347
 42
-0.068569
  0
VERTEX
  8
0
 10
139.372445
 20
211.016450
 42
0.087480
  0
VERTEX
  8
0
 10
142.924149
 20
211.661931
 42
0.051806
  0
VERTEX
  8
0
 10
146.797625
 20
213.570497
 42
0.049236
  0
VERTEX
  8
0
 10
150.433473
 20
216.390686
 42
0.055373
  0
VERTEX
  8
0
 10
153.289788
 20
219.767760
 42
-0.015222
  0
VERTEX
  8
0
 10
155.115871
 20
222.315604
 42
-0.105718
  0
VERTEX
  8
0
 10
156.275099
 20
223.307653
 42
-0.134480
  0
VERTEX
  8
0
 10
157.613942
 20
223.620898
 42
-0.030270
  0
VERTEX
  8
0
 10
159.964277
 20
223.389722
 42
0.077421
  0
VERTEX
  8
0
 10
164.826794
 20
223.370125
 42
0.088076
  0
VERTEX
  8
0
 10
169.234640
 20
224.861239
 42
0.080898
  0
VERTEX
  8
0
 10
173.138766
 20
227.912230
 42
0.054181
  0
VERTEX
  8
0
 10
176.520066
 20
232.475067
 42
-0.079007
  0
VERTEX
  8
0
 10
177.251759
 20
233.366717
 42
-0.160987
  0
VERTEX
  8
0
 10
178.074493
 20
233.721076
 42
-0.083213
  0
VERTEX
  8
0
 10
179.315846
 20
233.623326
 42
-0.011618
  0
VERTEX
  8
0
 10
181.809645
 20
232.938886
 42
0.086448
  0
VERTEX
  8
0
 10
186.507385
 20
232.378963
 42
0.061498
  0
VERTEX
  8
0
 10
191.737938
 20
233.312818
 42
0.060053
  0
VERTEX
  8
0
 10
196.717668
 20
235.533523
 42
0.072574
  0
VERTEX
  8
0
 10
200.679954
 20
238.766188
 42
-0.015626
  0
VERTEX
  8
0
 10
202.828469
 20
240.969466
 42
-0.120916
  0
VERTEX
  8
0
 10
204.063455
 20
241.686557
 42
-0.123605
  0
VERTEX
  8
0
 10
205.478484
 20
241.742396
 42
-0.016620
  0
VERTEX
  8
0
 10
208.394153
 20
241.029635
 42
0.025007
  0
VERTEX
  8
0
 10
210.909104
 20
240.459343
 42
0.043040
  0
VERTEX
  8
0
 10
213.047233
 20
240.272942
 42
0.039800
  0
VERTEX
  8
0
 10
215.297665
 20
240.450252
 42
0.018179
  0
VERTEX
  8
0
 10
218.191871
 20
241.020504
 42
0.019657
  0
VERTEX
  8
0
 10
222.592006
 20
242.239244
 42
0.035409
  0
VERTEX
  8
0
 10
226.066210
 20
243.628099
 42
0.043735
  0
VERTEX
  8
0
 10
228.531252
 20
245.100707
 42
0.145635
  0
VERTEX
  8
0
 10
229.669098
 20
246.580065
 42
-0.113030
  0
VERTEX
  8
0
 10
230.888517
 20
248.395360
 42
-0.145046
  0
VERTEX
  8
0
 10
232.677294
 20
249.295231
 42
-0.119721
  0
VERTEX
  8
0
 10
234.942720
 20
249.158473
 42
-0.063829
  0
VERTEX
  8
0
 10
237.513799
 20
247.991472
 42
0.032425
  0
VERTEX
  8
0
 10
239.494828
 20
246.938001
 42
0.062843
  0
VERTEX
  8
0
 10
241.206228
 20
246.411605
 42
0.056831
  0
VERTEX
  8
0
 10
243.105817
 20
246.298755
 42
0.022235
  0
VERTEX
  8
0
 10
245.723585
 20
246.557878
 42
0.032957
  0
VERTEX
  8
0
 10
252.785712
 20
248.055875
 42
0.155243
  0
VERTEX
  8
0
 10
256.203106
 20
250.309219
 42
0.270038
  0
VERTEX
  8
0
 10
256.662080
 20
253.298773
 42
0.095106
  0
VERTEX
  8
0
 10
254.250000
 20
257.105390
 42
0.030471
  0
VERTEX
  8
0
 10
252.465124
 20
258.786382
 42
0.107457
  0
VERTEX
  8
0
 10
251.075555
 20
259.510548
 42
0.081569
  0
VERTEX
  8
0
 10
249.310128
 20
259.694015
 42
0.013106
  0
VERTEX
  8
0
 10
245.848070
 20
259.397509
 42
0.000000
  0
VERTEX
  8
0
 10
240.196140
 20
258.763858
 42
0.000000
  0
VERTEX
  8
0
 10
234.046154
 20
263.881929
 42
0.011417
  0
VERTEX
  8
0
 10
229.823054
 20
267.236238
 42
0.068918
  0
VERTEX
  8
0
 10
227.386742
 20
268.601536
 42
0.162150
  0
VERTEX
  8
0
 10
225.670483
 20
268.690290
 42
0.153242
  0
SEQEND
  0
POLYLINE
  8
0
 66
1
 70
1
  0
VERTEX
  8
0
 10
40.000000
 20
149.166667
 42
-0.108877
  0
VERTEX
  8
0
 10
39.811284
 20
148.310297
 42
-0.127543
  0
VERTEX
  8
0
 10
39.284736
 20
147.669079
 42
-0.144342
  0
VERTEX
  8
0
 10
38.566741
 20
147.412785
 42
-0.153624
  0
VERTEX
  8
0
 10
37.844208
 20
147.596285
 42
-0.216101
  0
VERTEX
  8
0
 10
37.429398
 20
148.213724
 42
-0.159804
  0
VERTEX
  8
0
 10
37.554810
 20
149.037836
 42
-0.132181
  0
VERTEX
  8
0
 10
38.184533
 20
149.740389
 42
-0.145303
  0
VERTEX
  8
0
 10
39.059017
 20
150.000000
 42
-0.087308
  0
VERTEX
  8
0
 10
39.418314
 20
149.936779
 42
-0.094392
  0
VERTEX
  8
0
 10
39.723586
 20
149.755208
 42
-0.100145
  0
VERTEX
  8
0
 10
39.927786
 20
149.484563
 42
-0.112153
  0
SEQEND
  0
POLYLINE
  8
0
 66
1
 70
1
  0
VERTEX
  8
0
 10
59.000000
 20
125.500000
 42
-0.041094
  0
VERTEX
  8
0
 10
58.440337
 20
124.928422
 42
-0.039927
  0
VERTEX
  8
0
 10
57.789577
 20
124.449967
 42
-0.042752
  0
VERTEX
  8
0
 10
57.148241
 20
124.125226
 42
-0.103230
  0
VERTEX
  8
0
 10
56.627555
 20
124.031803
 42
-0.282417
  0
VERTEX
  8
0
 10
56.393102
 20
124.184973
 42
-0.239048
  0
VERTEX
  8
0
 10
56.401426
 20
124.485547
 42
-0.079596
  0
VERTEX
  8
0
 10
56.769683
 20
124.964145
 42
-0.027143
  0
VERTEX
  8
0
 10
57.441130
 20
125.531803
 42
-0.009424
  0
VERTEX
  8
0
 10
59.106054
 20
126.742445
 42
-0.158883
  0
VERTEX
  8
0
 10
59.748487
 20
126.937471
 42
-0.598434
  0
VERTEX
  8
0
 10
59.886548
 20
126.666930
 42
-0.021517
  0
SEQEND
  0
POLYLINE
  8
0
 66
1
 70
1
  0
VERTEX
  8
0
 10
55.500000
 20
101.429564
 42
0.000000
  0
VERTEX
  8
0
 10
58.500000
 20
98.869063
 42
0.000000
  0
VERTEX
  8
0
 10
54.167413
 20
99.350452
 42
-0.012352
  0
VERTEX
  8
0
 10
50.945641
 20
99.789227
 42
-0.103418
  0
VERTEX
  8
0
 10
49.580900
 20
100.312546
 42
-0.248183
  0
VERTEX
  8
0
 10
49.117798
 20
101.136605
 42
-0.098281
  0
VERTEX
  8
0
 10
49.345077
 20
102.456872
 42
-0.146608
  0
VERTEX
  8
0
 10
50.215863
 20
103.584562
 42
-0.199456
  0
VERTEX
  8
0
 10
51.454104
 20
103.872347
 42
-0.106344
  0
VERTEX
  8
0
 10
53.171429
 20
103.191846
 42
-0.029348
  0
SEQEND
  0
POLYLINE
  8
0
 66
1
 70
1
  0
VERTEX
  8
0
 10
234.680160
 20
244.537303
 42
0.109087
  0
VERTEX
  8
0
 10
233.170013
 20
242.171298
 42
0.012681
  0
VERTEX
  8
0
 10
231.149060
 20
236.181561
 42
0.010598
  0
VERTEX
  8
0
 10
229.390333
 20
230.038868
 42
0.158062
  0
VERTEX
  8
0
 10
229.513456
 20
227.837520
 42
0.139908
  0
VERTEX
  8
0
 10
230.537351
 20
226.483396
 42
0.028620
  0
VERTEX
  8
0
 10
233.059515
 20
224.801420
 42
0.030139
  0
VERTEX
  8
0
 10
235.802387
 20
223.405839
 42
0.102963
  0
VERTEX
  8
0
 10
237.752299
 20
223.000000
 42
0.080241
  0
VERTEX
  8
0
 10
238.495912
 20
223.120109
 42
0.034215
  0
VERTEX
  8
0
 10
239.431447
 20
223.503223
 42
0.032739
  0
VERTEX
  8
0
 10
240.393822
 20
224.057490
 42
0.036910
  0
VERTEX
  8
0
 10
241.235472
 20
224.713099
 42
-0.074375
  0
VERTEX
  8
0
 10
242.273886
 20
225.404004
 42
-0.038332
  0
VERTEX
  8
0
 10
243.737069
 20
225.958070
 42
-0.035459
  0
VERTEX
  8
0
 10
245.436115
 20
226.328159
 42
-0.033643
  0
VERTEX
  8
0
 10
247.200716
 20
226.463099
 42
0.059523
  0
VERTEX
  8
0
 10
250.478839
 20
226.884898
 42
0.168427
  0
VERTEX
  8
0
 10
252.381199
 20
228.132886
 42
0.204593
  0
VERTEX
  8
0
 10
252.889749
 20
230.101005
 42
0.090399
  0
VERTEX
  8
0
 10
251.999427
 20
232.691333
 42
0.073100
  0
VERTEX
  8
0
 10
249.875937
 20
235.442679
 42
0.009950
  0
VERTEX
  8
0
 10
244.530162
 20
240.399356
 42
0.006075
  0
VERTEX
  8
0
 10
238.837850
 20
245.347745
 42
0.177698
  0
VERTEX
  8
0
 10
237.060509
 20
246.000000
 42
0.106528
  0
VERTEX
  8
0
 10
236.609422
 20
245.902790
 42
0.031634
  0
VERTEX
  8
0
 10
235.982750
 20
245.570333
 42
0.030167
  0
VERTEX
  8
0
 10
235.307565
 20
245.097105
 42
0.028448
  0
SEQEND
  0
POLYLINE
  8
0
 66
1
 70
1
  0
VERTEX
  8
0
 10
204.227149
 20
237.161548
 42
0.138392
  0
VERTEX
  8
0
 10
203.613364
 20
236.476028
 42
0.012310
  0
VERTEX
  8
0
 10
202.636676
 20
234.349706
 42
0.015325
  0
VERTEX
  8
0
 10
201.594681
 20
231.705032
 42
0.011352
  0
VERTEX
  8
0
 10
200.600180
 20
228.723716
 42
0.006880
  0
VERTEX
  8
0
 10
199.305927
 20
224.314417
 42
0.044258
  0
VERTEX
  8
0
 10
198.882908
 20
222.032414
 42
0.089479
  0
VERTEX
  8
0
 10
199.013519
 20
220.474663
 42
0.087442
  0
VERTEX
  8
0
 10
199.679735
 20
219.046856
 42
0.042900
  0
VERTEX
  8
0
 10
200.335019
 20
218.263738
 42
0.042504
  0
VERTEX
  8
0
 10
201.116235
 20
217.601264
 42
0.045885
  0
VERTEX
  8
0
 10
201.901174
 20
217.144857
 42
0.109172
  0
VERTEX
  8
0
 10
202.556704
 20
217.000000
 42
-0.067526
  0
VERTEX
  8
0
 10
203.108393
 20
216.925152
 42
-0.084255
  0
VERTEX
  8
0
 10
203.576032
 20
216.706250
 42
-0.099624
  0
VERTEX
  8
0
 10
203.888754
 20
216.381341
 42
-0.142884
  0
VERTEX
  8
0
 10
204.000000
 20
216.000000
 42
0.341714
  0
VERTEX
  8
0
 10
204.647684
 20
215.162961
 42
0.101807
  0
VERTEX
  8
0
 10
206.371256
 20
215.075353
 42
0.068121
  0
VERTEX
  8
0
 10
208.656920
 20
215.752848
 42
0.060656
  0
VERTEX
  8
0
 10
210.776656
 20
217.038957
 42
-0.039410
  0
VERTEX
  8
0
 10
212.139603
 20
217.947065
 42
-0.063954
  0
VERTEX
  8
0
 10
213.429645
 20
218.464154
 42
-0.067573
  0
VERTEX
  8
0
 10
214.756133
 20
218.622148
 42
-0.049994
  0
VERTEX
  8
0
 10
216.225345
 20
218.450506
 42
0.079916
  0
VERTEX
  8
0
 10
218.530825
 20
218.319621
 42
0.125340
  0
VERTEX
  8
0
 10
220.384431
 20
219.000785
 42
0.137627
  0
VERTEX
  8
0
 10
221.573768
 20
220.425145
 42
0.105940
  0
VERTEX
  8
0
 10
222.000000
 20
222.414237
 42
0.160042
  0
VERTEX
  8
0
 10
221.359043
 20
224.365410
 42
0.026733
  0
VERTEX
  8
0
 10
218.820810
 20
227.451854
 42
0.024490
  0
VERTEX
  8
0
 10
215.085604
 20
231.147933
 42
0.013378
  0
VERTEX
  8
0
 10
210.173275
 20
235.322690
 42
0.010359
  0
VERTEX
  8
0
 10
207.783610
 20
237.165620
 42
0.084273
  0
VERTEX
  8
0
 10
206.555568
 20
237.786448
 42
0.156116
  0
VERTEX
  8
0
 10
205.524519
 20
237.776335
 42
0.061571
  0
SEQEND
  0
POLYLINE
  8
0
 66
1
 70
1
  0
VERTEX
  8
0
 10
176.226793
 20
225.750000
 42
0.074253
  0
VERTEX
  8
0
 10
175.719085
 20
224.893861
 42
0.007789
  0
VERTEX
  8
0
 10
174.870958
 20
222.716636
 42
0.009511
  0
VERTEX
  8
0
 10
173.945450
 20
220.073911
 42
0.007489
  0
VERTEX
  8
0
 10
173.040851
 20
217.178973
 42
0.016804
  0
VERTEX
  8
0
 10
171.669747
 20
211.903624
 42
0.123116
  0
VERTEX
  8
0
 10
171.732694
 20
209.316162
 42
0.171120
  0
VERTEX
  8
0
 10
173.009698
 20
207.482336
 42
0.040227
  0
VERTEX
  8
0
 10
176.258863
 20
205.520749
 42
0.024855
  0
VERTEX
  8
0
 10
178.907354
 20
204.360046
 42
0.110363
  0
VERTEX
  8
0
 10
180.579124
 20
204.118480
 42
0.140574
  0
VERTEX
  8
0
 10
181.977318
 20
204.637834
 42
0.050108
  0
VERTEX
  8
0
 10
183.572500
 20
206.080111
 42
-0.051960
  0
VERTEX
  8
0
 10
184.620197
 20
207.020369
 42
-0.077311
  0
VERTEX
  8
0
 10
185.714921
 20
207.580952
 42
-0.074043
  0
VERTEX
  8
0
 10
186.963573
 20
207.796745
 42
-0.043645
  0
VERTEX
  8
0
 10
188.477487
 20
207.699842
 42
0.081452
  0
VERTEX
  8
0
 10
192.149808
 20
207.741669
 42
0.199709
  0
VERTEX
  8
0
 10
194.383168
 20
209.167409
 42
0.215177
  0
VERTEX
  8
0
 10
194.848430
 20
211.660357
 42
0.093176
  0
VERTEX
  8
0
 10
193.425272
 20
214.803227
 42
0.056365
  0
VERTEX
  8
0
 10
190.885782
 20
217.677585
 42
0.011777
  0
VERTEX
  8
0
 10
185.783833
 20
222.071825
 42
0.007013
  0
VERTEX
  8
0
 10
180.385456
 20
226.378944
 42
0.166361
  0
VERTEX
  8
0
 10
178.570529
 20
227.000000
 42
0.077666
  0
VERTEX
  8
0
 10
177.988623
 20
226.909063
 42
0.045010
  0
VERTEX
  8
0
 10
177.335230
 20
226.632812
 42
0.043704
  0
VERTEX
  8
0
 10
176.714222
 20
226.228329
 42
0.055714
  0
SEQEND
  0
POLYLINE
  8
0
 66
1
 70
1
  0
VERTEX
  8
0
 10
241.243165
 20
221.750000
 42
0.086950
  0
VERTEX
  8
0
 10
240.348728
 20
220.120954
 42
0.006322
  0
VERTEX
  8
0
 10
238.750194
 20
215.231992
 42
0.007188
  0
VERTEX
  8
0
 10
237.296998
 20
210.344265
 42
0.068762
  0
VERTEX
  8
0
 10
237.000000
 20
208.194869
 42
0.193976
  0
VERTEX
  8
0
 10
237.205837
 20
207.684259
 42
0.023947
  0
VERTEX
  8
0
 10
238.096594
 20
206.843507
 42
0.025452
  0
VERTEX
  8
0
 10
239.303278
 20
205.911339
 42
0.018455
  0
VERTEX
  8
0
 10
240.733086
 20
204.994977
 42
0.025080
  0
VERTEX
  8
0
 10
243.068096
 20
203.770741
 42
0.083302
  0
VERTEX
  8
0
 10
244.734849
 20
203.315684
 42
0.068462
  0
VERTEX
  8
0
 10
246.628649
 20
203.384660
 42
0.013357
  0
VERTEX
  8
0
 10
249.983086
 20
204.064039
 42
0.042536
  0
VERTEX
  8
0
 10
256.221786
 20
206.073213
 42
0.268918
  0
VERTEX
  8
0
 10
258.160468
 20
208.629740
 42
0.217356
  0
VERTEX
  8
0
 10
257.091564
 20
212.029125
 42
0.029406
  0
VERTEX
  8
0
 10
251.639098
 20
217.415438
 42
0.013226
  0
VERTEX
  8
0
 10
247.346100
 20
220.987915
 42
0.068247
  0
VERTEX
  8
0
 10
244.687151
 20
222.550533
 42
0.154663
  0
VERTEX
  8
0
 10
242.796852
 20
222.717572
 42
0.170745
  0
SEQEND
  0
POLYLINE
  8
0
 66
1
 70
1
  0
VERTEX
  8
0
 10
214.226793
 20
213.750000
 42
0.093446
  0
VERTEX
  8
0
 10
212.895109
 20
211.295798
 42
0.009931
  0
VERTEX
  8
0
 10
211.022449
 20
205.041926
 42
0.006403
  0
VERTEX
  8
0
 10
209.300409
 20
198.523410
 42
0.202461
  0
VERTEX
  8
0
 10
209.549373
 20
196.920113
 42
0.074721
  0
VERTEX
  8
0
 10
209.943400
 20
196.454899
 42
0.025794
  0
VERTEX
  8
0
 10
210.637240
 20
195.908227
 42
0.024960
  0
VERTEX
  8
0
 10
211.475676
 20
195.375736
 42
0.026464
  0
VERTEX
  8
0
 10
212.347139
 20
194.940705
 42
-0.014851
  0
VERTEX
  8
0
 10
213.291588
 20
194.496320
 42
-0.009772
  0
VERTEX
  8
0
 10
214.351994
 20
193.932031
 42
-0.009835
  0
VERTEX
  8
0
 10
215.363205
 20
193.341928
 42
-0.018658
  0
VERTEX
  8
0
 10
216.149009
 20
192.821206
 42
0.076667
  0
VERTEX
  8
0
 10
217.115536
 20
192.330847
 42
0.120859
  0
VERTEX
  8
0
 10
218.038438
 20
192.260647
 42
0.084322
  0
VERTEX
  8
0
 10
219.118261
 20
192.633989
 42
0.023568
  0
VERTEX
  8
0
 10
220.649009
 20
193.568818
 42
-0.046376
  0
VERTEX
  8
0
 10
222.061808
 20
194.345578
 42
-0.022654
  0
VERTEX
  8
0
 10
223.984396
 20
195.079590
 42
-0.022253
  0
VERTEX
  8
0
 10
226.068322
 20
195.667355
 42
-0.029947
  0
VERTEX
  8
0
 10
228.000000
 20
196.000000
 42
0.016774
  0
VERTEX
  8
0
 10
230.544705
 20
196.369514
 42
0.099948
  0
VERTEX
  8
0
 10
231.786047
 20
196.860980
 42
0.158758
  0
VERTEX
  8
0
 10
232.452413
 20
197.685530
 42
0.062419
  0
VERTEX
  8
0
 10
232.804024
 20
199.121516
 42
0.146778
  0
VERTEX
  8
0
 10
232.394201
 20
201.425738
 42
0.057267
  0
VERTEX
  8
0
 10
230.598610
 20
204.155072
 42
0.037994
  0
VERTEX
  8
0
 10
227.356925
 20
207.483081
 42
0.013441
  0
VERTEX
  8
0
 10
222.246666
 20
211.750000
 42
0.022286
  0
VERTEX
  8
0
 10
219.279965
 20
213.887082
 42
0.084021
  0
VERTEX
  8
0
 10
217.188257
 20
214.801292
 42
0.149730
  0
VERTEX
  8
0
 10
215.584241
 20
214.716430
 42
0.135109
  0
SEQEND
  0
POLYLINE
  8
0
 66
1
 70
1
  0
VERTEX
  8
0
 10
186.613502
 20
201.750000
 42
0.042178
  0
VERTEX
  8
0
 10
185.950383
 20
200.484534
 42
0.010723
  0
VERTEX
  8
0
 10
185.096515
 20
198.327468
 42
0.010855
  0
VERTEX
  8
0
 10
184.224650
 20
195.812989
 42
0.010795
  0
VERTEX
  8
0
 10
183.461031
 20
193.258402
 42
0.009825
  0
VERTEX
  8
0
 10
182.620327
 20
189.955292
 42
0.042341
  0
VERTEX
  8
0
 10
182.327780
 20
187.951131
 42
0.075715
  0
VERTEX
  8
0
 10
182.452746
 20
186.579046
 42
0.113168
  0
VERTEX
  8
0
 10
182.993027
 20
185.508402
 42
0.037219
  0
VERTEX
  8
0
 10
183.549499
 20
184.931216
 42
0.037252
  0
VERTEX
  8
0
 10
184.185244
 20
184.443093
 42
0.039838
  0
VERTEX
  8
0
 10
184.803584
 20
184.104737
 42
0.105655
  0
VERTEX
  8
0
 10
185.293704
 20
184.000000
 42
-0.102906
  0
VERTEX
  8
0
 10
185.819477
 20
183.890631
 42
-0.028376
  0
VERTEX
  8
0
 10
186.577530
 20
183.508501
 42
-0.027400
  0
VERTEX
  8
0
 10
187.406532
 20
182.967208
 42
-0.025589
  0
VERTEX
  8
0
 10
188.191372
 20
182.326811
 42
0.039642
  0
VERTEX
  8
0
 10
189.362228
 20
181.424986
 42
0.171946
  0
VERTEX
  8
0
 10
190.201567
 20
181.222681
 42
0.118868
  0
VERTEX
  8
0
 10
191.157649
 20
181.561605
 42
0.014836
  0
VERTEX
  8
0
 10
192.979620
 20
182.826811
 42
-0.044864
  0
VERTEX
  8
0
 10
194.554704
 20
183.785950
 42
-0.043055
  0
VERTEX
  8
0
 10
196.297109
 20
184.464260
 42
-0.040343
  0
VERTEX
  8
0
 10
198.234460
 20
184.866157
 42
-0.030986
  0
VERTEX
  8
0
 10
200.392120
 20
185.000000
 42
0.018346
  0
VERTEX
  8
0
 10
202.710732
 20
185.085102
 42
0.073680
  0
VERTEX
  8
0
 10
204.091178
 20
185.394475
 42
0.122714
  0
VERTEX
  8
0
 10
204.944611
 20
185.993206
 42
0.102226
  0
VERTEX
  8
0
 10
205.488011
 20
186.962227
 42
0.063473
  0
VERTEX
  8
0
 10
205.650983
 20
187.855011
 42
0.039889
  0
VERTEX
  8
0
 10
205.623412
 20
188.916906
 42
0.039552
  0
VERTEX
  8
0
 10
205.425538
 20
189.975701
 42
0.056956
  0
VERTEX
  8
0
 10
205.074399
 20
190.860984
 42
0.082034
  0
VERTEX
  8
0
 10
202.927123
 20
193.655896
 42
0.011513
  0
VERTEX
  8
0
 10
197.480151
 20
198.520406
 42
0.007915
  0
VERTEX
  8
0
 10
191.713530
 20
203.280938
 42
0.170187
  0
VERTEX
  8
0
 10
189.662151
 20
204.000000
 42
0.110017
  0
VERTEX
  8
0
 10
188.939807
 20
203.839113
 42
0.049413
  0
VERTEX
  8
0
 10
188.099992
 20
203.339063
 42
0.045634
  0
VERTEX
  8
0
 10
187.281245
 20
202.610761
 42
0.046437
  0
SEQEND
  0
POLYLINE
  8
0
 66
1
 70
1
  0
VERTEX
  8
0
 10
114.453204
 20
184.673922
 42
0.030304
  0
VERTEX
  8
0
 10
111.049426
 20
183.119645
 42
0.024435
  0
VERTEX
  8
0
 10
107.595679
 20
181.059660
 42
0.021796
  0
VERTEX
  8
0
 10
104.709391
 20
178.954120
 42
0.133422
  0
VERTEX
  8
0
 10
103.630608
 20
177.479764
 42
0.099481
  0
VERTEX
  8
0
 10
103.361191
 20
175.892148
 42
0.113854
  0
VERTEX
  8
0
 10
103.751713
 20
174.405866
 42
0.109382
  0
VERTEX
  8
0
 10
104.772429
 20
173.197889
 42
0.086211
  0
VERTEX
  8
0
 10
106.295741
 20
172.406135
 42
-0.034936
  0
VERTEX
  8
0
 10
107.210117
 20
172.043915
 42
-0.022590
  0
VERTEX
  8
0
 10
108.213872
 20
171.505697
 42
-0.022709
  0
VERTEX
  8
0
 10
109.151715
 20
170.887531
 42
-0.039325
  0
VERTEX
  8
0
 10
109.861194
 20
170.281663
 42
0.081893
  0
VERTEX
  8
0
 10
110.626936
 20
169.732705
 42
0.056522
  0
VERTEX
  8
0
 10
111.632630
 20
169.370569
 42
0.053069
  0
VERTEX
  8
0
 10
112.765213
 20
169.226334
 42
0.052426
  0
VERTEX
  8
0
 10
113.907579
 20
169.322665
 42
-0.056600
  0
VERTEX
  8
0
 10
115.134606
 20
169.415856
 42
-0.027610
  0
VERTEX
  8
0
 10
116.700077
 20
169.270661
 42
-0.026972
  0
VERTEX
  8
0
 10
118.330462
 20
168.937411
 42
-0.035071
  0
VERTEX
  8
0
 10
119.774249
 20
168.449858
 42
0.044889
  0
VERTEX
  8
0
 10
122.373166
 20
167.628625
 42
0.124444
  0
VERTEX
  8
0
 10
124.274948
 20
167.688114
 42
0.128903
  0
VERTEX
  8
0
 10
125.879329
 20
168.639558
 42
0.049813
  0
VERTEX
  8
0
 10
127.517557
 20
170.667140
 42
-0.046881
  0
VERTEX
  8
0
 10
128.615337
 20
172.042204
 42
-0.132696
  0
VERTEX
  8
0
 10
129.660021
 20
172.667737
 42
-0.089042
  0
VERTEX
  8
0
 10
131.126324
 20
172.811976
 42
-0.014280
  0
VERTEX
  8
0
 10
133.998000
 20
172.500275
 42
0.013438
  0
VERTEX
  8
0
 10
136.661855
 20
172.206596
 42
0.070507
  0
VERTEX
  8
0
 10
138.129124
 20
172.291577
 42
0.128970
  0
VERTEX
  8
0
 10
139.071049
 20
172.752587
 42
0.095096
  0
VERTEX
  8
0
 10
139.794820
 20
173.667103
 42
0.166601
  0
VERTEX
  8
0
 10
140.179866
 20
176.220018
 42
0.123358
  0
VERTEX
  8
0
 10
138.991596
 20
178.838941
 42
0.076754
  0
VERTEX
  8
0
 10
136.064827
 20
181.544623
 42
0.029773
  0
VERTEX
  8
0
 10
131.299660
 20
184.358605
 42
0.079345
  0
VERTEX
  8
0
 10
127.911262
 20
185.464744
 42
0.034631
  0
VERTEX
  8
0
 10
123.185950
 20
185.881409
 42
0.034574
  0
VERTEX
  8
0
 10
118.323889
 20
185.636122
 42
0.062140
  0
SEQEND
  0
ENDSEC
  0
EOF
