  0
SECTION
  2
HEADER
  9
$ACADVER
  1
AC1006
  9
$EXTMIN
 10
0.000000
 20
0.000000
 30
0.000000
  9
$EXTMAX
 10
380.000000
 20
393.000000
 30
0.000000
  0
ENDSEC
  0
SECTION
  2
ENTITIES
  0
POLYLINE
  8
0
 66
1
 70
1
  0
VERTEX
  8
0
 10
135.213788
 20
352.388156
 42
0.000000
  0
VERTEX
  8
0
 10
135.500000
 20
342.776312
 42
0.000000
  0
VERTEX
  8
0
 10
149.500000
 20
334.000457
 42
-0.005741
  0
VERTEX
  8
0
 10
154.884342
 20
330.538549
 42
-0.008781
  0
VERTEX
  8
0
 10
159.464085
 20
327.402333
 42
-0.004079
  0
VERTEX
  8
0
 10
163.259045
 20
324.657559
 42
-0.189048
  0
VERTEX
  8
0
 10
163.760716
 20
323.862301
 42
-0.247599
  0
VERTEX
  8
0
 10
163.551238
 20
323.176235
 42
-0.048636
  0
VERTEX
  8
0
 10
162.525267
 20
322.326311
 42
-0.038038
  0
VERTEX
  8
0
 10
160.922801
 20
321.411797
 42
-0.019367
  0
VERTEX
  8
0
 10
158.788974
 20
320.500000
 42
0.095102
  0
VERTEX
  8
0
 10
152.678727
 20
316.713922
 42
0.148316
  0
VERTEX
  8
0
 10
149.561484
 20
311.417352
 42
0.105299
  0
VERTEX
  8
0
 10
149.352992
 20
303.876041
 42
0.034104
  0
VERTEX
  8
0
 10
152.133723
 20
293.002473
 42
0.006229
  0
VERTEX
  8
0
 10
154.642952
 20
285.700786
 42
0.061023
  0
VERTEX
  8
0
 10
156.102711
 20
282.793732
 42
0.150380
  0
VERTEX
  8
0
 10
157.723677
 20
281.469413
 42
0.096925
  0
VERTEX
  8
0
 10
160.122445
 20
281.000000
 42
-0.034170
  0
VERTEX
  8
0
 10
161.473572
 20
280.907555
 42
-0.103401
  0
VERTEX
  8
0
 10
162.337602
 20
280.599292
 42
-0.151711
  0
VERTEX
  8
0
 10
162.817199
 20
280.053469
 42
-0.107544
  0
VERTEX
  8
0
 10
162.984687
 20
279.250000
 42
-0.109581
  0
VERTEX
  8
0
 10
162.414091
 20
276.780141
 42
-0.319474
  0
VERTEX
  8
0
 10
160.966850
 20
275.976278
 42
-0.094116
  0
VERTEX
  8
0
 10
158.070158
 20
276.869527
 42
-0.008498
  0
VERTEX
  8
0
 10
151.400064
 20
280.546322
 42
-0.009393
  0
VERTEX
  8
0
 10
141.505157
 20
286.471857
 42
-0.117917
  0
VERTEX
  8
0
 10
138.468115
 20
289.556086
 42
-0.125148
  0
VERTEX
  8
0
 10
137.237391
 20
293.621830
 42
-0.011080
  0
VERTEX
  8
0
 10
136.991308
 20
304.424314
 42
0.003995
  0
VERTEX
  8
0
 10
136.941601
 20
310.198805
 42
0.004126
  0
VERTEX
  8
0
 10
136.799649
 20
315.909834
 42
0.003988
  0
VERTEX
  8
0
 10
136.596413
 20
320.854410
 42
0.017623
  0
VERTEX
  8
0
 10
136.351058
 20
323.758099
 42
0.000000
  0
VERTEX
  8
0
 10
135.719500
 20
329.016199
 42
0.000000
  0
VERTEX
  8
0
 10
114.725368
 20
344.681324
 42
0.000000
  0
VERTEX
  8
0
 10
93.731237
 20
360.346450
 42
0.000000
  0
VERTEX
  8
0
 10
90.892519
 20
356.923225
 42
0.013660
  0
VERTEX
  8
0
 10
89.803534
 20
355.534493
 42
0.017359
  0
VERTEX
  8
0
 10
88.879773
 20
354.192815
 42
0.015465
  0
VERTEX
  8
0
 10
88.190399
 20
353.035777
 42
0.120870
  0
VERTEX
  8
0
 10
88.026901
 20
352.435293
 42
0.229734
  0
VERTEX
  8
0
 10
88.330686
 20
351.766509
 42
0.001776
  0
VERTEX
  8
0
 10
93.042579
 20
347.883602
 42
0.006022
  0
VERTEX
  8
0
 10
98.571017
 20
343.470745
 42
0.003774
  0
VERTEX
  8
0
 10
105.139325
 20
338.435293
 42
-0.001019
  0
VERTEX
  8
0
 10
111.805384
 20
333.382960
 42
-0.001497
  0
VERTEX
  8
0
 10
117.643672
 20
328.911573
 42
-0.000697
  0
VERTEX
  8
0
 10
122.600637
 20
325.080542
 42
-0.027858
  0
VERTEX
  8
0
 10
123.639325
 20
324.178571
 42
-0.168283
  0
VERTEX
  8
0
 10
124.343471
 20
322.780571
 42
-0.017046
  0
VERTEX
  8
0
 10
124.716951
 20
319.022614
 42
-0.013195
  0
VERTEX
  8
0
 10
124.943357
 20
313.157442
 42
-0.002977
  0
VERTEX
  8
0
 10
125.005629
 20
303.178571
 42
0.000000
  0
VERTEX
  8
0
 10
125.011258
 20
283.500000
 42
0.000000
  0
VERTEX
  8
0
 10
141.505629
 20
273.649681
 42
-0.005907
  0
VERTEX
  8
0
 10
154.206961
 20
265.859513
 42
-0.114245
  0
VERTEX
  8
0
 10
157.438663
 20
262.601285
 42
-0.337959
  0
VERTEX
  8
0
 10
157.155240
 20
259.718727
 42
-0.053598
  0
VERTEX
  8
0
 10
152.573983
 20
255.750000
 42
0.000000
  0
VERTEX
  8
0
 10
147.171658
 20
252.000000
 42
0.000000
  0
VERTEX
  8
0
 10
121.683592
 20
252.000000
 42
0.000000
  0
VERTEX
  8
0
 10
96.195527
 20
252.000000
 42
0.000000
  0
VERTEX
  8
0
 10
93.498915
 20
240.250000
 42
-0.000113
  0
VERTEX
  8
0
 10
92.287283
 20
234.976010
 42
-0.000071
  0
VERTEX
  8
0
 10
90.869989
 20
228.817231
 42
-0.000072
  0
VERTEX
  8
0
 10
89.474463
 20
222.760964
 42
-0.000132
  0
VERTEX
  8
0
 10
88.336113
 20
217.829937
 42
0.000000
  0
VERTEX
  8
0
 10
85.869922
 20
207.159873
 42
0.000000
  0
VERTEX
  8
0
 10
78.684961
 20
202.187534
 42
0.032604
  0
VERTEX
  8
0
 10
69.491238
 20
194.895464
 42
0.049682
  0
VERTEX
  8
0
 10
62.658714
 20
187.348782
 42
0.048331
  0
VERTEX
  8
0
 10
57.322920
 20
178.445353
 42
0.028894
  0
VERTEX
  8
0
 10
52.677793
 20
167.000000
 42
0.018565
  0
VERTEX
  8
0
 10
49.143104
 20
155.182789
 42
0.002683
  0
VERTEX
  8
0
 10
42.963852
 20
130.794921
 42
0.001239
  0
VERTEX
  8
0
 10
36.632949
 20
104.959010
 42
0.059528
  0
VERTEX
  8
0
 10
36.000000
 20
99.661421
 42
0.157351
  0
VERTEX
  8
0
 10
37.770196
 20
94.175698
 42
0.113770
  0
VERTEX
  8
0
 10
42.634194
 20
89.910105
 42
0.106736
  0
VERTEX
  8
0
 10
49.160708
 20
88.028328
 42
0.124531
  0
VERTEX
  8
0
 10
55.493515
 20
89.178999
 42
0.095919
  0
VERTEX
  8
0
 10
57.019180
 20
90.265377
 42
0.005677
  0
VERTEX
  8
0
 10
60.902502
 20
94.438774
 42
0.008389
  0
VERTEX
  8
0
 10
65.414578
 20
99.570015
 42
0.006076
  0
VERTEX
  8
0
 10
70.273405
 20
105.428999
 42
0.000092
  0
VERTEX
  8
0
 10
76.143462
 20
112.687766
 42
0.000041
  0
VERTEX
  8
0
 10
83.882986
 20
122.263455
 42
0.000040
  0
VERTEX
  8
0
 10
92.076013
 20
132.403602
 42
0.000054
  0
VERTEX
  8
0
 10
99.482836
 20
141.574253
 42
-0.000187
  0
VERTEX
  8
0
 10
118.260187
 20
164.810589
 42
-0.000166
  0
VERTEX
  8
0
 10
137.820748
 20
188.981267
 42
-0.000058
  0
VERTEX
  8
0
 10
156.274758
 20
211.763726
 42
-0.003419
  0
VERTEX
  8
0
 10
159.669619
 20
215.895770
 42
0.000000
  0
VERTEX
  8
0
 10
161.839237
 20
218.500000
 42
0.000000
  0
VERTEX
  8
0
 10
162.919619
 20
215.684900
 42
-0.022068
  0
VERTEX
  8
0
 10
163.332970
 20
214.447192
 42
-0.016609
  0
VERTEX
  8
0
 10
163.681032
 20
213.054922
 42
-0.016875
  0
VERTEX
  8
0
 10
163.920932
 20
211.721536
 42
-0.036708
  0
VERTEX
  8
0
 10
163.994534
 20
210.684900
 42
-0.155678
  0
VERTEX
  8
0
 10
163.479105
 20
209.083438
 42
-0.003538
  0
VERTEX
  8
0
 10
158.710840
 20
202.506859
 42
-0.006953
  0
VERTEX
  8
0
 10
152.553844
 20
194.379323
 42
-0.003403
  0
VERTEX
  8
0
 10
144.494534
 20
184.186322
 42
0.000000
  0
VERTEX
  8
0
 10
125.000000
 20
159.872645
 42
0.000000
  0
VERTEX
  8
0
 10
125.000000
 20
134.784569
 42
0.000000
  0
VERTEX
  8
0
 10
125.000000
 20
109.696494
 42
0.000000
  0
VERTEX
  8
0
 10
105.451261
 20
72.730319
 42
0.000828
  0
VERTEX
  8
0
 10
97.976860
 20
58.539595
 42
0.001378
  0
VERTEX
  8
0
 10
91.732718
 20
46.556671
 42
0.000078
  0
VERTEX
  8
0
 10
86.149641
 20
35.765819
 42
0.365360
  0
VERTEX
  8
0
 10
86.201261
 20
35.538484
 42
0.032671
  0
VERTEX
  8
0
 10
86.431261
 20
35.387264
 42
0.000657
  0
VERTEX
  8
0
 10
87.644000
 20
34.700950
 42
0.001555
  0
VERTEX
  8
0
 10
89.064712
 20
33.905217
 42
0.001044
  0
VERTEX
  8
0
 10
90.693207
 20
33.004190
 42
0.012530
  0
VERTEX
  8
0
 10
93.254391
 20
31.676606
 42
0.085622
  0
VERTEX
  8
0
 10
94.614941
 20
31.281938
 42
0.130030
  0
VERTEX
  8
0
 10
95.769416
 20
31.453003
 42
0.043609
  0
VERTEX
  8
0
 10
97.283623
 20
32.266267
 42
0.113770
  0
VERTEX
  8
0
 10
98.850620
 20
33.901179
 42
0.003806
  0
VERTEX
  8
0
 10
103.414506
 20
41.690266
 42
0.006256
  0
VERTEX
  8
0
 10
109.082832
 20
51.826558
 42
0.002874
  0
VERTEX
  8
0
 10
116.227163
 20
65.168489
 42
-0.000035
  0
VERTEX
  8
0
 10
122.701751
 20
77.426476
 42
-0.000049
  0
VERTEX
  8
0
 10
128.460340
 20
88.324494
 42
-0.000027
  0
VERTEX
  8
0
 10
133.329413
 20
97.535718
 42
-0.000719
  0
VERTEX
  8
0
 10
134.636748
 20
100.000000
 42
0.074265
  0
VERTEX
  8
0
 10
135.669110
 20
102.909746
 42
0.027606
  0
VERTEX
  8
0
 10
136.265705
 20
107.221745
 42
0.013589
  0
VERTEX
  8
0
 10
136.657232
 20
114.318921
 42
0.002015
  0
VERTEX
  8
0
 10
137.000000
 20
128.655083
 42
0.000000
  0
VERTEX
  8
0
 10
137.500000
 20
153.810167
 42
0.000000
  0
VERTEX
  8
0
 10
140.500000
 20
157.808443
 42
-0.009313
  0
VERTEX
  8
0
 10
146.589030
 20
165.616377
 42
-0.001596
  0
VERTEX
  8
0
 10
158.477778
 20
180.193938
 42
-0.000626
  0
VERTEX
  8
0
 10
171.222087
 20
195.679550
 42
-0.038227
  0
VERTEX
  8
0
 10
173.707116
 20
198.261540
 42
-0.068913
  0
VERTEX
  8
0
 10
174.741367
 20
198.954788
 42
-0.031327
  0
VERTEX
  8
0
 10
176.250697
 20
199.575675
 42
-0.030278
  0
VERTEX
  8
0
 10
177.950117
 20
200.040694
 42
-0.036422
  0
VERTEX
  8
0
 10
179.591492
 20
200.261540
 42
-0.017501
  0
VERTEX
  8
0
 10
182.106761
 20
200.326795
 42
-0.184685
  0
VERTEX
  8
0
 10
183.046397
 20
199.957672
 42
-0.175734
  0
VERTEX
  8
0
 10
183.524351
 20
199.046980
 42
-0.015545
  0
VERTEX
  8
0
 10
183.799045
 20
196.422982
 42
-0.019878
  0
VERTEX
  8
0
 10
183.884034
 20
193.884433
 42
-0.148525
  0
VERTEX
  8
0
 10
183.530516
 20
192.746352
 42
-0.151213
  0
VERTEX
  8
0
 10
182.606536
 20
192.007423
 42
-0.020834
  0
VERTEX
  8
0
 10
180.251432
 20
191.193477
 42
0.127002
  0
VERTEX
  8
0
 10
166.939372
 20
183.145844
 42
0.074679
  0
VERTEX
  8
0
 10
155.985677
 20
167.973730
 42
0.062818
  0
VERTEX
  8
0
 10
148.452400
 20
147.384939
 42
0.046817
  0
VERTEX
  8
0
 10
145.272227
 20
123.382335
 42
0.005562
  0
VERTEX
  8
0
 10
145.116873
 20
117.637693
 42
0.006054
  0
VERTEX
  8
0
 10
145.095612
 20
112.050986
 42
0.005711
  0
VERTEX
  8
0
 10
145.189939
 20
107.269104
 42
0.029435
  0
VERTEX
  8
0
 10
145.427884
 20
104.632335
 42
0.000000
  0
VERTEX
  8
0
 10
146.122546
 20
100.000000
 42
0.000000
  0
VERTEX
  8
0
 10
151.429604
 20
100.000000
 42
0.000000
  0
VERTEX
  8
0
 10
156.736662
 20
100.000000
 42
0.000000
  0
VERTEX
  8
0
 10
157.305336
 20
104.239780
 42
-0.116049
  0
VERTEX
  8
0
 10
159.038454
 20
108.783500
 42
-0.192053
  0
VERTEX
  8
0
 10
162.389370
 20
111.055618
 42
-0.051410
  0
VERTEX
  8
0
 10
169.563453
 20
111.874354
 42
-0.002726
  0
VERTEX
  8
0
 10
192.610784
 20
112.000000
 42
0.000000
  0
VERTEX
  8
0
 10
223.000000
 20
112.000000
 42
0.000000
  0
VERTEX
  8
0
 10
223.000000
 20
107.565376
 42
-0.034562
  0
VERTEX
  8
0
 10
222.702464
 20
103.266122
 42
-0.011865
  0
VERTEX
  8
0
 10
221.695909
 20
97.104258
 42
-0.011949
  0
VERTEX
  8
0
 10
220.391463
 20
90.970593
 42
-0.032481
  0
VERTEX
  8
0
 10
219.086191
 20
86.726699
 42
0.000000
  0
VERTEX
  8
0
 10
218.049502
 20
84.000000
 42
0.000000
  0
VERTEX
  8
0
 10
189.602303
 20
84.000000
 42
0.000000
  0
VERTEX
  8
0
 10
161.155104
 20
84.000000
 42
0.000000
  0
VERTEX
  8
0
 10
160.004597
 20
87.486072
 42
0.025213
  0
VERTEX
  8
0
 10
158.927572
 20
90.269578
 42
0.175828
  0
VERTEX
  8
0
 10
157.930950
 20
91.302111
 42
0.157890
  0
VERTEX
  8
0
 10
156.445775
 20
91.514136
 42
0.019299
  0
VERTEX
  8
0
 10
153.189649
 20
90.820169
 42
0.086538
  0
VERTEX
  8
0
 10
150.222536
 20
89.490786
 42
0.224625
  0
VERTEX
  8
0
 10
149.057801
 20
87.525560
 42
0.105583
  0
VERTEX
  8
0
 10
149.445382
 20
84.236200
 42
0.013299
  0
VERTEX
  8
0
 10
151.944149
 20
77.480509
 42
0.035424
  0
VERTEX
  8
0
 10
157.224345
 20
66.596598
 42
0.044810
  0
VERTEX
  8
0
 10
163.647386
 20
57.446978
 42
0.049724
  0
VERTEX
  8
0
 10
170.907197
 20
50.410178
 42
0.069489
  0
VERTEX
  8
0
 10
178.688214
 20
45.833585
 42
0.000000
  0
VERTEX
  8
0
 10
183.906906
 20
43.670558
 42
0.000000
  0
VERTEX
  8
0
 10
184.203453
 20
38.585279
 42
0.000000
  0
VERTEX
  8
0
 10
184.500000
 20
33.500000
 42
0.000000
  0
VERTEX
  8
0
 10
189.959005
 20
33.500000
 42
0.009983
  0
VERTEX
  8
0
 10
193.452905
 20
33.569765
 42
0.112292
  0
VERTEX
  8
0
 10
194.783885
 20
33.928937
 42
0.185327
  0
VERTEX
  8
0
 10
195.524387
 20
34.778226
 42
0.037228
  0
VERTEX
  8
0
 10
196.081445
 20
36.743837
 42
-0.052447
  0
VERTEX
  8
0
 10
197.007698
 20
39.670258
 42
-0.089312
  0
VERTEX
  8
0
 10
198.429925
 20
41.796755
 42
-0.065917
  0
VERTEX
  8
0
 10
200.815706
 20
43.692792
 42
-0.018100
  0
VERTEX
  8
0
 10
205.028305
 20
46.014288
 42
0.079067
  0
VERTEX
  8
0
 10
213.254608
 20
51.953011
 42
0.051519
  0
VERTEX
  8
0
 10
220.678665
 20
61.044900
 42
0.045404
  0
VERTEX
  8
0
 10
226.942864
 20
72.759057
 42
0.034359
  0
VERTEX
  8
0
 10
231.692528
 20
86.552453
 42
0.014753
  0
VERTEX
  8
0
 10
233.197667
 20
92.882775
 42
0.028159
  0
VERTEX
  8
0
 10
233.966498
 20
98.052860
 42
0.018650
  0
VERTEX
  8
0
 10
234.315148
 20
104.499760
 42
0.003371
  0
VERTEX
  8
0
 10
234.435040
 20
116.500000
 42
0.013071
  0
VERTEX
  8
0
 10
234.073697
 20
132.281195
 42
0.036519
  0
VERTEX
  8
0
 10
232.726830
 20
143.262649
 42
0.041755
  0
VERTEX
  8
0
 10
229.919136
 20
153.081858
 42
0.021868
  0
VERTEX
  8
0
 10
224.899140
 20
164.769118
 42
0.031689
  0
VERTEX
  8
0
 10
220.060527
 20
173.363122
 42
0.039823
  0
VERTEX
  8
0
 10
214.490440
 20
180.603477
 42
0.043496
  0
VERTEX
  8
0
 10
208.336096
 20
186.319736
 42
0.055737
  0
VERTEX
  8
0
 10
201.750000
 20
190.359644
 42
-0.016616
  0
VERTEX
  8
0
 10
199.547170
 20
191.484387
 42
-0.024072
  0
VERTEX
  8
0
 10
197.689063
 20
192.632433
 42
-0.021450
  0
VERTEX
  8
0
 10
196.297089
 20
193.678530
 42
-0.224520
  0
VERTEX
  8
0
 10
196.000000
 20
194.306789
 42
-0.187416
  0
VERTEX
  8
0
 10
197.188327
 20
197.365721
 42
-0.096755
  0
VERTEX
  8
0
 10
200.538443
 20
199.843504
 42
-0.096870
  0
VERTEX
  8
0
 10
204.571112
 20
200.876531
 42
-0.188326
  0
VERTEX
  8
0
 10
207.684100
 20
199.863347
 42
-0.047233
  0
VERTEX
  8
0
 10
208.799860
 20
198.756599
 42
-0.000999
  0
VERTEX
  8
0
 10
213.762899
 20
192.780574
 42
-0.002306
  0
VERTEX
  8
0
 10
219.524845
 20
185.748524
 42
-0.001551
  0
VERTEX
  8
0
 10
226.043765
 20
177.666265
 42
-0.006452
  0
VERTEX
  8
0
 10
238.622181
 20
161.550129
 42
-0.078779
  0
VERTEX
  8
0
 10
242.311059
 20
154.677125
 42
-0.077108
  0
VERTEX
  8
0
 10
243.727282
 20
146.957739
 42
-0.006055
  0
VERTEX
  8
0
 10
244.050561
 20
126.000000
 42
0.000000
  0
VERTEX
  8
0
 10
244.118506
 20
105.500000
 42
0.000000
  0
VERTEX
  8
0
 10
263.856702
 20
68.500000
 42
0.000878
  0
VERTEX
  8
0
 10
276.915283
 20
44.124378
 42
0.015122
  0
VERTEX
  8
0
 10
281.440942
 20
36.289588
 42
0.049678
  0
VERTEX
  8
0
 10
284.191371
 20
32.696459
 42
0.236205
  0
VERTEX
  8
0
 10
286.547449
 20
31.824957
 42
0.067283
  0
VERTEX
  8
0
 10
288.721631
 20
32.366202
 42
0.053202
  0
VERTEX
  8
0
 10
290.867928
 20
33.496304
 42
0.056665
  0
VERTEX
  8
0
 10
292.495410
 20
34.878737
 42
0.190616
  0
VERTEX
  8
0
 10
293.000000
 20
36.154226
 42
0.120152
  0
VERTEX
  8
0
 10
292.844493
 20
36.792009
 42
0.000195
  0
VERTEX
  8
0
 10
287.492188
 20
47.105390
 42
0.001507
  0
VERTEX
  8
0
 10
281.438435
 20
58.673881
 42
0.000929
  0
VERTEX
  8
0
 10
274.250000
 20
72.249239
 42
0.000000
  0
VERTEX
  8
0
 10
255.500000
 20
107.500000
 42
0.000000
  0
VERTEX
  8
0
 10
255.000000
 20
133.599416
 42
0.002913
  0
VERTEX
  8
0
 10
254.718557
 20
144.863533
 42
0.006821
  0
VERTEX
  8
0
 10
254.344246
 20
153.279358
 42
0.003832
  0
VERTEX
  8
0
 10
253.917129
 20
159.765784
 42
0.149096
  0
VERTEX
  8
0
 10
253.400740
 20
161.099416
 42
0.001803
  0
VERTEX
  8
0
 10
252.576971
 20
162.141235
 42
0.000029
  0
VERTEX
  8
0
 10
247.938440
 20
167.963578
 42
0.000077
  0
VERTEX
  8
0
 10
242.542172
 20
174.734095
 42
0.000051
  0
VERTEX
  8
0
 10
236.349316
 20
182.500000
 42
-0.000776
  0
VERTEX
  8
0
 10
230.114472
 20
190.341862
 42
-0.001095
  0
VERTEX
  8
0
 10
224.584143
 20
197.351299
 42
-0.000628
  0
VERTEX
  8
0
 10
219.936963
 20
203.283309
 42
-0.015338
  0
VERTEX
  8
0
 10
218.698576
 20
204.972506
 42
-0.088454
  0
VERTEX
  8
0
 10
217.519020
 20
207.575390
 42
-0.055678
  0
VERTEX
  8
0
 10
217.059217
 20
210.890988
 42
-0.056586
  0
VERTEX
  8
0
 10
217.340824
 20
214.138720
 42
-0.108378
  0
VERTEX
  8
0
 10
218.391787
 20
216.521124
 42
-0.427254
  0
VERTEX
  8
0
 10
220.913356
 20
216.855577
 42
-0.045400
  0
VERTEX
  8
0
 10
225.664965
 20
212.280922
 42
-0.008329
  0
VERTEX
  8
0
 10
235.451263
 20
200.590648
 42
-0.000186
  0
VERTEX
  8
0
 10
281.542179
 20
143.587831
 42
0.001661
  0
VERTEX
  8
0
 10
297.835447
 20
123.558308
 42
0.002573
  0
VERTEX
  8
0
 10
312.047744
 20
106.386097
 42
0.000781
  0
VERTEX
  8
0
 10
324.476820
 20
91.571968
 42
0.081061
  0
VERTEX
  8
0
 10
326.492496
 20
89.841569
 42
0.116626
  0
VERTEX
  8
0
 10
331.778226
 20
88.116768
 42
0.120380
  0
VERTEX
  8
0
 10
337.209913
 20
88.973233
 42
0.124951
  0
VERTEX
  8
0
 10
341.489531
 20
92.190387
 42
0.131524
  0
VERTEX
  8
0
 10
343.614468
 20
97.000000
 42
0.096482
  0
VERTEX
  8
0
 10
343.419228
 20
102.150061
 42
0.001743
  0
VERTEX
  8
0
 10
337.024991
 20
129.005533
 42
0.004346
  0
VERTEX
  8
0
 10
330.689269
 20
154.247025
 42
0.022026
  0
VERTEX
  8
0
 10
326.420801
 20
168.111550
 42
0.028855
  0
VERTEX
  8
0
 10
321.771100
 20
179.096874
 42
0.045707
  0
VERTEX
  8
0
 10
316.437233
 20
187.807503
 42
0.047925
  0
VERTEX
  8
0
 10
309.812283
 20
195.113197
 42
0.035944
  0
VERTEX
  8
0
 10
301.273945
 20
201.830490
 42
-0.011259
  0
VERTEX
  8
0
 10
298.823584
 20
203.569677
 42
-0.013655
  0
VERTEX
  8
0
 10
296.610168
 20
205.312763
 42
-0.012267
  0
VERTEX
  8
0
 10
294.837109
 20
206.864467
 42
-0.086194
  0
VERTEX
  8
0
 10
294.140228
 20
207.771001
 42
-0.056175
  0
VERTEX
  8
0
 10
293.657899
 20
209.010194
 42
-0.002784
  0
VERTEX
  8
0
 10
292.559612
 20
213.251481
 42
-0.004466
  0
VERTEX
  8
0
 10
291.325358
 20
218.319525
 42
-0.003210
  0
VERTEX
  8
0
 10
290.033994
 20
224.000000
 42
0.002724
  0
VERTEX
  8
0
 10
288.665618
 20
230.046458
 42
0.002536
  0
VERTEX
  8
0
 10
287.199235
 20
236.223437
 42
0.002526
  0
VERTEX
  8
0
 10
285.840305
 20
241.700424
 42
0.008587
  0
VERTEX
  8
0
 10
284.875365
 20
245.250000
 42
0.000000
  0
VERTEX
  8
0
 10
282.915310
 20
252.000000
 42
0.000000
  0
VERTEX
  8
0
 10
257.907995
 20
252.000000
 42
-0.003370
  0
VERTEX
  8
0
 10
240.361553
 20
252.118267
 42
-0.036457
  0
VERTEX
  8
0
 10
233.303264
 20
252.729355
 42
-0.090419
  0
VERTEX
  8
0
 10
229.018429
 20
254.243090
 42
-0.075049
  0
VERTEX
  8
0
 10
225.221730
 20
257.249529
 42
-0.037716
  0
VERTEX
  8
0
 10
224.333835
 20
258.356929
 42
-0.053626
  0
VERTEX
  8
0
 10
223.736923
 20
259.467235
 42
-0.064444
  0
VERTEX
  8
0
 10
223.468854
 20
260.485492
 42
-0.124416
  0
VERTEX
  8
0
 10
223.568143
 20
261.316982
 42
-0.149016
  0
VERTEX
  8
0
 10
224.290592
 20
262.243512
 42
-0.005156
  0
VERTEX
  8
0
 10
228.106884
 20
264.867664
 42
-0.009233
  0
VERTEX
  8
0
 10
232.751732
 20
267.868454
 42
-0.006275
  0
VERTEX
  8
0
 10
238.141963
 20
271.118427
 42
0.006051
  0
VERTEX
  8
0
 10
243.591024
 20
274.400546
 42
0.008230
  0
VERTEX
  8
0
 10
248.420785
 20
277.500973
 42
0.005784
  0
VERTEX
  8
0
 10
252.374842
 20
280.198640
 42
0.087598
  0
VERTEX
  8
0
 10
253.545550
 20
281.368494
 42
0.112035
  0
VERTEX
  8
0
 10
254.284345
 20
283.176738
 42
0.022699
  0
VERTEX
  8
0
 10
254.699716
 20
286.640682
 42
0.014958
  0
VERTEX
  8
0
 10
254.936548
 20
292.015102
 42
0.003531
  0
VERTEX
  8
0
 10
255.000000
 20
301.000000
 42
-0.003286
  0
VERTEX
  8
0
 10
255.061703
 20
310.388364
 42
-0.016670
  0
VERTEX
  8
0
 10
255.304806
 20
315.614703
 42
-0.029165
  0
VERTEX
  8
0
 10
255.759464
 20
318.885229
 42
-0.104015
  0
VERTEX
  8
0
 10
256.585226
 20
320.818215
 42
-0.065674
  0
VERTEX
  8
0
 10
257.842071
 20
322.188698
 42
-0.003553
  0
VERTEX
  8
0
 10
262.379757
 20
325.936545
 42
-0.005493
  0
VERTEX
  8
0
 10
267.873391
 20
330.309205
 42
-0.003977
  0
VERTEX
  8
0
 10
274.085226
 20
335.064169
 42
0.005164
  0
VERTEX
  8
0
 10
280.846952
 20
340.265572
 42
0.011714
  0
VERTEX
  8
0
 10
285.824207
 20
344.368952
 42
0.008124
  0
VERTEX
  8
0
 10
289.479326
 20
347.634293
 42
0.209333
  0
VERTEX
  8
0
 10
290.000000
 20
348.823448
 42
-0.046785
  0
VERTEX
  8
0
 10
290.070359
 20
349.573740
 42
-0.037367
  0
VERTEX
  8
0
 10
290.280621
 20
350.358759
 42
-0.038616
  0
VERTEX
  8
0
 10
290.588991
 20
351.061341
 42
-0.073787
  0
VERTEX
  8
0
 10
290.955306
 20
351.555306
 42
0.247887
  0
VERTEX
  8
0
 10
291.156116
 20
352.205809
 42
0.064741
  0
VERTEX
  8
0
 10
290.805252
 20
353.279443
 42
0.044108
  0
VERTEX
  8
0
 10
289.974005
 20
354.687416
 42
0.019232
  0
VERTEX
  8
0
 10
288.642088
 20
356.403794
 42
0.000000
  0
VERTEX
  8
0
 10
285.373564
 20
360.296976
 42
0.000000
  0
VERTEX
  8
0
 10
264.730190
 20
344.898488
 42
0.000000
  0
VERTEX
  8
0
 10
244.086815
 20
329.500000
 42
0.000000
  0
VERTEX
  8
0
 10
244.043408
 20
310.441130
 42
-0.003573
  0
VERTEX
  8
0
 10
243.958388
 20
301.418419
 42
-0.011477
  0
VERTEX
  8
0
 10
243.721010
 20
295.415214
 42
-0.012140
  0
VERTEX
  8
0
 10
243.360909
 20
291.274791
 42
-0.137626
  0
VERTEX
  8
0
 10
242.750000
 20
289.765323
 42
-0.100328
  0
VERTEX
  8
0
 10
240.157405
 20
287.524672
 42
-0.004852
  0
VERTEX
  8
0
 10
230.116281
 20
281.999746
 42
-0.002264
  0
VERTEX
  8
0
 10
219.454653
 20
276.329547
 42
-0.335506
  0
VERTEX
  8
0
 10
218.157550
 20
276.543067
 42
-0.242457
  0
VERTEX
  8
0
 10
218.054684
 20
276.894823
 42
-0.101451
  0
VERTEX
  8
0
 10
218.249504
 20
277.364175
 42
-0.068489
  0
VERTEX
  8
0
 10
218.716127
 20
277.883062
 42
-0.040677
  0
VERTEX
  8
0
 10
219.393953
 20
278.367284
 42
0.045209
  0
VERTEX
  8
0
 10
222.462356
 20
280.601473
 42
0.062515
  0
VERTEX
  8
0
 10
224.721417
 20
283.145090
 42
0.051440
  0
VERTEX
  8
0
 10
226.569085
 20
286.538810
 42
0.020616
  0
VERTEX
  8
0
 10
228.406937
 20
291.503409
 42
0.024980
  0
VERTEX
  8
0
 10
230.113479
 20
297.832472
 42
0.039045
  0
VERTEX
  8
0
 10
230.874574
 20
303.420331
 42
0.045922
  0
VERTEX
  8
0
 10
230.707114
 20
308.278239
 42
0.067487
  0
VERTEX
  8
0
 10
229.606105
 20
312.400297
 42
0.073677
  0
VERTEX
  8
0
 10
228.082625
 20
314.925405
 42
0.037305
  0
VERTEX
  8
0
 10
225.506080
 20
317.611792
 42
0.037035
  0
VERTEX
  8
0
 10
222.493838
 20
319.938300
 42
0.060797
  0
VERTEX
  8
0
 10
219.613881
 20
321.372967
 42
-0.025571
  0
VERTEX
  8
0
 10
218.497307
 20
321.834367
 42
-0.278969
  0
VERTEX
  8
0
 10
218.240373
 20
322.223381
 42
-0.184474
  0
VERTEX
  8
0
 10
218.416757
 20
322.746428
 42
-0.011368
  0
VERTEX
  8
0
 10
219.509388
 20
324.010374
 42
-0.053644
  0
VERTEX
  8
0
 10
220.710594
 20
325.081138
 42
-0.006662
  0
VERTEX
  8
0
 10
223.588982
 20
327.082371
 42
-0.007796
  0
VERTEX
  8
0
 10
227.087466
 20
329.367587
 42
-0.006382
  0
VERTEX
  8
0
 10
230.895507
 20
331.703715
 42
0.008734
  0
VERTEX
  8
0
 10
239.664345
 20
337.140085
 42
0.077506
  0
VERTEX
  8
0
 10
243.051254
 20
340.153688
 42
0.131200
  0
VERTEX
  8
0
 10
244.548086
 20
343.434369
 42
0.041808
  0
VERTEX
  8
0
 10
245.000000
 20
348.829545
 42
0.007972
  0
VERTEX
  8
0
 10
244.954101
 20
351.708274
 42
0.007563
  0
VERTEX
  8
0
 10
244.816406
 20
354.635085
 42
0.007537
  0
VERTEX
  8
0
 10
244.616453
 20
357.219642
 42
0.026284
  0
VERTEX
  8
0
 10
244.375000
 20
358.875000
 42
0.038460
  0
VERTEX
  8
0
 10
243.854905
 20
360.723438
 42
0.177567
  0
VERTEX
  8
0
 10
243.148462
 20
361.557692
 42
0.116949
  0
VERTEX
  8
0
 10
241.896555
 20
361.922913
 42
0.012754
  0
VERTEX
  8
0
 10
238.875000
 20
362.000000
 42
0.000000
  0
VERTEX
  8
0
 10
234.000000
 20
362.000000
 42
0.000000
  0
VERTEX
  8
0
 10
234.000000
 20
355.612322
 42
0.000000
  0
VERTEX
  8
0
 10
234.000000
 20
349.224644
 42
0.000000
  0
VERTEX
  8
0
 10
219.250000
 20
340.289805
 42
0.000000
  0
VERTEX
  8
0
 10
204.500000
 20
331.354966
 42
0.000000
  0
VERTEX
  8
0
 10
204.195209
 20
326.677483
 42
-0.016853
  0
VERTEX
  8
0
 10
204.017546
 20
324.884608
 42
-0.027007
  0
VERTEX
  8
0
 10
203.732547
 20
323.374011
 42
-0.025386
  0
VERTEX
  8
0
 10
203.393751
 20
322.243787
 42
-0.317243
  0
VERTEX
  8
0
 10
203.048193
 20
322.000000
 42
-0.193324
  0
VERTEX
  8
0
 10
202.524397
 20
322.210387
 42
-0.004654
  0
VERTEX
  8
0
 10
200.614339
 20
324.074331
 42
-0.009505
  0
VERTEX
  8
0
 10
198.405682
 20
326.355279
 42
-0.006236
  0
VERTEX
  8
0
 10
195.945431
 20
329.061551
 42
0.000000
  0
VERTEX
  8
0
 10
189.684893
 20
336.123102
 42
0.000000
  0
VERTEX
  8
0
 10
183.762854
 20
329.561551
 42
-0.005714
  0
VERTEX
  8
0
 10
181.440515
 20
327.046809
 42
-0.008763
  0
VERTEX
  8
0
 10
179.366462
 20
324.927456
 42
-0.004014
  0
VERTEX
  8
0
 10
177.570365
 20
323.183585
 42
-0.192998
  0
VERTEX
  8
0
 10
177.112468
 20
323.000000
 42
-0.286158
  0
VERTEX
  8
0
 10
176.780492
 20
323.206942
 42
-0.020369
  0
VERTEX
  8
0
 10
176.321344
 20
324.248438
 42
-0.023778
  0
VERTEX
  8
0
 10
175.855814
 20
325.621227
 42
-0.015317
  0
VERTEX
  8
0
 10
175.442061
 20
327.250000
 42
0.052921
  0
VERTEX
  8
0
 10
174.561488
 20
329.873113
 42
0.094435
  0
VERTEX
  8
0
 10
173.247444
 20
331.721816
 42
0.048812
  0
VERTEX
  8
0
 10
170.795480
 20
333.652472
 42
0.005996
  0
VERTEX
  8
0
 10
165.000000
 20
337.265533
 42
-0.001904
  0
VERTEX
  8
0
 10
152.041001
 20
345.197991
 42
-0.050613
  0
VERTEX
  8
0
 10
148.826405
 20
347.663263
 42
-0.129684
  0
VERTEX
  8
0
 10
147.240116
 20
350.207553
 42
-0.030691
  0
VERTEX
  8
0
 10
146.049555
 20
355.110685
 42
0.000000
  0
VERTEX
  8
0
 10
144.818366
 20
362.000000
 42
0.000000
  0
VERTEX
  8
0
 10
139.872971
 20
362.000000
 42
0.000000
  0
VERTEX
  8
0
 10
134.927576
 20
362.000000
 42
0.000000
  0
SEQEND
  0
POLYLINE
  8
0
 66
1
 70
1
  0
VERTEX
  8
0
 10
195.500000
 20
313.021127
 42
0.078190
  0
VERTEX
  8
0
 10
198.268561
 20
311.350296
 42
0.037878
  0
VERTEX
  8
0
 10
202.216027
 20
310.080560
 42
0.033396
  0
VERTEX
  8
0
 10
206.977857
 20
309.269441
 42
0.025493
  0
VERTEX
  8
0
 10
212.259031
 20
309.000000
 42
-0.011435
  0
VERTEX
  8
0
 10
215.427076
 20
308.927537
 42
-0.039754
  0
VERTEX
  8
0
 10
217.457532
 20
308.671977
 42
-0.067510
  0
VERTEX
  8
0
 10
218.726190
 20
308.223938
 42
-0.184576
  0
VERTEX
  8
0
 10
219.350929
 20
307.527876
 42
-0.123905
  0
VERTEX
  8
0
 10
219.463828
 20
306.590415
 42
-0.013415
  0
VERTEX
  8
0
 10
219.127792
 20
304.418885
 42
-0.015804
  0
VERTEX
  8
0
 10
218.567803
 20
301.816636
 42
-0.012118
  0
VERTEX
  8
0
 10
217.798039
 20
299.011317
 42
0.000000
  0
VERTEX
  8
0
 10
215.680241
 20
291.966883
 42
0.000000
  0
VERTEX
  8
0
 10
190.103060
 20
292.233441
 42
0.000000
  0
VERTEX
  8
0
 10
164.525879
 20
292.500000
 42
0.000000
  0
VERTEX
  8
0
 10
163.365503
 20
295.000000
 42
-0.031718
  0
VERTEX
  8
0
 10
161.971326
 20
298.582344
 42
-0.065806
  0
VERTEX
  8
0
 10
161.446081
 20
301.530571
 42
-0.085203
  0
VERTEX
  8
0
 10
161.755304
 20
303.989223
 42
-0.096644
  0
VERTEX
  8
0
 10
162.867599
 20
306.085667
 42
-0.075491
  0
VERTEX
  8
0
 10
164.323804
 20
307.414282
 42
-0.084326
  0
VERTEX
  8
0
 10
166.056589
 20
308.189480
 42
-0.042656
  0
VERTEX
  8
0
 10
168.781159
 20
308.649183
 42
-0.006523
  0
VERTEX
  8
0
 10
174.276199
 20
309.028086
 42
0.007275
  0
VERTEX
  8
0
 10
180.052721
 20
309.435131
 42
0.048655
  0
VERTEX
  8
0
 10
182.882065
 20
309.956223
 42
0.077055
  0
VERTEX
  8
0
 10
184.978896
 20
310.925938
 42
0.033401
  0
VERTEX
  8
0
 10
187.425109
 20
312.800101
 42
-0.026236
  0
VERTEX
  8
0
 10
189.907733
 20
314.759196
 42
-0.148131
  0
VERTEX
  8
0
 10
191.490541
 20
315.286339
 42
-0.153840
  0
VERTEX
  8
0
 10
193.067686
 20
314.836370
 42
-0.028969
  0
SEQEND
  0
POLYLINE
  8
0
 66
1
 70
1
  0
VERTEX
  8
0
 10
202.789116
 20
276.150163
 42
-0.076468
  0
VERTEX
  8
0
 10
205.377758
 20
273.632919
 42
-0.041949
  0
VERTEX
  8
0
 10
207.743021
 20
269.884411
 42
-0.041982
  0
VERTEX
  8
0
 10
209.445311
 20
265.802832
 42
-0.077962
  0
VERTEX
  8
0
 10
210.000000
 20
262.267017
 42
-0.074914
  0
VERTEX
  8
0
 10
209.725637
 20
260.446119
 42
-0.101847
  0
VERTEX
  8
0
 10
208.928093
 20
258.993455
 42
-0.058296
  0
VERTEX
  8
0
 10
207.272977
 20
257.453867
 42
-0.011006
  0
VERTEX
  8
0
 10
203.886047
 20
255.082741
 42
-0.013088
  0
VERTEX
  8
0
 10
201.406923
 20
253.519479
 42
-0.016135
  0
VERTEX
  8
0
 10
199.014042
 20
252.199305
 42
-0.014594
  0
VERTEX
  8
0
 10
196.959052
 20
251.225067
 42
-0.103748
  0
VERTEX
  8
0
 10
195.886047
 20
251.000000
 42
0.096356
  0
VERTEX
  8
0
 10
194.972953
 20
250.822386
 42
0.167511
  0
VERTEX
  8
0
 10
194.396883
 20
250.321015
 42
0.105754
  0
VERTEX
  8
0
 10
194.092680
 20
249.377692
 42
0.026363
  0
VERTEX
  8
0
 10
194.013655
 20
247.750000
 42
0.022700
  0
VERTEX
  8
0
 10
194.240383
 20
243.182079
 42
0.169392
  0
VERTEX
  8
0
 10
195.133382
 20
241.237947
 42
0.188286
  0
VERTEX
  8
0
 10
196.988722
 20
240.381660
 42
0.029198
  0
VERTEX
  8
0
 10
201.111308
 20
240.374225
 42
-0.013223
  0
VERTEX
  8
0
 10
203.649885
 20
240.450740
 42
-0.032861
  0
VERTEX
  8
0
 10
205.504129
 20
240.335612
 42
-0.044384
  0
VERTEX
  8
0
 10
206.735797
 20
240.064816
 42
-0.299973
  0
VERTEX
  8
0
 10
207.110691
 20
239.603868
 42
-0.032687
  0
VERTEX
  8
0
 10
207.177142
 20
237.683608
 42
-0.011373
  0
VERTEX
  8
0
 10
207.029018
 20
234.917814
 42
-0.006927
  0
VERTEX
  8
0
 10
206.653657
 20
230.763160
 42
-0.001584
  0
VERTEX
  8
0
 10
205.899491
 20
223.750000
 42
0.000000
  0
VERTEX
  8
0
 10
204.709010
 20
213.000000
 42
0.000000
  0
VERTEX
  8
0
 10
190.413522
 20
213.000000
 42
-0.005205
  0
VERTEX
  8
0
 10
184.898283
 20
213.057414
 42
-0.008230
  0
VERTEX
  8
0
 10
180.172927
 20
213.233654
 42
-0.003138
  0
VERTEX
  8
0
 10
176.159130
 20
213.474834
 42
-0.242315
  0
VERTEX
  8
0
 10
175.626438
 20
213.795419
 42
-0.112771
  0
VERTEX
  8
0
 10
174.843221
 20
216.089643
 42
-0.003694
  0
VERTEX
  8
0
 10
173.897978
 20
225.804001
 42
-0.004721
  0
VERTEX
  8
0
 10
173.131579
 20
235.343453
 42
-0.079323
  0
VERTEX
  8
0
 10
173.407758
 20
238.488500
 42
-0.052156
  0
VERTEX
  8
0
 10
173.971907
 20
240.033409
 42
-0.204364
  0
VERTEX
  8
0
 10
174.723051
 20
240.683335
 42
-0.100674
  0
VERTEX
  8
0
 10
176.051142
 20
240.829253
 42
-0.008265
  0
VERTEX
  8
0
 10
179.535984
 20
240.452237
 42
0.014783
  0
VERTEX
  8
0
 10
181.634995
 20
240.252792
 42
0.024560
  0
VERTEX
  8
0
 10
183.411807
 20
240.224251
 42
0.021840
  0
VERTEX
  8
0
 10
184.767222
 20
240.328444
 42
0.360547
  0
VERTEX
  8
0
 10
185.057402
 20
240.634777
 42
-0.007020
  0
VERTEX
  8
0
 10
185.101255
 20
241.179820
 42
-0.000702
  0
VERTEX
  8
0
 10
185.226225
 20
242.481298
 42
-0.000882
  0
VERTEX
  8
0
 10
185.380080
 20
244.031966
 42
-0.000701
  0
VERTEX
  8
0
 10
185.551511
 20
245.705812
 42
0.022603
  0
VERTEX
  8
0
 10
185.708087
 20
248.390133
 42
0.154336
  0
VERTEX
  8
0
 10
185.329659
 20
249.643664
 42
0.126234
  0
VERTEX
  8
0
 10
184.266479
 20
250.576544
 42
0.013184
  0
VERTEX
  8
0
 10
181.244109
 20
252.009426
 42
-0.035623
  0
VERTEX
  8
0
 10
177.319582
 20
254.090424
 42
-0.043641
  0
VERTEX
  8
0
 10
174.006141
 20
256.588467
 42
-0.049390
  0
VERTEX
  8
0
 10
171.702702
 20
259.116884
 42
-0.161423
  0
VERTEX
  8
0
 10
171.000000
 20
261.236751
 42
-0.089707
  0
VERTEX
  8
0
 10
171.407266
 20
263.488453
 42
-0.032028
  0
VERTEX
  8
0
 10
172.749750
 20
266.479332
 42
-0.030948
  0
VERTEX
  8
0
 10
174.653727
 20
269.600084
 42
-0.034656
  0
VERTEX
  8
0
 10
176.864162
 20
272.339276
 42
-0.084909
  0
VERTEX
  8
0
 10
182.662405
 20
276.775798
 42
-0.084642
  0
VERTEX
  8
0
 10
189.611869
 20
279.038994
 42
-0.088196
  0
VERTEX
  8
0
 10
196.668878
 20
278.827322
 42
-0.103581
  0
SEQEND
  0
POLYLINE
  8
0
 66
1
 70
1
  0
VERTEX
  8
0
 10
159.444852
 20
238.517188
 42
-0.078719
  0
VERTEX
  8
0
 10
157.466127
 20
235.056259
 42
-0.000094
  0
VERTEX
  8
0
 10
106.275197
 20
171.321142
 42
-0.000177
  0
VERTEX
  8
0
 10
56.029385
 20
108.832154
 42
-0.041031
  0
VERTEX
  8
0
 10
50.925906
 20
103.458207
 42
-0.002865
  0
VERTEX
  8
0
 10
49.410667
 20
102.119931
 42
-0.188132
  0
VERTEX
  8
0
 10
49.088364
 20
102.003807
 42
-0.482871
  0
VERTEX
  8
0
 10
48.957642
 20
102.177563
 42
-0.008134
  0
VERTEX
  8
0
 10
49.325027
 20
103.500000
 42
0.009351
  0
VERTEX
  8
0
 10
49.725986
 20
104.957022
 42
0.000242
  0
VERTEX
  8
0
 10
51.395717
 20
111.513783
 42
0.000513
  0
VERTEX
  8
0
 10
53.344916
 20
119.216596
 42
0.000350
  0
VERTEX
  8
0
 10
55.544508
 20
127.972452
 42
-0.005382
  0
VERTEX
  8
0
 10
61.693489
 20
151.447232
 42
-0.022235
  0
VERTEX
  8
0
 10
66.188652
 20
165.412402
 42
-0.036913
  0
VERTEX
  8
0
 10
70.487934
 20
174.795055
 42
-0.057878
  0
VERTEX
  8
0
 10
75.631733
 20
182.014133
 42
-0.040473
  0
VERTEX
  8
0
 10
78.056165
 20
184.296307
 42
-0.004198
  0
VERTEX
  8
0
 10
84.220450
 20
189.138827
 42
-0.005197
  0
VERTEX
  8
0
 10
91.684360
 20
194.778785
 42
-0.004135
  0
VERTEX
  8
0
 10
99.852405
 20
200.714624
 42
0.000795
  0
VERTEX
  8
0
 10
109.130790
 20
207.363102
 42
0.000495
  0
VERTEX
  8
0
 10
119.988886
 20
215.186011
 42
0.000497
  0
VERTEX
  8
0
 10
130.680931
 20
222.921552
 42
0.000901
  0
VERTEX
  8
0
 10
139.407632
 20
229.272441
 42
-0.004442
  0
VERTEX
  8
0
 10
151.892407
 20
238.223752
 42
-0.045249
  0
VERTEX
  8
0
 10
157.409482
 20
241.402513
 42
-0.377611
  0
VERTEX
  8
0
 10
159.213388
 20
240.864518
 42
-0.234433
  0
SEQEND
  0
POLYLINE
  8
0
 66
1
 70
1
  0
VERTEX
  8
0
 10
263.500000
 20
215.472744
 42
-0.002521
  0
VERTEX
  8
0
 10
278.393355
 20
204.580155
 42
-0.003440
  0
VERTEX
  8
0
 10
291.698309
 20
194.603647
 42
-0.002268
  0
VERTEX
  8
0
 10
302.765697
 20
186.105850
 42
-0.039277
  0
VERTEX
  8
0
 10
306.132541
 20
183.044801
 42
-0.063386
  0
VERTEX
  8
0
 10
310.825933
 20
176.578104
 42
-0.037074
  0
VERTEX
  8
0
 10
314.796958
 20
167.852854
 42
-0.021519
  0
VERTEX
  8
0
 10
319.061439
 20
154.538032
 42
-0.004830
  0
VERTEX
  8
0
 10
325.122651
 20
131.500000
 42
-0.000174
  0
VERTEX
  8
0
 10
328.128771
 20
119.590892
 42
-0.000286
  0
VERTEX
  8
0
 10
330.663218
 20
109.511274
 42
-0.000018
  0
VERTEX
  8
0
 10
332.939280
 20
100.435917
 42
-0.045710
  0
VERTEX
  8
0
 10
332.979610
 20
100.176676
 42
-0.381510
  0
VERTEX
  8
0
 10
332.897283
 20
100.071892
 42
-0.044006
  0
VERTEX
  8
0
 10
332.573101
 20
100.043305
 42
-0.035495
  0
VERTEX
  8
0
 10
332.115194
 20
100.075852
 42
-0.020005
  0
VERTEX
  8
0
 10
331.567115
 20
100.176676
 42
-0.161821
  0
VERTEX
  8
0
 10
330.642569
 20
100.734389
 42
-0.001019
  0
VERTEX
  8
0
 10
324.293238
 20
108.194922
 42
-0.003983
  0
VERTEX
  8
0
 10
317.092002
 20
116.830014
 42
-0.002513
  0
VERTEX
  8
0
 10
308.817115
 20
127.018802
 42
0.000173
  0
VERTEX
  8
0
 10
298.380831
 20
139.992490
 42
0.000071
  0
VERTEX
  8
0
 10
284.215028
 20
157.584864
 42
0.000070
  0
VERTEX
  8
0
 10
269.003796
 20
176.464613
 42
0.000090
  0
VERTEX
  8
0
 10
255.000000
 20
193.834309
 42
-0.000958
  0
VERTEX
  8
0
 10
242.450795
 20
209.455220
 42
-0.001479
  0
VERTEX
  8
0
 10
231.669834
 20
223.009890
 42
-0.000451
  0
VERTEX
  8
0
 10
222.357565
 20
234.811241
 42
-0.045650
  0
VERTEX
  8
0
 10
221.216457
 20
236.568572
 42
-0.102119
  0
VERTEX
  8
0
 10
220.590238
 20
238.736977
 42
-0.115093
  0
VERTEX
  8
0
 10
220.917167
 20
240.877413
 42
-0.134989
  0
VERTEX
  8
0
 10
222.086187
 20
242.418057
 42
-0.166910
  0
VERTEX
  8
0
 10
223.785184
 20
242.985934
 42
-0.149828
  0
VERTEX
  8
0
 10
225.008406
 20
242.599965
 42
-0.000691
  0
VERTEX
  8
0
 10
236.158773
 20
234.898132
 42
-0.003161
  0
VERTEX
  8
0
 10
248.809242
 20
226.015390
 42
-0.001982
  0
SEQEND
  0
POLYLINE
  8
0
 66
1
 70
1
  0
VERTEX
  8
0
 10
127.563126
 20
238.069754
 42
-0.052307
  0
VERTEX
  8
0
 10
124.538801
 20
235.359337
 42
-0.003492
  0
VERTEX
  8
0
 10
115.046137
 20
228.593703
 42
-0.001534
  0
VERTEX
  8
0
 10
104.897729
 20
221.513434
 42
-0.152694
  0
VERTEX
  8
0
 10
103.255675
 20
221.000000
 42
-0.420690
  0
VERTEX
  8
0
 10
102.916612
 20
221.346627
 42
-0.020200
  0
VERTEX
  8
0
 10
103.028377
 20
223.133860
 42
-0.021434
  0
VERTEX
  8
0
 10
103.388000
 20
225.584474
 42
-0.009960
  0
VERTEX
  8
0
 10
104.053530
 20
228.730274
 42
-0.029044
  0
VERTEX
  8
0
 10
105.996044
 20
235.324443
 42
-0.152167
  0
VERTEX
  8
0
 10
108.246963
 20
238.306587
 42
-0.135205
  0
VERTEX
  8
0
 10
111.938501
 20
239.668492
 42
-0.021167
  0
VERTEX
  8
0
 10
119.765772
 20
240.000000
 42
-0.002474
  0
VERTEX
  8
0
 10
126.057728
 20
239.968869
 42
-0.058260
  0
VERTEX
  8
0
 10
127.819490
 20
239.745196
 42
-0.426277
  0
VERTEX
  8
0
 10
128.164471
 20
239.145764
 42
-0.113453
  0
SEQEND
  0
POLYLINE
  8
0
 66
1
 70
1
  0
VERTEX
  8
0
 10
275.037164
 20
237.750000
 42
-0.045506
  0
VERTEX
  8
0
 10
276.178950
 20
234.363093
 42
-0.005639
  0
VERTEX
  8
0
 10
277.901332
 20
226.765218
 42
-0.001538
  0
VERTEX
  8
0
 10
279.658216
 20
218.464277
 42
-0.475766
  0
VERTEX
  8
0
 10
279.280733
 20
218.000000
 42
-0.157888
  0
VERTEX
  8
0
 10
278.239793
 20
218.337108
 42
-0.000595
  0
VERTEX
  8
0
 10
267.879497
 20
225.852486
 42
-0.002491
  0
VERTEX
  8
0
 10
258.474842
 20
232.763634
 42
-0.026033
  0
VERTEX
  8
0
 10
254.785558
 20
235.813376
 42
-0.024953
  0
VERTEX
  8
0
 10
253.783825
 20
236.829906
 42
-0.036905
  0
VERTEX
  8
0
 10
253.022249
 20
237.822626
 42
-0.041096
  0
VERTEX
  8
0
 10
252.561334
 20
238.669396
 42
-0.247342
  0
VERTEX
  8
0
 10
252.594575
 20
239.153025
 42
-0.233014
  0
VERTEX
  8
0
 10
253.135300
 20
239.491553
 42
-0.006140
  0
VERTEX
  8
0
 10
256.037604
 20
239.751201
 42
-0.011670
  0
VERTEX
  8
0
 10
259.532755
 20
239.938740
 42
-0.007567
  0
VERTEX
  8
0
 10
263.580456
 20
240.000000
 42
-0.004096
  0
VERTEX
  8
0
 10
270.064660
 20
239.946886
 42
-0.044414
  0
VERTEX
  8
0
 10
272.664644
 20
239.672478
 42
-0.123171
  0
VERTEX
  8
0
 10
274.077219
 20
239.009136
 42
-0.118185
  0
SEQEND
  0
POLYLINE
  8
0
 66
1
 70
1
  0
VERTEX
  8
0
 10
197.782119
 20
179.446952
 42
-0.027430
  0
VERTEX
  8
0
 10
199.414950
 20
178.657121
 42
-0.016739
  0
VERTEX
  8
0
 10
201.253512
 20
177.557882
 42
-0.016759
  0
VERTEX
  8
0
 10
203.007595
 20
176.342727
 42
-0.028367
  0
VERTEX
  8
0
 10
204.378773
 20
175.196952
 42
-0.027210
  0
VERTEX
  8
0
 10
207.003963
 20
172.454681
 42
-0.014864
  0
VERTEX
  8
0
 10
209.930714
 20
168.831401
 42
-0.009125
  0
VERTEX
  8
0
 10
212.561822
 20
165.233973
 42
-0.154520
  0
VERTEX
  8
0
 10
213.000000
 20
163.849962
 42
-0.328429
  0
VERTEX
  8
0
 10
212.755595
 20
163.518014
 42
-0.028707
  0
VERTEX
  8
0
 10
211.678125
 20
163.249676
 42
-0.028906
  0
VERTEX
  8
0
 10
210.224965
 20
163.061340
 42
-0.017775
  0
VERTEX
  8
0
 10
208.500000
 20
163.000000
 42
0.000000
  0
VERTEX
  8
0
 10
204.000000
 20
163.000000
 42
0.000000
  0
VERTEX
  8
0
 10
204.000000
 20
158.125000
 42
0.012754
  0
VERTEX
  8
0
 10
204.077087
 20
155.103445
 42
0.116949
  0
VERTEX
  8
0
 10
204.442308
 20
153.851538
 42
0.177567
  0
VERTEX
  8
0
 10
205.276562
 20
153.145095
 42
0.038460
  0
VERTEX
  8
0
 10
207.125000
 20
152.625000
 42
0.016133
  0
VERTEX
  8
0
 10
208.563534
 20
152.385269
 42
0.009168
  0
VERTEX
  8
0
 10
210.316666
 20
152.183594
 42
0.009147
  0
VERTEX
  8
0
 10
212.091761
 20
152.045025
 42
0.014904
  0
VERTEX
  8
0
 10
213.601947
 20
152.000000
 42
-0.040209
  0
VERTEX
  8
0
 10
215.224354
 20
151.869317
 42
-0.069348
  0
VERTEX
  8
0
 10
216.516477
 20
151.470713
 42
-0.076761
  0
VERTEX
  8
0
 10
217.560604
 20
150.770220
 42
-0.061732
  0
VERTEX
  8
0
 10
218.436213
 20
149.737696
 42
-0.072776
  0
VERTEX
  8
0
 10
219.786967
 20
146.828934
 42
-0.014574
  0
VERTEX
  8
0
 10
221.262576
 20
141.288710
 42
-0.015960
  0
VERTEX
  8
0
 10
222.522005
 20
135.051365
 42
-0.020544
  0
VERTEX
  8
0
 10
223.258270
 20
129.250000
 42
0.000000
  0
VERTEX
  8
0
 10
223.706415
 20
124.000000
 42
0.000000
  0
VERTEX
  8
0
 10
190.341390
 20
124.000000
 42
0.000000
  0
VERTEX
  8
0
 10
156.976365
 20
124.000000
 42
0.000000
  0
VERTEX
  8
0
 10
157.563367
 20
128.250000
 42
-0.017487
  0
VERTEX
  8
0
 10
159.740489
 20
140.766238
 42
-0.085647
  0
VERTEX
  8
0
 10
162.381409
 20
147.415493
 42
-0.154395
  0
VERTEX
  8
0
 10
166.266217
 20
150.791781
 42
-0.102635
  0
VERTEX
  8
0
 10
172.090206
 20
152.000000
 42
0.066206
  0
VERTEX
  8
0
 10
174.302173
 20
152.294181
 42
0.210686
  0
VERTEX
  8
0
 10
175.435797
 20
153.210404
 42
0.134527
  0
VERTEX
  8
0
 10
175.812983
 20
154.994799
 42
0.022432
  0
VERTEX
  8
0
 10
175.445817
 20
158.512752
 42
0.020470
  0
VERTEX
  8
0
 10
174.994083
 20
160.864346
 42
0.077491
  0
VERTEX
  8
0
 10
174.432649
 20
162.248280
 42
0.116575
  0
VERTEX
  8
0
 10
173.612831
 20
163.090080
 42
0.080327
  0
VERTEX
  8
0
 10
172.384984
 20
163.618223
 42
-0.034668
  0
VERTEX
  8
0
 10
171.471929
 20
163.915956
 42
-0.046725
  0
VERTEX
  8
0
 10
170.700589
 20
164.315469
 42
-0.055261
  0
VERTEX
  8
0
 10
170.164394
 20
164.750573
 42
-0.197171
  0
VERTEX
  8
0
 10
170.000000
 20
165.151249
 42
-0.188561
  0
VERTEX
  8
0
 10
170.664639
 20
166.850987
 42
-0.008724
  0
VERTEX
  8
0
 10
175.029096
 20
171.416054
 42
-0.014061
  0
VERTEX
  8
0
 10
179.509729
 20
175.694288
 42
-0.064320
  0
VERTEX
  8
0
 10
182.462047
 20
177.738934
 42
-0.026971
  0
VERTEX
  8
0
 10
187.075506
 20
179.817576
 42
-0.064680
  0
VERTEX
  8
0
 10
190.712052
 20
180.708310
 42
-0.076193
  0
VERTEX
  8
0
 10
194.078557
 20
180.570001
 42
-0.050678
  0
SEQEND
  0
POLYLINE
  8
0
 66
1
 70
1
  0
VERTEX
  8
0
 10
212.000000
 20
71.368034
 42
-0.146004
  0
VERTEX
  8
0
 10
211.491587
 20
69.664057
 42
-0.017781
  0
VERTEX
  8
0
 10
209.214125
 20
66.443227
 42
-0.021736
  0
VERTEX
  8
0
 10
206.391624
 20
63.054597
 42
-0.027768
  0
VERTEX
  8
0
 10
203.495501
 20
60.204955
 42
-0.039928
  0
VERTEX
  8
0
 10
200.063542
 20
57.639169
 42
-0.040484
  0
VERTEX
  8
0
 10
196.282743
 20
55.664907
 42
-0.042662
  0
VERTEX
  8
0
 10
192.454444
 20
54.417302
 42
-0.059815
  0
VERTEX
  8
0
 10
188.883980
 20
54.021962
 42
-0.103145
  0
VERTEX
  8
0
 10
184.453318
 20
54.988461
 42
-0.044767
  0
VERTEX
  8
0
 10
179.164549
 20
57.945470
 42
-0.043074
  0
VERTEX
  8
0
 10
174.092587
 20
62.092305
 42
-0.054670
  0
VERTEX
  8
0
 10
170.243594
 20
66.755006
 42
-0.029702
  0
VERTEX
  8
0
 10
169.543024
 20
67.974412
 42
-0.099911
  0
VERTEX
  8
0
 10
169.305004
 20
68.858735
 42
-0.127089
  0
VERTEX
  8
0
 10
169.455136
 20
69.643353
 42
-0.062793
  0
VERTEX
  8
0
 10
170.004155
 20
70.505006
 42
-0.180414
  0
VERTEX
  8
0
 10
171.407275
 20
71.310401
 42
-0.023768
  0
VERTEX
  8
0
 10
174.874666
 20
71.716437
 42
-0.014744
  0
VERTEX
  8
0
 10
180.641933
 20
71.944699
 42
-0.002518
  0
VERTEX
  8
0
 10
191.622445
 20
72.000000
 42
-0.002906
  0
VERTEX
  8
0
 10
199.436166
 20
71.954583
 42
-0.004845
  0
VERTEX
  8
0
 10
206.014093
 20
71.814360
 42
-0.000943
  0
VERTEX
  8
0
 10
211.751238
 20
71.625601
 42
-0.404064
  0
SEQEND
  0
POLYLINE
  8
0
 66
1
 70
1
  0
VERTEX
  8
0
 10
102.981707
 20
197.481126
 42
0.000000
  0
VERTEX
  8
0
 10
99.571080
 20
193.962253
 42
0.000000
  0
VERTEX
  8
0
 10
103.035540
 20
190.499718
 42
0.017774
  0
VERTEX
  8
0
 10
105.046398
 20
188.628003
 42
0.079830
  0
VERTEX
  8
0
 10
106.408413
 20
187.784092
 42
0.112044
  0
VERTEX
  8
0
 10
107.726391
 20
187.554825
 42
0.052730
  0
VERTEX
  8
0
 10
109.443235
 20
187.825357
 42
0.051235
  0
VERTEX
  8
0
 10
110.839404
 20
188.357316
 42
0.079419
  0
VERTEX
  8
0
 10
111.883179
 20
189.110253
 42
0.079716
  0
VERTEX
  8
0
 10
112.637650
 20
190.148787
 42
0.052010
  0
VERTEX
  8
0
 10
113.167876
 20
191.535321
 42
0.051286
  0
VERTEX
  8
0
 10
113.437042
 20
193.215577
 42
0.106544
  0
VERTEX
  8
0
 10
113.231893
 20
194.520579
 42
0.080251
  0
VERTEX
  8
0
 10
112.454181
 20
195.852893
 42
0.020315
  0
VERTEX
  8
0
 10
110.778475
 20
197.728556
 42
0.008921
  0
VERTEX
  8
0
 10
109.519483
 20
198.981968
 42
0.012934
  0
VERTEX
  8
0
 10
108.360589
 20
200.039013
 42
0.008533
  0
VERTEX
  8
0
 10
107.366480
 20
200.870471
 42
0.171521
  0
VERTEX
  8
0
 10
107.000000
 20
201.000000
 42
0.173914
  0
VERTEX
  8
0
 10
106.629962
 20
200.867276
 42
0.007617
  0
VERTEX
  8
0
 10
105.568964
 20
199.966331
 42
0.012149
  0
VERTEX
  8
0
 10
104.332620
 20
198.829407
 42
0.008298
  0
SEQEND
  0
POLYLINE
  8
0
 66
1
 70
1
  0
VERTEX
  8
0
 10
88.981707
 20
183.481126
 42
0.000000
  0
VERTEX
  8
0
 10
85.571080
 20
179.962253
 42
0.000000
  0
VERTEX
  8
0
 10
89.035540
 20
176.499718
 42
0.017774
  0
VERTEX
  8
0
 10
91.046398
 20
174.628003
 42
0.079830
  0
VERTEX
  8
0
 10
92.408413
 20
173.784092
 42
0.112044
  0
VERTEX
  8
0
 10
93.726391
 20
173.554825
 42
0.052730
  0
VERTEX
  8
0
 10
95.443235
 20
173.825357
 42
0.051235
  0
VERTEX
  8
0
 10
96.839404
 20
174.357316
 42
0.079419
  0
VERTEX
  8
0
 10
97.883179
 20
175.110253
 42
0.079716
  0
VERTEX
  8
0
 10
98.637650
 20
176.148787
 42
0.052010
  0
VERTEX
  8
0
 10
99.167876
 20
177.535321
 42
0.051286
  0
VERTEX
  8
0
 10
99.437042
 20
179.215577
 42
0.106544
  0
VERTEX
  8
0
 10
99.231893
 20
180.520579
 42
0.080251
  0
VERTEX
  8
0
 10
98.454181
 20
181.852893
 42
0.020315
  0
VERTEX
  8
0
 10
96.778475
 20
183.728556
 42
0.008921
  0
VERTEX
  8
0
 10
95.519483
 20
184.981968
 42
0.012934
  0
VERTEX
  8
0
 10
94.360589
 20
186.039013
 42
0.008533
  0
VERTEX
  8
0
 10
93.366480
 20
186.870471
 42
0.171521
  0
VERTEX
  8
0
 10
93.000000
 20
187.000000
 42
0.173914
  0
VERTEX
  8
0
 10
92.629962
 20
186.867276
 42
0.007617
  0
VERTEX
  8
0
 10
91.568964
 20
185.966331
 42
0.012149
  0
VERTEX
  8
0
 10
90.332620
 20
184.829407
 42
0.008298
  0
SEQEND
  0
POLYLINE
  8
0
 66
1
 70
1
  0
VERTEX
  8
0
 10
74.981707
 20
169.481126
 42
0.000000
  0
VERTEX
  8
0
 10
71.571080
 20
165.962253
 42
0.000000
  0
VERTEX
  8
0
 10
75.148667
 20
162.384666
 42
0.011131
  0
VERTEX
  8
0
 10
77.484706
 20
160.150382
 42
0.111248
  0
VERTEX
  8
0
 10
78.651448
 20
159.483445
 42
0.163553
  0
VERTEX
  8
0
 10
79.802722
 20
159.513994
 42
0.031632
  0
VERTEX
  8
0
 10
81.736023
 20
160.363492
 42
0.077502
  0
VERTEX
  8
0
 10
84.327431
 20
162.260658
 42
0.170135
  0
VERTEX
  8
0
 10
85.375952
 20
164.447356
 42
0.157385
  0
VERTEX
  8
0
 10
84.866250
 20
166.934459
 42
0.063944
  0
VERTEX
  8
0
 10
82.771787
 20
169.735456
 42
0.008939
  0
VERTEX
  8
0
 10
81.515358
 20
170.986223
 42
0.012958
  0
VERTEX
  8
0
 10
80.358625
 20
172.041040
 42
0.008560
  0
VERTEX
  8
0
 10
79.366375
 20
172.870566
 42
0.171449
  0
VERTEX
  8
0
 10
79.000000
 20
173.000000
 42
0.173914
  0
VERTEX
  8
0
 10
78.629962
 20
172.867276
 42
0.007617
  0
VERTEX
  8
0
 10
77.568964
 20
171.966331
 42
0.012149
  0
VERTEX
  8
0
 10
76.332620
 20
170.829407
 42
0.008298
  0
SEQEND
  0
POLYLINE
  8
0
 66
1
 70
1
  0
VERTEX
  8
0
 10
268.093913
 20
197.596893
 42
0.000000
  0
VERTEX
  8
0
 10
264.795492
 20
194.193787
 42
0.000000
  0
VERTEX
  8
0
 10
268.347243
 20
190.346893
 42
0.010285
  0
VERTEX
  8
0
 10
270.657366
 20
187.945824
 42
0.108890
  0
VERTEX
  8
0
 10
271.796636
 20
187.220070
 42
0.177202
  0
VERTEX
  8
0
 10
272.904173
 20
187.220602
 42
0.037775
  0
VERTEX
  8
0
 10
274.686294
 20
188.030935
 42
0.051253
  0
VERTEX
  8
0
 10
275.823893
 20
188.817059
 42
0.035624
  0
VERTEX
  8
0
 10
276.937001
 20
189.914519
 42
0.036009
  0
VERTEX
  8
0
 10
277.863894
 20
191.135633
 42
0.059849
  0
VERTEX
  8
0
 10
278.434193
 20
192.293315
 42
0.051029
  0
VERTEX
  8
0
 10
278.822103
 20
193.904939
 42
0.137611
  0
VERTEX
  8
0
 10
278.660090
 20
195.060685
 42
0.095588
  0
VERTEX
  8
0
 10
277.866801
 20
196.211879
 42
0.017384
  0
VERTEX
  8
0
 10
275.947396
 20
197.971740
 42
0.006750
  0
VERTEX
  8
0
 10
274.586351
 20
199.103778
 42
0.009732
  0
VERTEX
  8
0
 10
273.349984
 20
200.064982
 42
0.005935
  0
VERTEX
  8
0
 10
272.293785
 20
200.834262
 42
0.136941
  0
VERTEX
  8
0
 10
271.946167
 20
200.959359
 42
0.192468
  0
VERTEX
  8
0
 10
271.605531
 20
200.851356
 42
0.007573
  0
VERTEX
  8
0
 10
270.586111
 20
199.988399
 42
0.012467
  0
VERTEX
  8
0
 10
269.397981
 20
198.897967
 42
0.008385
  0
SEQEND
  0
POLYLINE
  8
0
 66
1
 70
1
  0
VERTEX
  8
0
 10
282.589916
 20
184.093852
 42
0.062808
  0
VERTEX
  8
0
 10
280.839019
 20
181.734991
 42
0.156197
  0
VERTEX
  8
0
 10
280.410248
 20
179.653915
 42
0.135574
  0
VERTEX
  8
0
 10
281.255121
 20
177.515099
 42
0.042750
  0
VERTEX
  8
0
 10
283.571078
 20
174.933225
 42
0.020660
  0
VERTEX
  8
0
 10
285.153277
 20
173.565351
 42
0.126938
  0
VERTEX
  8
0
 10
286.129600
 20
173.130482
 42
0.142210
  0
VERTEX
  8
0
 10
287.139534
 20
173.248179
 42
0.028239
  0
VERTEX
  8
0
 10
288.790689
 20
174.055993
 42
0.052095
  0
VERTEX
  8
0
 10
289.888328
 20
174.832276
 42
0.035252
  0
VERTEX
  8
0
 10
290.967667
 20
175.921880
 42
0.035495
  0
VERTEX
  8
0
 10
291.871228
 20
177.137409
 42
0.057588
  0
VERTEX
  8
0
 10
292.434193
 20
178.293315
 42
0.051029
  0
VERTEX
  8
0
 10
292.822103
 20
179.904939
 42
0.137611
  0
VERTEX
  8
0
 10
292.660090
 20
181.060685
 42
0.095588
  0
VERTEX
  8
0
 10
291.866801
 20
182.211879
 42
0.017384
  0
VERTEX
  8
0
 10
289.947396
 20
183.971740
 42
0.006870
  0
VERTEX
  8
0
 10
288.585700
 20
185.103766
 42
0.009884
  0
VERTEX
  8
0
 10
287.347318
 20
186.064982
 42
0.006097
  0
VERTEX
  8
0
 10
286.289625
 20
186.833072
 42
0.136800
  0
VERTEX
  8
0
 10
285.937091
 20
186.959359
 42
0.187062
  0
VERTEX
  8
0
 10
285.599621
 20
186.855789
 42
0.010100
  0
VERTEX
  8
0
 10
284.721659
 20
186.134381
 42
0.014636
  0
VERTEX
  8
0
 10
283.697561
 20
185.204359
 42
0.010063
  0
SEQEND
  0
POLYLINE
  8
0
 66
1
 70
1
  0
VERTEX
  8
0
 10
296.687091
 20
170.195281
 42
0.028175
  0
VERTEX
  8
0
 10
294.681071
 20
167.850281
 42
0.171700
  0
VERTEX
  8
0
 10
294.199961
 20
166.354666
 42
0.149435
  0
VERTEX
  8
0
 10
294.732901
 20
164.775771
 42
0.019812
  0
VERTEX
  8
0
 10
296.924746
 20
161.962226
 42
0.012603
  0
VERTEX
  8
0
 10
298.828062
 20
159.821017
 42
0.124186
  0
VERTEX
  8
0
 10
299.834293
 20
159.173442
 42
0.176166
  0
VERTEX
  8
0
 10
300.873034
 20
159.198399
 42
0.031454
  0
VERTEX
  8
0
 10
302.661544
 20
160.030935
 42
0.051194
  0
VERTEX
  8
0
 10
303.808615
 20
160.817117
 42
0.035797
  0
VERTEX
  8
0
 10
304.929731
 20
161.914519
 42
0.036214
  0
VERTEX
  8
0
 10
305.862137
 20
163.135640
 42
0.060463
  0
VERTEX
  8
0
 10
306.434193
 20
164.293315
 42
0.051029
  0
VERTEX
  8
0
 10
306.822103
 20
165.904939
 42
0.137611
  0
VERTEX
  8
0
 10
306.660090
 20
167.060685
 42
0.095588
  0
VERTEX
  8
0
 10
305.866801
 20
168.211879
 42
0.017384
  0
VERTEX
  8
0
 10
303.947396
 20
169.971740
 42
0.006870
  0
VERTEX
  8
0
 10
302.585700
 20
171.103766
 42
0.009884
  0
VERTEX
  8
0
 10
301.347318
 20
172.064982
 42
0.006097
  0
VERTEX
  8
0
 10
300.289625
 20
172.833072
 42
0.136800
  0
VERTEX
  8
0
 10
299.937091
 20
172.959359
 42
0.185643
  0
VERTEX
  8
0
 10
299.601312
 20
172.857315
 42
0.010659
  0
VERTEX
  8
0
 10
298.750204
 20
172.164176
 42
0.015087
  0
VERTEX
  8
0
 10
297.757491
 20
171.266897
 42
0.010424
  0
SEQEND
  0
POLYLINE
  8
0
 66
1
 70
1
  0
VERTEX
  8
0
 10
184.000000
 20
158.125000
 42
0.012754
  0
VERTEX
  8
0
 10
184.077087
 20
155.103445
 42
0.116949
  0
VERTEX
  8
0
 10
184.442308
 20
153.851538
 42
0.177567
  0
VERTEX
  8
0
 10
185.276562
 20
153.145095
 42
0.038460
  0
VERTEX
  8
0
 10
187.125000
 20
152.625000
 42
0.020292
  0
VERTEX
  8
0
 10
190.177729
 20
152.142317
 42
0.037241
  0
VERTEX
  8
0
 10
192.691777
 20
152.037191
 42
0.046023
  0
VERTEX
  8
0
 10
194.553316
 20
152.270419
 42
0.202867
  0
VERTEX
  8
0
 10
195.436038
 20
152.896507
 42
0.127512
  0
VERTEX
  8
0
 10
195.619529
 20
153.489854
 42
0.015063
  0
VERTEX
  8
0
 10
195.642001
 20
154.881941
 42
0.017232
  0
VERTEX
  8
0
 10
195.560258
 20
156.568074
 42
0.013329
  0
VERTEX
  8
0
 10
195.359131
 20
158.396507
 42
0.000000
  0
VERTEX
  8
0
 10
194.728152
 20
163.000000
 42
0.000000
  0
VERTEX
  8
0
 10
189.364076
 20
163.000000
 42
0.000000
  0
VERTEX
  8
0
 10
184.000000
 20
163.000000
 42
0.000000
  0
SEQEND
  0
ENDSEC
  0
EOF
