  0
SECTION
  2
HEADER
  9
$ACADVER
  1
AC1006
  9
$EXTMIN
 10
0.000000
 20
0.000000
 30
0.000000
  9
$EXTMAX
 10
428.000000
 20
443.000000
 30
0.000000
  0
ENDSEC
  0
SECTION
  2
ENTITIES
  0
POLYLINE
  8
0
 66
1
 70
1
  0
VERTEX
  8
0
 10
183.148261
 20
423.923500
 42
0.047158
  0
VERTEX
  8
0
 10
182.251651
 20
422.914576
 42
0.030119
  0
VERTEX
  8
0
 10
181.401610
 20
421.594383
 42
0.030168
  0
VERTEX
  8
0
 10
180.718802
 20
420.186331
 42
0.048490
  0
VERTEX
  8
0
 10
180.332105
 20
418.910527
 42
-0.045952
  0
VERTEX
  8
0
 10
179.943252
 20
417.603811
 42
-0.076104
  0
VERTEX
  8
0
 10
179.359853
 20
416.614899
 42
-0.088812
  0
VERTEX
  8
0
 10
178.582707
 20
415.948632
 42
-0.088724
  0
VERTEX
  8
0
 10
177.622406
 20
415.593093
 42
0.024780
  0
VERTEX
  8
0
 10
160.241661
 20
411.575628
 42
0.013891
  0
VERTEX
  8
0
 10
139.548767
 20
405.072700
 42
0.013829
  0
VERTEX
  8
0
 10
119.760448
 20
397.626046
 42
0.032100
  0
VERTEX
  8
0
 10
105.500000
 20
390.706533
 42
0.051380
  0
VERTEX
  8
0
 10
102.115512
 20
388.297442
 42
0.102593
  0
VERTEX
  8
0
 10
100.148426
 20
385.683121
 42
0.125633
  0
VERTEX
  8
0
 10
99.606497
 20
382.874771
 42
0.101196
  0
VERTEX
  8
0
 10
100.402466
 20
379.895057
 42
-0.063636
  0
VERTEX
  8
0
 10
101.122552
 20
377.830819
 42
-0.156976
  0
VERTEX
  8
0
 10
100.959711
 20
376.253424
 42
-0.063092
  0
VERTEX
  8
0
 10
99.764174
 20
374.260302
 42
-0.004422
  0
VERTEX
  8
0
 10
95.683779
 20
369.164150
 42
-0.008516
  0
VERTEX
  8
0
 10
92.874919
 20
365.836341
 42
-0.005911
  0
VERTEX
  8
0
 10
89.593296
 20
362.168556
 42
-0.005963
  0
VERTEX
  8
0
 10
86.357751
 20
358.720647
 42
-0.012215
  0
VERTEX
  8
0
 10
83.724832
 20
356.111786
 42
0.035493
  0
VERTEX
  8
0
 10
79.641794
 20
351.671067
 42
0.037862
  0
VERTEX
  8
0
 10
76.324015
 20
346.788202
 42
0.039418
  0
VERTEX
  8
0
 10
73.896518
 20
341.662965
 42
0.046698
  0
VERTEX
  8
0
 10
72.466442
 20
336.500000
 42
-0.038532
  0
VERTEX
  8
0
 10
71.881123
 20
334.244556
 42
-0.006826
  0
VERTEX
  8
0
 10
70.404962
 20
330.131663
 42
-0.007352
  0
VERTEX
  8
0
 10
68.533723
 20
325.349030
 42
-0.006562
  0
VERTEX
  8
0
 10
66.452705
 20
320.437577
 42
0.023046
  0
VERTEX
  8
0
 10
56.406936
 20
294.368477
 42
0.032500
  0
VERTEX
  8
0
 10
50.085459
 20
270.291021
 42
0.035728
  0
VERTEX
  8
0
 10
47.334998
 20
247.547458
 42
0.040002
  0
VERTEX
  8
0
 10
48.019528
 20
225.500000
 42
0.022508
  0
VERTEX
  8
0
 10
50.864817
 20
207.410179
 42
0.021213
  0
VERTEX
  8
0
 10
55.367019
 20
189.282721
 42
0.021020
  0
VERTEX
  8
0
 10
61.438391
 20
171.434779
 42
0.021096
  0
VERTEX
  8
0
 10
68.980580
 20
154.181515
 42
0.010563
  0
VERTEX
  8
0
 10
73.770909
 20
144.876422
 42
0.055533
  0
VERTEX
  8
0
 10
77.047547
 20
140.163208
 42
0.106703
  0
VERTEX
  8
0
 10
80.185888
 20
137.827823
 42
0.107193
  0
VERTEX
  8
0
 10
84.002879
 20
137.000000
 42
-0.233912
  0
VERTEX
  8
0
 10
85.838125
 20
136.091731
 42
-0.044377
  0
VERTEX
  8
0
 10
87.889005
 20
132.842052
 42
-0.018020
  0
VERTEX
  8
0
 10
90.924785
 20
126.364163
 42
-0.001776
  0
VERTEX
  8
0
 10
97.606947
 20
110.500000
 42
0.009167
  0
VERTEX
  8
0
 10
103.448444
 20
97.185339
 42
0.004902
  0
VERTEX
  8
0
 10
111.127000
 20
80.941603
 42
0.001261
  0
VERTEX
  8
0
 10
119.196419
 20
64.401743
 42
0.141125
  0
VERTEX
  8
0
 10
120.822055
 20
62.609976
 42
0.066975
  0
VERTEX
  8
0
 10
121.490728
 20
62.311506
 42
0.007862
  0
VERTEX
  8
0
 10
123.067228
 20
61.874601
 42
0.009307
  0
VERTEX
  8
0
 10
124.968745
 20
61.417295
 42
0.007495
  0
VERTEX
  8
0
 10
127.028277
 20
60.994637
 42
0.016234
  0
VERTEX
  8
0
 10
129.887603
 20
60.547991
 42
0.053694
  0
VERTEX
  8
0
 10
131.790760
 20
60.519052
 42
0.069179
  0
VERTEX
  8
0
 10
133.386452
 20
60.893041
 42
0.041325
  0
VERTEX
  8
0
 10
135.143837
 20
61.744038
 42
0.000000
  0
VERTEX
  8
0
 10
138.076437
 20
63.476367
 42
0.000000
  0
VERTEX
  8
0
 10
140.687692
 20
59.988184
 42
0.032819
  0
VERTEX
  8
0
 10
145.753647
 20
54.073033
 42
0.012217
  0
VERTEX
  8
0
 10
153.596769
 20
46.429205
 42
0.012323
  0
VERTEX
  8
0
 10
161.875940
 20
39.117073
 42
0.029480
  0
VERTEX
  8
0
 10
168.447799
 20
34.225403
 42
0.024214
  0
VERTEX
  8
0
 10
180.825257
 20
26.931507
 42
0.023580
  0
VERTEX
  8
0
 10
193.958043
 20
20.797912
 42
0.024907
  0
VERTEX
  8
0
 10
206.439815
 20
16.382906
 42
0.049620
  0
VERTEX
  8
0
 10
216.719899
 20
14.394982
 42
0.018910
  0
VERTEX
  8
0
 10
220.646548
 20
14.182562
 42
0.038753
  0
VERTEX
  8
0
 10
223.721214
 20
14.371088
 42
0.034374
  0
VERTEX
  8
0
 10
226.954747
 20
15.051602
 42
0.011999
  0
VERTEX
  8
0
 10
231.500000
 20
16.458334
 42
0.027865
  0
VERTEX
  8
0
 10
246.452368
 20
22.428026
 42
0.027953
  0
VERTEX
  8
0
 10
260.632045
 20
30.017989
 42
0.029369
  0
VERTEX
  8
0
 10
273.092355
 20
38.654142
 42
0.042859
  0
VERTEX
  8
0
 10
282.856084
 20
47.758406
 42
0.000721
  0
VERTEX
  8
0
 10
285.785425
 20
51.010531
 42
0.000653
  0
VERTEX
  8
0
 10
288.803977
 20
54.380285
 42
0.000654
  0
VERTEX
  8
0
 10
291.498602
 20
57.404293
 42
0.002095
  0
VERTEX
  8
0
 10
293.283605
 20
59.429797
 42
-0.012882
  0
VERTEX
  8
0
 10
295.414133
 20
61.744735
 42
-0.095530
  0
VERTEX
  8
0
 10
296.635692
 20
62.599618
 42
-0.150327
  0
VERTEX
  8
0
 10
297.838762
 20
62.746771
 42
-0.047060
  0
VERTEX
  8
0
 10
299.608824
 20
62.255446
 42
0.018451
  0
VERTEX
  8
0
 10
300.984103
 20
61.787587
 42
0.009230
  0
VERTEX
  8
0
 10
302.753720
 20
61.292964
 42
0.009151
  0
VERTEX
  8
0
 10
304.606292
 20
60.847862
 42
0.013341
  0
VERTEX
  8
0
 10
306.254902
 20
60.529417
 42
0.028094
  0
VERTEX
  8
0
 10
308.332175
 20
60.304290
 42
0.086553
  0
VERTEX
  8
0
 10
309.730035
 20
60.474112
 42
0.095087
  0
VERTEX
  8
0
 10
310.913529
 20
61.095034
 42
0.038349
  0
VERTEX
  8
0
 10
312.254902
 20
62.343246
 42
0.071984
  0
VERTEX
  8
0
 10
314.903538
 20
66.206639
 42
0.003772
  0
VERTEX
  8
0
 10
321.447433
 20
79.763467
 42
0.006076
  0
VERTEX
  8
0
 10
328.752530
 20
95.691116
 42
0.005000
  0
VERTEX
  8
0
 10
336.170242
 20
112.857918
 42
-0.001069
  0
VERTEX
  8
0
 10
338.879055
 20
119.264811
 42
-0.001496
  0
VERTEX
  8
0
 10
341.328898
 20
124.977337
 42
-0.000889
  0
VERTEX
  8
0
 10
343.416389
 20
129.781558
 42
-0.019933
  0
VERTEX
  8
0
 10
344.077507
 20
131.144823
 42
-0.098706
  0
VERTEX
  8
0
 10
344.813813
 20
132.040282
 42
-0.023314
  0
VERTEX
  8
0
 10
346.374990
 20
133.200780
 42
-0.023109
  0
VERTEX
  8
0
 10
348.329411
 20
134.389388
 42
-0.020954
  0
VERTEX
  8
0
 10
350.449026
 20
135.435038
 42
0.026082
  0
VERTEX
  8
0
 10
353.487064
 20
136.972687
 42
0.064155
  0
VERTEX
  8
0
 10
355.476309
 20
138.481245
 42
0.055862
  0
VERTEX
  8
0
 10
357.172803
 20
140.569624
 42
0.016080
  0
VERTEX
  8
0
 10
359.310383
 20
144.148133
 42
0.033560
  0
VERTEX
  8
0
 10
369.074448
 20
164.931005
 42
0.026076
  0
VERTEX
  8
0
 10
376.934279
 20
188.650919
 42
0.025572
  0
VERTEX
  8
0
 10
381.795242
 20
210.730268
 42
0.093457
  0
VERTEX
  8
0
 10
381.498350
 20
225.000000
 42
0.061433
  0
VERTEX
  8
0
 10
380.505394
 20
227.899996
 42
0.058657
  0
VERTEX
  8
0
 10
378.825834
 20
230.521618
 42
0.065249
  0
VERTEX
  8
0
 10
376.836525
 20
232.387993
 42
0.157076
  0
VERTEX
  8
0
 10
374.936470
 20
233.000000
 42
0.130528
  0
VERTEX
  8
0
 10
372.271443
 20
232.292222
 42
0.126386
  0
VERTEX
  8
0
 10
370.270426
 20
230.349515
 42
0.080144
  0
VERTEX
  8
0
 10
368.849323
 20
226.880457
 42
0.027072
  0
VERTEX
  8
0
 10
367.897097
 20
221.486068
 42
-0.024314
  0
VERTEX
  8
0
 10
365.568266
 20
207.854628
 42
-0.017426
  0
VERTEX
  8
0
 10
361.702777
 20
192.883393
 42
-0.017182
  0
VERTEX
  8
0
 10
356.713116
 20
177.921134
 42
-0.020892
  0
VERTEX
  8
0
 10
350.986500
 20
164.301443
 42
0.000000
  0
VERTEX
  8
0
 10
346.187680
 20
154.102887
 42
0.000000
  0
VERTEX
  8
0
 10
343.115179
 20
155.262626
 42
0.161490
  0
VERTEX
  8
0
 10
339.450519
 20
155.411889
 42
0.161259
  0
VERTEX
  8
0
 10
336.420346
 20
153.342071
 42
0.060097
  0
VERTEX
  8
0
 10
333.219258
 20
147.900044
 42
0.007886
  0
VERTEX
  8
0
 10
328.036599
 20
135.500000
 42
-0.003491
  0
VERTEX
  8
0
 10
322.235381
 20
121.269696
 42
-0.003787
  0
VERTEX
  8
0
 10
316.388808
 20
107.504750
 42
-0.003990
  0
VERTEX
  8
0
 10
311.065460
 20
95.494363
 42
-0.010573
  0
VERTEX
  8
0
 10
307.010618
 20
87.021035
 42
0.000000
  0
VERTEX
  8
0
 10
303.838315
 20
80.736737
 42
0.000000
  0
VERTEX
  8
0
 10
301.950177
 20
83.841531
 42
0.046288
  0
VERTEX
  8
0
 10
301.030804
 20
85.079206
 42
0.036971
  0
VERTEX
  8
0
 10
299.831940
 20
86.231249
 42
0.038203
  0
VERTEX
  8
0
 10
298.550589
 20
87.136775
 42
0.073364
  0
VERTEX
  8
0
 10
297.390587
 20
87.616817
 42
0.087794
  0
VERTEX
  8
0
 10
294.073037
 20
87.851979
 42
0.123322
  0
VERTEX
  8
0
 10
291.296412
 20
86.839133
 42
0.089153
  0
VERTEX
  8
0
 10
288.713731
 20
84.319623
 42
0.029935
  0
VERTEX
  8
0
 10
285.904510
 20
79.839752
 42
-0.045252
  0
VERTEX
  8
0
 10
276.491213
 20
65.801452
 42
-0.042833
  0
VERTEX
  8
0
 10
264.546468
 20
53.402435
 42
-0.041215
  0
VERTEX
  8
0
 10
250.200486
 20
42.808829
 42
-0.035839
  0
VERTEX
  8
0
 10
233.641160
 20
34.145095
 42
-0.005786
  0
VERTEX
  8
0
 10
229.774722
 20
32.515812
 42
-0.005140
  0
VERTEX
  8
0
 10
225.716466
 20
30.909194
 42
-0.005165
  0
VERTEX
  8
0
 10
222.034871
 20
29.538765
 42
-0.015773
  0
VERTEX
  8
0
 10
219.500000
 20
28.714254
 42
-0.022800
  0
VERTEX
  8
0
 10
216.365299
 20
27.955976
 42
-0.065958
  0
VERTEX
  8
0
 10
214.140945
 20
27.822307
 42
-0.049683
  0
VERTEX
  8
0
 10
211.630455
 20
28.255806
 42
-0.008913
  0
VERTEX
  8
0
 10
207.070916
 20
29.606995
 42
-0.025391
  0
VERTEX
  8
0
 10
198.310724
 20
32.871342
 42
-0.016495
  0
VERTEX
  8
0
 10
188.535175
 20
37.478897
 42
-0.016498
  0
VERTEX
  8
0
 10
179.088208
 20
42.718992
 42
-0.025470
  0
VERTEX
  8
0
 10
171.332562
 20
47.915821
 42
-0.023424
  0
VERTEX
  8
0
 10
163.793930
 20
54.113976
 42
-0.024288
  0
VERTEX
  8
0
 10
156.963207
 20
60.919199
 42
-0.024240
  0
VERTEX
  8
0
 10
150.812509
 20
68.368056
 42
-0.023128
  0
VERTEX
  8
0
 10
145.308199
 20
76.491683
 42
0.006129
  0
VERTEX
  8
0
 10
143.080506
 20
80.032925
 42
0.007946
  0
VERTEX
  8
0
 10
140.947434
 20
83.220994
 42
0.006190
  0
VERTEX
  8
0
 10
139.092547
 20
85.830538
 42
0.068531
  0
VERTEX
  8
0
 10
138.206006
 20
86.750000
 42
0.112069
  0
VERTEX
  8
0
 10
135.864384
 20
87.862621
 42
0.098996
  0
VERTEX
  8
0
 10
133.158816
 20
87.924897
 42
0.089327
  0
VERTEX
  8
0
 10
130.407024
 20
86.912562
 42
0.072311
  0
VERTEX
  8
0
 10
127.946874
 20
84.943129
 42
0.000000
  0
VERTEX
  8
0
 10
125.091329
 20
81.886258
 42
0.000000
  0
VERTEX
  8
0
 10
122.667626
 20
86.693129
 42
-0.011696
  0
VERTEX
  8
0
 10
119.528354
 20
93.299139
 42
-0.002940
  0
VERTEX
  8
0
 10
114.729908
 20
104.209306
 42
-0.003098
  0
VERTEX
  8
0
 10
109.587297
 20
116.296004
 42
-0.003956
  0
VERTEX
  8
0
 10
105.005844
 20
127.500000
 42
0.006229
  0
VERTEX
  8
0
 10
98.070217
 20
144.243531
 42
0.047242
  0
VERTEX
  8
0
 10
93.980194
 20
151.737714
 42
0.123550
  0
VERTEX
  8
0
 10
90.315922
 20
155.023186
 42
0.172297
  0
VERTEX
  8
0
 10
85.995188
 20
155.649038
 42
-0.046424
  0
VERTEX
  8
0
 10
84.248607
 20
155.465651
 42
-0.154630
  0
VERTEX
  8
0
 10
83.158080
 20
155.797022
 42
-0.107810
  0
VERTEX
  8
0
 10
82.233607
 20
156.781101
 42
-0.016912
  0
VERTEX
  8
0
 10
80.937289
 20
159.122924
 42
-0.022224
  0
VERTEX
  8
0
 10
78.040973
 20
165.483421
 42
-0.009745
  0
VERTEX
  8
0
 10
74.749116
 20
174.140370
 42
-0.009565
  0
VERTEX
  8
0
 10
71.579458
 20
183.555105
 42
-0.011930
  0
VERTEX
  8
0
 10
69.013857
 20
192.418458
 42
-0.034885
  0
VERTEX
  8
0
 10
64.015706
 20
218.667492
 42
-0.042528
  0
VERTEX
  8
0
 10
63.180405
 20
243.656027
 42
-0.042280
  0
VERTEX
  8
0
 10
66.588900
 20
268.545325
 42
-0.033836
  0
VERTEX
  8
0
 10
74.284849
 20
294.500000
 42
-0.009245
  0
VERTEX
  8
0
 10
77.252155
 20
302.051855
 42
-0.172437
  0
VERTEX
  8
0
 10
78.940476
 20
303.921817
 42
-0.271637
  0
VERTEX
  8
0
 10
81.052528
 20
303.846622
 42
-0.023562
  0
VERTEX
  8
0
 10
85.632328
 20
300.624017
 42
0.036485
  0
VERTEX
  8
0
 10
90.486233
 20
297.392632
 42
0.028298
  0
VERTEX
  8
0
 10
96.181992
 20
294.586017
 42
0.028813
  0
VERTEX
  8
0
 10
101.708524
 20
292.608393
 42
0.073785
  0
VERTEX
  8
0
 10
105.906550
 20
292.022236
 42
0.108807
  0
VERTEX
  8
0
 10
108.642273
 20
292.649339
 42
0.088954
  0
VERTEX
  8
0
 10
111.091766
 20
294.396339
 42
0.056573
  0
VERTEX
  8
0
 10
113.597551
 20
297.619717
 42
0.017484
  0
VERTEX
  8
0
 10
116.618603
 20
302.985260
 42
-0.039762
  0
VERTEX
  8
0
 10
120.347077
 20
308.967789
 42
-0.023091
  0
VERTEX
  8
0
 10
125.692940
 20
315.538413
 42
-0.021637
  0
VERTEX
  8
0
 10
132.141842
 20
322.156916
 42
-0.020599
  0
VERTEX
  8
0
 10
139.241698
 20
328.307961
 42
0.021166
  0
VERTEX
  8
0
 10
141.098426
 20
329.920250
 42
0.023064
  0
VERTEX
  8
0
 10
142.757240
 20
331.640221
 42
0.023329
  0
VERTEX
  8
0
 10
144.030481
 20
333.232454
 42
0.095786
  0
VERTEX
  8
0
 10
144.550946
 20
334.346964
 42
0.127167
  0
VERTEX
  8
0
 10
144.529374
 20
337.397946
 42
0.028010
  0
VERTEX
  8
0
 10
142.888156
 20
342.416766
 42
0.029767
  0
VERTEX
  8
0
 10
140.473631
 20
347.659746
 42
0.044715
  0
VERTEX
  8
0
 10
137.713590
 20
351.868265
 42
0.034440
  0
VERTEX
  8
0
 10
134.419241
 20
355.485764
 42
0.030852
  0
VERTEX
  8
0
 10
130.541905
 20
358.762082
 42
0.031031
  0
VERTEX
  8
0
 10
126.316884
 20
361.517230
 42
0.036034
  0
VERTEX
  8
0
 10
121.983869
 20
363.577141
 42
-0.003569
  0
VERTEX
  8
0
 10
118.146829
 20
365.104708
 42
-0.123382
  0
VERTEX
  8
0
 10
117.367731
 20
365.674597
 42
-0.286760
  0
VERTEX
  8
0
 10
117.269527
 20
366.396510
 42
-0.023665
  0
VERTEX
  8
0
 10
118.168980
 20
368.164354
 42
0.023085
  0
VERTEX
  8
0
 10
118.782854
 20
369.367449
 42
0.008250
  0
VERTEX
  8
0
 10
119.549638
 20
371.135779
 42
0.008165
  0
VERTEX
  8
0
 10
120.328128
 20
373.105886
 42
0.009560
  0
VERTEX
  8
0
 10
121.000000
 20
375.000000
 42
-0.040010
  0
VERTEX
  8
0
 10
122.156227
 20
377.721615
 42
-0.092917
  0
VERTEX
  8
0
 10
123.522683
 20
379.457031
 42
-0.056357
  0
VERTEX
  8
0
 10
125.822646
 20
381.050491
 42
-0.007924
  0
VERTEX
  8
0
 10
130.958484
 20
383.707632
 42
-0.028412
  0
VERTEX
  8
0
 10
143.935880
 20
389.267859
 42
-0.013121
  0
VERTEX
  8
0
 10
161.364233
 20
395.077182
 42
-0.011490
  0
VERTEX
  8
0
 10
178.317467
 20
399.815231
 42
-0.062467
  0
VERTEX
  8
0
 10
187.763562
 20
401.000000
 42
0.065735
  0
VERTEX
  8
0
 10
189.095728
 20
401.175900
 42
0.029682
  0
VERTEX
  8
0
 10
190.770266
 20
401.734375
 42
0.028754
  0
VERTEX
  8
0
 10
192.493571
 20
402.543040
 42
0.034862
  0
VERTEX
  8
0
 10
194.000000
 20
403.500000
 42
-0.016417
  0
VERTEX
  8
0
 10
195.390631
 20
404.457110
 42
-0.019414
  0
VERTEX
  8
0
 10
196.766934
 20
405.265625
 42
-0.018613
  0
VERTEX
  8
0
 10
197.966899
 20
405.852839
 42
-0.104851
  0
VERTEX
  8
0
 10
198.660946
 20
406.000000
 42
-0.141176
  0
VERTEX
  8
0
 10
199.358269
 20
405.799106
 42
-0.019133
  0
VERTEX
  8
0
 10
200.627211
 20
404.932359
 42
-0.020800
  0
VERTEX
  8
0
 10
202.083018
 20
403.757238
 42
-0.016174
  0
VERTEX
  8
0
 10
203.567856
 20
402.365477
 42
0.054353
  0
VERTEX
  8
0
 10
206.914327
 20
399.676988
 42
0.034163
  0
VERTEX
  8
0
 10
211.322076
 20
397.269601
 42
0.034461
  0
VERTEX
  8
0
 10
215.859748
 20
395.547586
 42
0.073585
  0
VERTEX
  8
0
 10
219.560386
 20
395.000000
 42
0.070849
  0
VERTEX
  8
0
 10
222.033142
 20
395.352151
 42
0.045908
  0
VERTEX
  8
0
 10
224.726345
 20
396.411251
 42
0.043964
  0
VERTEX
  8
0
 10
227.320240
 20
398.016953
 42
0.048470
  0
VERTEX
  8
0
 10
229.502361
 20
400.005548
 42
-0.018371
  0
VERTEX
  8
0
 10
230.459866
 20
400.989772
 42
-0.010058
  0
VERTEX
  8
0
 10
231.700185
 20
402.127550
 42
-0.010012
  0
VERTEX
  8
0
 10
233.007899
 20
403.233876
 42
-0.015720
  0
VERTEX
  8
0
 10
234.179119
 20
404.125549
 42
-0.028241
  0
VERTEX
  8
0
 10
235.811118
 20
405.155115
 42
-0.106690
  0
VERTEX
  8
0
 10
236.960793
 20
405.502907
 42
-0.099147
  0
VERTEX
  8
0
 10
238.196617
 20
405.358326
 42
-0.022590
  0
VERTEX
  8
0
 10
240.179119
 20
404.613732
 42
0.021772
  0
VERTEX
  8
0
 10
243.729582
 20
403.273610
 42
0.016574
  0
VERTEX
  8
0
 10
247.720493
 20
402.107682
 42
0.015862
  0
VERTEX
  8
0
 10
251.984117
 20
401.157071
 42
0.015239
  0
VERTEX
  8
0
 10
256.356665
 20
400.464107
 42
-0.030264
  0
VERTEX
  8
0
 10
265.405561
 20
398.750013
 42
-0.013396
  0
VERTEX
  8
0
 10
277.116264
 20
395.452066
 42
-0.012398
  0
VERTEX
  8
0
 10
290.230102
 20
391.017401
 42
-0.010758
  0
VERTEX
  8
0
 10
303.750000
 20
385.736111
 42
-0.006817
  0
VERTEX
  8
0
 10
308.474917
 20
383.696250
 42
-0.085022
  0
VERTEX
  8
0
 10
310.089327
 20
382.613388
 42
-0.162167
  0
VERTEX
  8
0
 10
310.794788
 20
381.286966
 42
-0.041842
  0
VERTEX
  8
0
 10
311.000000
 20
378.839009
 42
0.045865
  0
VERTEX
  8
0
 10
311.200882
 20
376.653683
 42
0.068909
  0
VERTEX
  8
0
 10
311.803919
 20
374.839623
 42
0.053756
  0
VERTEX
  8
0
 10
312.998188
 20
372.959652
 42
0.017842
  0
VERTEX
  8
0
 10
315.127360
 20
370.477657
 42
-0.003899
  0
VERTEX
  8
0
 10
317.774588
 20
367.560426
 42
-0.093968
  0
VERTEX
  8
0
 10
318.340119
 20
366.620668
 42
-0.451760
  0
VERTEX
  8
0
 10
318.085928
 20
366.148992
 42
-0.057030
  0
VERTEX
  8
0
 10
316.783910
 20
366.000000
 42
0.069720
  0
VERTEX
  8
0
 10
313.174203
 20
365.494202
 42
0.021387
  0
VERTEX
  8
0
 10
307.939094
 20
363.752380
 42
0.022035
  0
VERTEX
  8
0
 10
302.742258
 20
361.505847
 42
0.049801
  0
VERTEX
  8
0
 10
299.095164
 20
359.261708
 42
0.034568
  0
VERTEX
  8
0
 10
293.939850
 20
354.737975
 42
0.047264
  0
VERTEX
  8
0
 10
290.024455
 20
349.964795
 42
0.054818
  0
VERTEX
  8
0
 10
287.550395
 20
345.247250
 42
0.093642
  0
VERTEX
  8
0
 10
286.727273
 20
340.890746
 42
0.070222
  0
VERTEX
  8
0
 10
287.172267
 20
337.737902
 42
0.098157
  0
VERTEX
  8
0
 10
288.473422
 20
335.214745
 42
0.058295
  0
VERTEX
  8
0
 10
291.167600
 20
332.535961
 42
0.011573
  0
VERTEX
  8
0
 10
296.617260
 20
328.453577
 42
-0.030454
  0
VERTEX
  8
0
 10
302.746267
 20
323.490438
 42
-0.031419
  0
VERTEX
  8
0
 10
308.159271
 20
317.867909
 42
-0.031281
  0
VERTEX
  8
0
 10
312.845983
 20
311.587000
 42
-0.029622
  0
VERTEX
  8
0
 10
316.806567
 20
304.658205
 42
0.013120
  0
VERTEX
  8
0
 10
318.662804
 20
301.146844
 42
0.022160
  0
VERTEX
  8
0
 10
320.422049
 20
298.321032
 42
0.024656
  0
VERTEX
  8
0
 10
321.997466
 20
296.250650
 42
0.110508
  0
VERTEX
  8
0
 10
323.201967
 20
295.333251
 42
0.020791
  0
VERTEX
  8
0
 10
326.175703
 20
294.113620
 42
0.016057
  0
VERTEX
  8
0
 10
329.507045
 20
293.026168
 42
0.015475
  0
VERTEX
  8
0
 10
332.589886
 20
292.230882
 42
0.058292
  0
VERTEX
  8
0
 10
334.570998
 20
292.021962
 42
0.090711
  0
VERTEX
  8
0
 10
337.641424
 20
292.619826
 42
0.035309
  0
VERTEX
  8
0
 10
341.563146
 20
294.484456
 42
0.032889
  0
VERTEX
  8
0
 10
345.705109
 20
297.199138
 42
0.031315
  0
VERTEX
  8
0
 10
349.527669
 20
300.475000
 42
-0.006781
  0
VERTEX
  8
0
 10
352.469540
 20
303.257597
 42
-0.073057
  0
VERTEX
  8
0
 10
353.820255
 20
304.178038
 42
-0.224596
  0
VERTEX
  8
0
 10
354.759581
 20
304.187856
 42
-0.127692
  0
VERTEX
  8
0
 10
355.657598
 20
303.453585
 42
-0.080544
  0
VERTEX
  8
0
 10
358.226481
 20
298.404291
 42
-0.007304
  0
VERTEX
  8
0
 10
362.355649
 20
284.829372
 42
-0.009891
  0
VERTEX
  8
0
 10
366.030851
 20
271.063504
 42
-0.034422
  0
VERTEX
  8
0
 10
367.608099
 20
262.000000
 42
0.023135
  0
VERTEX
  8
0
 10
368.731294
 20
254.555325
 42
0.110096
  0
VERTEX
  8
0
 10
370.457585
 20
250.640521
 42
0.164643
  0
VERTEX
  8
0
 10
373.293134
 20
248.659493
 42
0.070982
  0
VERTEX
  8
0
 10
377.915207
 20
248.000000
 42
0.020521
  0
VERTEX
  8
0
 10
380.098569
 20
248.089647
 42
0.094501
  0
VERTEX
  8
0
 10
381.313001
 20
248.426424
 42
0.144502
  0
VERTEX
  8
0
 10
382.048664
 20
249.106252
 42
0.073105
  0
VERTEX
  8
0
 10
382.534838
 20
250.282784
 42
0.115566
  0
VERTEX
  8
0
 10
382.667232
 20
258.665360
 42
0.013120
  0
VERTEX
  8
0
 10
378.118940
 20
277.206504
 42
0.016275
  0
VERTEX
  8
0
 10
371.683161
 20
298.060064
 42
0.017360
  0
VERTEX
  8
0
 10
364.026902
 20
318.000000
 42
-0.004937
  0
VERTEX
  8
0
 10
361.746115
 20
323.525811
 42
-0.005303
  0
VERTEX
  8
0
 10
359.630113
 20
328.965688
 42
-0.005034
  0
VERTEX
  8
0
 10
357.910336
 20
333.672732
 42
-0.024969
  0
VERTEX
  8
0
 10
357.103796
 20
336.372556
 42
0.034149
  0
VERTEX
  8
0
 10
355.354350
 20
341.859612
 42
0.038955
  0
VERTEX
  8
0
 10
352.933685
 20
346.810161
 42
0.038441
  0
VERTEX
  8
0
 10
349.743478
 20
351.379545
 42
0.031743
  0
VERTEX
  8
0
 10
345.693923
 20
355.728152
 42
-0.011817
  0
VERTEX
  8
0
 10
343.254872
 20
358.146627
 42
-0.007182
  0
VERTEX
  8
0
 10
340.481640
 20
361.113734
 42
-0.007194
  0
VERTEX
  8
0
 10
337.814093
 20
364.137529
 42
-0.012600
  0
VERTEX
  8
0
 10
335.706648
 20
366.726113
 42
-0.016328
  0
VERTEX
  8
0
 10
333.319651
 20
370.031452
 42
-0.045511
  0
VERTEX
  8
0
 10
331.944341
 20
372.538001
 42
-0.050782
  0
VERTEX
  8
0
 10
331.128080
 20
375.091499
 42
-0.024616
  0
VERTEX
  8
0
 10
330.585746
 20
378.480141
 42
0.018198
  0
VERTEX
  8
0
 10
330.224979
 20
380.935789
 42
0.017970
  0
VERTEX
  8
0
 10
329.685426
 20
383.369176
 42
0.018164
  0
VERTEX
  8
0
 10
329.059971
 20
385.461610
 42
0.063399
  0
VERTEX
  8
0
 10
328.443863
 20
386.726020
 42
0.144110
  0
VERTEX
  8
0
 10
322.387190
 20
391.874323
 42
0.010360
  0
VERTEX
  8
0
 10
301.856610
 20
400.494990
 42
0.015570
  0
VERTEX
  8
0
 10
279.332405
 20
408.606896
 42
0.023591
  0
VERTEX
  8
0
 10
259.250000
 20
414.108041
 42
-0.006340
  0
VERTEX
  8
0
 10
253.961347
 20
415.362399
 42
-0.031985
  0
VERTEX
  8
0
 10
251.071016
 20
416.286671
 42
-0.064001
  0
VERTEX
  8
0
 10
249.496191
 20
417.149622
 42
-0.239870
  0
VERTEX
  8
0
 10
249.000000
 20
418.124404
 42
0.141955
  0
VERTEX
  8
0
 10
248.328526
 20
420.441834
 42
0.052500
  0
VERTEX
  8
0
 10
246.199843
 20
423.134470
 42
0.052503
  0
VERTEX
  8
0
 10
243.567947
 20
425.315650
 42
0.147842
  0
VERTEX
  8
0
 10
241.304074
 20
426.000000
 42
0.097134
  0
VERTEX
  8
0
 10
237.670327
 20
425.287352
 42
0.022459
  0
VERTEX
  8
0
 10
231.981690
 20
422.663038
 42
0.023345
  0
VERTEX
  8
0
 10
225.869192
 20
419.132157
 42
0.027348
  0
VERTEX
  8
0
 10
220.440387
 20
415.213815
 42
0.000000
  0
VERTEX
  8
0
 10
214.380775
 20
410.314948
 42
0.000000
  0
VERTEX
  8
0
 10
209.440387
 20
414.636530
 42
0.037571
  0
VERTEX
  8
0
 10
204.476301
 20
418.360204
 42
0.020934
  0
VERTEX
  8
0
 10
197.937651
 20
422.161603
 42
0.018365
  0
VERTEX
  8
0
 10
191.551906
 20
425.230708
 42
0.103188
  0
VERTEX
  8
0
 10
187.863968
 20
426.000000
 42
0.066897
  0
VERTEX
  8
0
 10
186.749922
 20
425.850276
 42
0.036916
  0
VERTEX
  8
0
 10
185.452905
 20
425.390028
 42
0.036060
  0
VERTEX
  8
0
 10
184.184178
 20
424.718382
 42
0.047800
  0
SEQEND
  0
POLYLINE
  8
0
 66
1
 70
1
  0
VERTEX
  8
0
 10
112.670421
 20
349.454420
 42
0.054108
  0
VERTEX
  8
0
 10
104.412246
 20
346.860522
 42
0.070196
  0
VERTEX
  8
0
 10
97.666022
 20
342.700064
 42
0.072020
  0
VERTEX
  8
0
 10
92.460091
 20
336.932109
 42
0.060931
  0
VERTEX
  8
0
 10
88.745572
 20
329.596439
 42
-0.000867
  0
VERTEX
  8
0
 10
87.502057
 20
326.176539
 42
-0.116462
  0
VERTEX
  8
0
 10
87.260834
 20
325.810245
 42
-0.712835
  0
VERTEX
  8
0
 10
87.134184
 20
325.876506
 42
-0.002196
  0
VERTEX
  8
0
 10
87.534712
 20
328.453487
 42
-0.095403
  0
VERTEX
  8
0
 10
90.654407
 20
337.031520
 42
-0.082356
  0
VERTEX
  8
0
 10
96.863264
 20
344.352482
 42
-0.082606
  0
VERTEX
  8
0
 10
105.083397
 20
349.260128
 42
-0.096923
  0
VERTEX
  8
0
 10
114.000000
 20
350.884072
 42
0.000000
  0
VERTEX
  8
0
 10
119.500000
 20
350.812068
 42
0.000000
  0
SEQEND
  0
POLYLINE
  8
0
 66
1
 70
1
  0
VERTEX
  8
0
 10
332.901216
 20
349.551083
 42
-0.093855
  0
VERTEX
  8
0
 10
337.805781
 20
345.709840
 42
-0.063119
  0
VERTEX
  8
0
 10
341.794275
 20
339.793349
 42
-0.063103
  0
VERTEX
  8
0
 10
344.181526
 20
333.066999
 42
-0.093664
  0
VERTEX
  8
0
 10
344.357464
 20
326.833995
 42
-0.019367
  0
VERTEX
  8
0
 10
343.717695
 20
323.633445
 42
-0.211166
  0
VERTEX
  8
0
 10
342.938703
 20
322.613478
 42
-0.454871
  0
VERTEX
  8
0
 10
342.154601
 20
322.900990
 42
-0.038171
  0
VERTEX
  8
0
 10
341.458161
 20
325.241274
 42
0.064662
  0
VERTEX
  8
0
 10
339.082728
 20
331.912339
 42
0.055026
  0
VERTEX
  8
0
 10
334.977348
 20
338.162557
 42
0.054112
  0
VERTEX
  8
0
 10
329.527076
 20
343.464136
 42
0.057887
  0
VERTEX
  8
0
 10
323.182054
 20
347.335181
 42
-0.015922
  0
VERTEX
  8
0
 10
321.196842
 20
348.328672
 42
-0.036123
  0
VERTEX
  8
0
 10
319.782675
 20
349.231244
 42
-0.067979
  0
VERTEX
  8
0
 10
319.075885
 20
349.924907
 42
-0.498381
  0
VERTEX
  8
0
 10
319.182054
 20
350.315071
 42
-0.084353
  0
VERTEX
  8
0
 10
321.852373
 20
350.890105
 42
-0.024861
  0
VERTEX
  8
0
 10
326.054624
 20
350.865238
 42
-0.025018
  0
VERTEX
  8
0
 10
330.245317
 20
350.420813
 42
-0.080566
  0
SEQEND
  0
POLYLINE
  8
0
 66
1
 70
1
  0
VERTEX
  8
0
 10
324.176844
 20
331.250000
 42
-0.055228
  0
VERTEX
  8
0
 10
326.326279
 20
328.348197
 42
-0.053033
  0
VERTEX
  8
0
 10
327.823105
 20
325.007406
 42
-0.054945
  0
VERTEX
  8
0
 10
328.543532
 20
321.550836
 42
-0.070403
  0
VERTEX
  8
0
 10
328.397896
 20
318.307433
 42
-0.022276
  0
VERTEX
  8
0
 10
327.730232
 20
315.455785
 42
-0.267130
  0
VERTEX
  8
0
 10
326.952674
 20
314.695461
 42
-0.306034
  0
VERTEX
  8
0
 10
325.994530
 20
315.036382
 42
-0.026808
  0
VERTEX
  8
0
 10
324.504124
 20
317.304382
 42
0.018743
  0
VERTEX
  8
0
 10
323.492633
 20
318.899038
 42
0.006210
  0
VERTEX
  8
0
 10
321.893547
 20
321.162020
 42
0.006173
  0
VERTEX
  8
0
 10
320.057317
 20
323.628642
 42
0.006978
  0
VERTEX
  8
0
 10
318.232962
 20
325.949303
 42
-0.006316
  0
VERTEX
  8
0
 10
315.594213
 20
329.296775
 42
-0.070982
  0
VERTEX
  8
0
 10
314.765066
 20
330.768032
 42
-0.211856
  0
VERTEX
  8
0
 10
314.810850
 20
331.761184
 42
-0.119519
  0
VERTEX
  8
0
 10
315.603451
 20
332.699303
 42
-0.088215
  0
VERTEX
  8
0
 10
317.727237
 20
333.739382
 42
-0.112188
  0
VERTEX
  8
0
 10
319.900169
 20
333.861147
 42
-0.101832
  0
VERTEX
  8
0
 10
322.068781
 20
333.018955
 42
-0.062462
  0
SEQEND
  0
POLYLINE
  8
0
 66
1
 70
1
  0
VERTEX
  8
0
 10
116.000000
 20
332.187091
 42
-0.156899
  0
VERTEX
  8
0
 10
115.851658
 20
331.725999
 42
-0.014952
  0
VERTEX
  8
0
 10
115.124298
 20
330.773998
 42
-0.017932
  0
VERTEX
  8
0
 10
114.160699
 20
329.671310
 42
-0.013193
  0
VERTEX
  8
0
 10
113.018885
 20
328.518093
 42
0.017385
  0
VERTEX
  8
0
 10
111.685136
 20
327.148248
 42
0.009302
  0
VERTEX
  8
0
 10
110.129913
 20
325.370303
 42
0.009251
  0
VERTEX
  8
0
 10
108.608301
 20
323.494698
 42
0.014265
  0
VERTEX
  8
0
 10
107.370332
 20
321.812889
 42
-0.010650
  0
VERTEX
  8
0
 10
105.230875
 20
318.861943
 42
-0.300854
  0
VERTEX
  8
0
 10
104.380959
 20
318.563491
 42
-0.419882
  0
VERTEX
  8
0
 10
104.005721
 20
319.205444
 42
-0.013172
  0
VERTEX
  8
0
 10
104.972579
 20
322.416912
 42
-0.095089
  0
VERTEX
  8
0
 10
107.004633
 20
326.063576
 42
-0.036963
  0
VERTEX
  8
0
 10
111.050269
 20
330.220072
 42
-0.049671
  0
VERTEX
  8
0
 10
114.759799
 20
332.900726
 42
-0.578317
  0
SEQEND
  0
POLYLINE
  8
0
 66
1
 70
1
  0
VERTEX
  8
0
 10
168.112326
 20
341.483438
 42
0.070164
  0
VERTEX
  8
0
 10
155.365994
 20
335.884919
 42
0.052024
  0
VERTEX
  8
0
 10
143.176022
 20
326.464984
 42
0.044586
  0
VERTEX
  8
0
 10
131.542627
 20
313.196227
 42
0.028885
  0
VERTEX
  8
0
 10
120.468779
 20
296.031301
 42
0.035497
  0
VERTEX
  8
0
 10
110.023048
 20
274.084847
 42
0.068880
  0
VERTEX
  8
0
 10
105.496404
 20
255.239060
 42
0.085084
  0
VERTEX
  8
0
 10
106.684714
 20
238.664558
 42
0.087237
  0
VERTEX
  8
0
 10
113.333064
 20
223.589763
 42
0.020570
  0
VERTEX
  8
0
 10
115.218636
 20
221.006542
 42
0.006074
  0
VERTEX
  8
0
 10
118.314484
 20
217.207918
 42
0.006086
  0
VERTEX
  8
0
 10
121.902558
 20
213.017675
 42
0.006517
  0
VERTEX
  8
0
 10
125.511789
 20
209.011662
 42
-0.007440
  0
VERTEX
  8
0
 10
132.252943
 20
201.501604
 42
-0.028107
  0
VERTEX
  8
0
 10
136.127185
 20
196.514013
 42
-0.043991
  0
VERTEX
  8
0
 10
138.441580
 20
192.436878
 42
-0.052565
  0
VERTEX
  8
0
 10
139.844590
 20
188.250000
 42
0.000000
  0
VERTEX
  8
0
 10
140.787405
 20
184.000000
 42
0.000000
  0
VERTEX
  8
0
 10
125.004487
 20
184.000000
 42
0.003322
  0
VERTEX
  8
0
 10
116.057014
 20
183.940551
 42
0.021716
  0
VERTEX
  8
0
 10
111.571864
 20
183.685908
 42
0.045138
  0
VERTEX
  8
0
 10
108.849651
 20
183.161375
 42
0.100357
  0
VERTEX
  8
0
 10
106.985784
 20
182.189572
 42
0.110601
  0
VERTEX
  8
0
 10
105.478885
 20
180.286877
 42
0.092770
  0
VERTEX
  8
0
 10
104.804595
 20
177.797458
 42
0.094799
  0
VERTEX
  8
0
 10
105.081431
 20
175.280068
 42
0.122313
  0
VERTEX
  8
0
 10
106.277083
 20
173.294346
 42
0.116915
  0
VERTEX
  8
0
 10
108.733570
 20
171.779376
 42
0.033780
  0
VERTEX
  8
0
 10
113.080082
 20
170.658793
 42
0.025377
  0
VERTEX
  8
0
 10
119.211640
 20
169.831960
 42
0.010286
  0
VERTEX
  8
0
 10
127.629313
 20
169.303263
 42
0.000000
  0
VERTEX
  8
0
 10
138.758625
 20
168.833829
 42
0.000000
  0
VERTEX
  8
0
 10
139.299666
 20
164.166914
 42
-0.014637
  0
VERTEX
  8
0
 10
139.458055
 20
162.332790
 42
-0.020313
  0
VERTEX
  8
0
 10
139.484859
 20
160.683436
 42
-0.017313
  0
VERTEX
  8
0
 10
139.405944
 20
159.347290
 42
-0.181027
  0
VERTEX
  8
0
 10
139.170353
 20
158.861804
 42
-0.128548
  0
VERTEX
  8
0
 10
138.588974
 20
158.540308
 42
-0.002192
  0
VERTEX
  8
0
 10
135.025041
 20
157.649021
 42
-0.005438
  0
VERTEX
  8
0
 10
130.839046
 20
156.669781
 42
-0.003573
  0
VERTEX
  8
0
 10
126.000000
 20
155.629370
 42
0.007225
  0
VERTEX
  8
0
 10
120.396128
 20
154.381626
 42
0.017440
  0
VERTEX
  8
0
 10
116.302725
 20
153.255748
 42
0.019426
  0
VERTEX
  8
0
 10
113.406763
 20
152.224381
 42
0.140469
  0
VERTEX
  8
0
 10
112.250000
 20
151.326436
 42
0.097937
  0
VERTEX
  8
0
 10
111.204702
 20
149.084825
 42
0.088994
  0
VERTEX
  8
0
 10
111.042331
 20
146.533962
 42
0.094053
  0
VERTEX
  8
0
 10
111.766552
 20
144.205191
 42
0.127438
  0
VERTEX
  8
0
 10
113.250000
 20
142.588907
 42
0.094592
  0
VERTEX
  8
0
 10
116.928280
 20
141.093694
 42
0.035458
  0
VERTEX
  8
0
 10
122.473739
 20
140.387936
 42
0.033767
  0
VERTEX
  8
0
 10
128.742748
 20
140.461959
 42
0.036097
  0
VERTEX
  8
0
 10
134.803497
 20
141.387115
 42
-0.000927
  0
VERTEX
  8
0
 10
137.545092
 20
142.005335
 42
-0.001449
  0
VERTEX
  8
0
 10
139.907262
 20
142.526215
 42
-0.000378
  0
VERTEX
  8
0
 10
141.971364
 20
142.973467
 42
-0.053207
  0
VERTEX
  8
0
 10
142.220002
 20
143.000000
 42
-0.287145
  0
VERTEX
  8
0
 10
143.130814
 20
142.429925
 42
-0.016932
  0
VERTEX
  8
0
 10
144.515820
 20
139.315528
 42
-0.016855
  0
VERTEX
  8
0
 10
145.687344
 20
136.114859
 42
-0.292806
  0
VERTEX
  8
0
 10
145.422357
 20
135.087869
 42
-0.074735
  0
VERTEX
  8
0
 10
144.669773
 20
134.573661
 42
-0.001638
  0
VERTEX
  8
0
 10
140.668705
 20
132.656038
 42
-0.003697
  0
VERTEX
  8
0
 10
135.953185
 20
130.457551
 42
-0.002485
  0
VERTEX
  8
0
 10
130.534936
 20
128.012524
 42
0.010316
  0
VERTEX
  8
0
 10
119.680594
 20
122.908329
 42
0.082898
  0
VERTEX
  8
0
 10
115.223086
 20
119.688166
 42
0.232277
  0
VERTEX
  8
0
 10
114.204226
 20
116.647383
 42
0.137738
  0
VERTEX
  8
0
 10
115.750116
 20
113.060266
 42
0.076123
  0
VERTEX
  8
0
 10
116.930260
 20
111.986611
 42
0.066762
  0
VERTEX
  8
0
 10
118.430175
 20
111.256685
 42
0.045988
  0
VERTEX
  8
0
 10
120.530506
 20
110.770064
 42
0.015330
  0
VERTEX
  8
0
 10
123.672248
 20
110.438638
 42
0.029430
  0
VERTEX
  8
0
 10
127.625433
 20
110.376952
 42
0.055588
  0
VERTEX
  8
0
 10
130.772276
 20
110.866406
 42
0.033198
  0
VERTEX
  8
0
 10
134.655666
 20
112.204095
 42
0.004939
  0
VERTEX
  8
0
 10
142.255832
 20
115.489156
 42
-0.002900
  0
VERTEX
  8
0
 10
147.087543
 20
117.601020
 42
-0.004362
  0
VERTEX
  8
0
 10
151.327104
 20
119.381189
 42
-0.001828
  0
VERTEX
  8
0
 10
154.967638
 20
120.857086
 42
-0.095666
  0
VERTEX
  8
0
 10
155.707747
 20
121.000000
 42
-0.097653
  0
VERTEX
  8
0
 10
156.339068
 20
120.875511
 42
-0.009412
  0
VERTEX
  8
0
 10
157.781109
 20
120.251833
 42
-0.011685
  0
VERTEX
  8
0
 10
159.483897
 20
119.428459
 42
-0.008973
  0
VERTEX
  8
0
 10
161.305086
 20
118.453048
 42
-0.034820
  0
VERTEX
  8
0
 10
163.620827
 20
116.938262
 42
-0.041566
  0
VERTEX
  8
0
 10
165.560543
 20
115.195500
 42
-0.037971
  0
VERTEX
  8
0
 10
167.315514
 20
113.024579
 42
-0.022565
  0
VERTEX
  8
0
 10
169.079806
 20
110.203048
 42
0.056900
  0
VERTEX
  8
0
 10
176.138679
 20
100.467856
 42
0.045925
  0
VERTEX
  8
0
 10
185.701145
 20
91.772040
 42
0.048021
  0
VERTEX
  8
0
 10
195.635770
 20
85.678143
 42
0.134770
  0
VERTEX
  8
0
 10
203.584412
 20
84.179763
 42
0.016865
  0
VERTEX
  8
0
 10
206.096946
 20
84.470827
 42
0.184058
  0
VERTEX
  8
0
 10
206.968150
 20
84.961695
 42
0.179567
  0
VERTEX
  8
0
 10
207.303111
 20
85.913742
 42
0.015905
  0
VERTEX
  8
0
 10
207.176679
 20
88.500000
 42
0.061246
  0
VERTEX
  8
0
 10
206.499374
 20
91.790632
 42
0.098261
  0
VERTEX
  8
0
 10
205.076930
 20
94.267936
 42
0.073441
  0
VERTEX
  8
0
 10
202.495714
 20
96.473400
 42
0.022202
  0
VERTEX
  8
0
 10
198.000000
 20
99.023916
 42
-0.025654
  0
VERTEX
  8
0
 10
195.592290
 20
100.411909
 42
-0.015696
  0
VERTEX
  8
0
 10
192.896386
 20
102.278641
 42
-0.015720
  0
VERTEX
  8
0
 10
190.336135
 20
104.300580
 42
-0.026827
  0
VERTEX
  8
0
 10
188.349399
 20
106.164573
 42
-0.089336
  0
VERTEX
  8
0
 10
185.208090
 20
110.902988
 42
-0.312556
  0
VERTEX
  8
0
 10
185.893456
 20
114.307610
 42
-0.119618
  0
VERTEX
  8
0
 10
190.735195
 20
117.132578
 42
-0.013094
  0
VERTEX
  8
0
 10
203.261415
 20
120.516895
 42
-0.022229
  0
VERTEX
  8
0
 10
212.316453
 20
122.288811
 42
-0.036857
  0
VERTEX
  8
0
 10
220.074197
 20
122.872590
 42
-0.037745
  0
VERTEX
  8
0
 10
227.702420
 20
122.306878
 42
-0.024743
  0
VERTEX
  8
0
 10
236.345921
 20
120.564159
 42
-0.004558
  0
VERTEX
  8
0
 10
245.428657
 20
118.171809
 42
-0.120133
  0
VERTEX
  8
0
 10
247.615063
 20
116.960907
 42
-0.326901
  0
VERTEX
  8
0
 10
247.942903
 20
115.292227
 42
-0.036797
  0
VERTEX
  8
0
 10
245.937602
 20
111.719512
 42
-0.037278
  0
VERTEX
  8
0
 10
242.864794
 20
107.756521
 42
-0.037227
  0
VERTEX
  8
0
 10
239.236275
 20
104.291792
 42
-0.033211
  0
VERTEX
  8
0
 10
234.764515
 20
101.089262
 42
-0.020514
  0
VERTEX
  8
0
 10
229.131115
 20
97.907968
 42
0.033570
  0
VERTEX
  8
0
 10
224.861250
 20
95.347515
 42
0.112572
  0
VERTEX
  8
0
 10
222.677152
 20
92.952233
 42
0.170256
  0
VERTEX
  8
0
 10
222.227513
 20
90.450564
 42
0.105539
  0
VERTEX
  8
0
 10
223.317481
 20
87.638215
 42
0.077664
  0
VERTEX
  8
0
 10
224.420256
 20
86.418421
 42
0.081137
  0
VERTEX
  8
0
 10
225.827153
 20
85.615122
 42
0.050834
  0
VERTEX
  8
0
 10
227.923258
 20
85.068043
 42
0.012907
  0
VERTEX
  8
0
 10
231.415433
 20
84.618909
 42
0.014102
  0
VERTEX
  8
0
 10
235.101205
 20
84.346057
 42
0.045562
  0
VERTEX
  8
0
 10
237.551971
 20
84.457326
 42
0.055211
  0
VERTEX
  8
0
 10
239.681298
 20
84.993648
 42
0.028681
  0
VERTEX
  8
0
 10
242.193122
 20
86.098524
 42
0.052485
  0
VERTEX
  8
0
 10
246.937991
 20
89.184326
 42
0.023508
  0
VERTEX
  8
0
 10
252.498236
 20
94.145279
 42
0.023292
  0
VERTEX
  8
0
 10
257.819517
 20
99.872039
 42
0.034004
  0
VERTEX
  8
0
 10
261.898419
 20
105.417800
 42
-0.038230
  0
VERTEX
  8
0
 10
266.293684
 20
111.289195
 42
-0.039578
  0
VERTEX
  8
0
 10
271.484828
 20
116.349744
 42
-0.042512
  0
VERTEX
  8
0
 10
276.606600
 20
119.918581
 42
-0.131653
  0
VERTEX
  8
0
 10
280.642492
 20
121.000000
 42
-0.084493
  0
VERTEX
  8
0
 10
282.016223
 20
120.766191
 42
-0.006643
  0
VERTEX
  8
0
 10
285.511882
 20
119.488373
 42
-0.008887
  0
VERTEX
  8
0
 10
289.658288
 20
117.824969
 42
-0.006682
  0
VERTEX
  8
0
 10
294.160357
 20
115.854037
 42
0.010445
  0
VERTEX
  8
0
 10
298.951377
 20
113.799433
 42
0.011948
  0
VERTEX
  8
0
 10
303.615627
 20
112.041990
 42
0.012148
  0
VERTEX
  8
0
 10
307.660633
 20
110.736661
 42
0.046755
  0
VERTEX
  8
0
 10
310.250000
 20
110.226807
 42
0.000000
  0
VERTEX
  8
0
 10
315.000000
 20
109.745541
 42
0.000000
  0
VERTEX
  8
0
 10
315.000000
 20
114.198457
 42
0.088054
  0
VERTEX
  8
0
 10
314.318705
 20
118.037085
 42
0.129742
  0
VERTEX
  8
0
 10
312.369366
 20
120.830015
 42
0.062226
  0
VERTEX
  8
0
 10
308.201017
 20
123.555690
 42
0.008476
  0
VERTEX
  8
0
 10
298.750000
 20
127.980433
 42
-0.010152
  0
VERTEX
  8
0
 10
290.267971
 20
131.986229
 42
-0.120297
  0
VERTEX
  8
0
 10
287.507716
 20
134.315713
 42
-0.293903
  0
VERTEX
  8
0
 10
287.367104
 20
136.709205
 42
-0.068198
  0
VERTEX
  8
0
 10
289.923077
 20
140.076923
 42
-0.064895
  0
VERTEX
  8
0
 10
292.452175
 20
142.022761
 42
-0.108644
  0
VERTEX
  8
0
 10
294.996547
 20
142.837069
 42
-0.067182
  0
VERTEX
  8
0
 10
298.459134
 20
142.695514
 42
-0.013217
  0
VERTEX
  8
0
 10
304.570089
 20
141.447513
 42
0.014149
  0
VERTEX
  8
0
 10
307.398376
 20
140.875394
 42
0.012667
  0
VERTEX
  8
0
 10
310.360610
 20
140.439924
 42
0.012816
  0
VERTEX
  8
0
 10
313.040406
 20
140.184577
 42
0.038215
  0
VERTEX
  8
0
 10
314.882142
 20
140.197513
 42
0.020287
  0
VERTEX
  8
0
 10
317.092664
 20
140.472997
 42
0.171896
  0
VERTEX
  8
0
 10
317.955852
 20
140.950200
 42
0.178561
  0
VERTEX
  8
0
 10
318.308773
 20
141.854968
 42
0.022241
  0
VERTEX
  8
0
 10
318.253083
 20
144.000000
 42
0.017550
  0
VERTEX
  8
0
 10
317.833585
 20
147.960440
 42
0.070607
  0
VERTEX
  8
0
 10
317.159058
 20
150.292074
 42
0.110231
  0
VERTEX
  8
0
 10
316.039648
 20
151.788794
 42
0.080607
  0
VERTEX
  8
0
 10
314.262720
 20
152.873824
 42
0.037351
  0
VERTEX
  8
0
 10
311.575891
 20
153.742371
 42
0.002121
  0
VERTEX
  8
0
 10
303.088557
 20
155.763212
 42
0.001566
  0
VERTEX
  8
0
 10
294.378385
 20
157.769345
 42
0.055868
  0
VERTEX
  8
0
 10
292.320546
 20
158.000000
 42
-0.435283
  0
VERTEX
  8
0
 10
291.726846
 20
158.637677
 42
-0.030383
  0
VERTEX
  8
0
 10
292.086949
 20
161.346878
 42
-0.034317
  0
VERTEX
  8
0
 10
292.862494
 20
164.244745
 42
-0.087777
  0
VERTEX
  8
0
 10
293.910298
 20
166.139216
 42
-0.093452
  0
VERTEX
  8
0
 10
295.490458
 20
167.481337
 42
-0.083272
  0
VERTEX
  8
0
 10
297.515223
 20
168.224103
 42
-0.033515
  0
VERTEX
  8
0
 10
300.977313
 20
168.636056
 42
-0.003491
  0
VERTEX
  8
0
 10
309.160298
 20
169.000000
 42
0.005234
  0
VERTEX
  8
0
 10
314.360778
 20
169.249466
 42
0.007601
  0
VERTEX
  8
0
 10
318.943103
 20
169.587345
 42
0.004253
  0
VERTEX
  8
0
 10
322.784989
 20
169.962377
 42
0.117769
  0
VERTEX
  8
0
 10
323.731115
 20
170.297346
 42
0.161463
  0
VERTEX
  8
0
 10
324.237035
 20
170.928239
 42
0.053180
  0
VERTEX
  8
0
 10
324.534466
 20
172.095585
 42
0.039844
  0
VERTEX
  8
0
 10
324.637696
 20
173.717067
 42
0.019200
  0
VERTEX
  8
0
 10
324.524284
 20
175.797346
 42
0.072794
  0
VERTEX
  8
0
 10
323.412901
 20
180.374701
 42
0.195594
  0
VERTEX
  8
0
 10
321.124061
 20
182.735925
 42
0.093749
  0
VERTEX
  8
0
 10
316.611754
 20
183.781509
 42
0.010187
  0
VERTEX
  8
0
 10
305.889216
 20
184.000000
 42
-0.004187
  0
VERTEX
  8
0
 10
299.062365
 20
184.057168
 42
-0.018269
  0
VERTEX
  8
0
 10
295.028011
 20
184.272331
 42
-0.024107
  0
VERTEX
  8
0
 10
292.528145
 20
184.619572
 42
-0.362786
  0
VERTEX
  8
0
 10
292.009384
 20
185.250000
 42
-0.134383
  0
VERTEX
  8
0
 10
292.836335
 20
188.184582
 42
-0.018716
  0
VERTEX
  8
0
 10
296.326460
 20
193.520192
 42
-0.019506
  0
VERTEX
  8
0
 10
301.195044
 20
199.849309
 42
-0.013035
  0
VERTEX
  8
0
 10
307.228176
 20
206.717332
 42
0.039605
  0
VERTEX
  8
0
 10
318.583829
 20
221.119403
 42
0.082889
  0
VERTEX
  8
0
 10
324.425835
 20
234.092998
 42
0.087163
  0
VERTEX
  8
0
 10
325.579717
 20
247.827510
 42
0.047561
  0
VERTEX
  8
0
 10
322.457569
 20
264.500000
 42
0.026934
  0
VERTEX
  8
0
 10
319.059274
 20
274.292613
 42
0.016144
  0
VERTEX
  8
0
 10
314.035108
 20
285.538202
 42
0.015646
  0
VERTEX
  8
0
 10
308.009493
 20
297.007454
 42
0.018072
  0
VERTEX
  8
0
 10
301.543594
 20
307.525996
 42
0.061170
  0
VERTEX
  8
0
 10
283.209106
 20
328.878568
 42
0.105805
  0
VERTEX
  8
0
 10
263.084332
 20
340.623692
 42
0.122681
  0
VERTEX
  8
0
 10
242.068299
 20
342.167262
 42
0.101083
  0
VERTEX
  8
0
 10
221.070438
 20
333.967129
 42
-0.003001
  0
VERTEX
  8
0
 10
218.686638
 20
332.446612
 42
-0.004647
  0
VERTEX
  8
0
 10
216.608480
 20
331.165344
 42
-0.001574
  0
VERTEX
  8
0
 10
214.804198
 20
330.083682
 42
-0.135037
  0
VERTEX
  8
0
 10
214.500000
 20
330.000000
 42
-0.135037
  0
VERTEX
  8
0
 10
214.195802
 20
330.083682
 42
-0.001574
  0
VERTEX
  8
0
 10
212.391520
 20
331.165344
 42
-0.004647
  0
VERTEX
  8
0
 10
210.313362
 20
332.446612
 42
-0.003001
  0
VERTEX
  8
0
 10
207.929562
 20
333.967129
 42
0.014197
  0
VERTEX
  8
0
 10
205.168024
 20
335.642809
 42
0.009639
  0
VERTEX
  8
0
 10
201.936196
 20
337.398846
 42
0.009718
  0
VERTEX
  8
0
 10
198.747517
 20
338.974769
 42
0.019148
  0
VERTEX
  8
0
 10
196.145821
 20
340.078705
 42
0.049435
  0
VERTEX
  8
0
 10
189.872528
 20
341.775833
 42
0.028846
  0
VERTEX
  8
0
 10
182.118998
 20
342.614465
 42
0.028896
  0
VERTEX
  8
0
 10
174.367331
 20
342.554715
 42
0.052116
  0
SEQEND
  0
POLYLINE
  8
0
 66
1
 70
1
  0
VERTEX
  8
0
 10
198.619239
 20
324.518851
 42
-0.000110
  0
VERTEX
  8
0
 10
200.798589
 20
323.268719
 42
-0.000071
  0
VERTEX
  8
0
 10
203.320569
 20
321.820830
 42
-0.000071
  0
VERTEX
  8
0
 10
205.784602
 20
320.405276
 42
-0.000135
  0
VERTEX
  8
0
 10
207.769933
 20
319.263637
 42
0.034586
  0
VERTEX
  8
0
 10
209.935582
 20
318.209517
 42
0.024586
  0
VERTEX
  8
0
 10
212.486665
 20
317.322346
 42
0.023729
  0
VERTEX
  8
0
 10
215.228880
 20
316.656890
 42
0.025053
  0
VERTEX
  8
0
 10
217.972630
 20
316.268765
 42
0.017272
  0
VERTEX
  8
0
 10
221.504009
 20
316.071195
 42
0.063507
  0
VERTEX
  8
0
 10
223.724612
 20
316.306332
 42
0.065465
  0
VERTEX
  8
0
 10
225.780622
 20
317.087465
 42
0.019116
  0
VERTEX
  8
0
 10
228.702698
 20
318.807632
 42
-0.020959
  0
VERTEX
  8
0
 10
235.207293
 20
322.604556
 42
-0.031957
  0
VERTEX
  8
0
 10
241.168109
 20
325.284854
 42
-0.035606
  0
VERTEX
  8
0
 10
246.891312
 20
326.977107
 42
-0.038074
  0
VERTEX
  8
0
 10
252.669724
 20
327.792586
 42
-0.013790
  0
VERTEX
  8
0
 10
256.922920
 20
327.947942
 42
-0.046295
  0
VERTEX
  8
0
 10
259.697625
 20
327.715457
 42
-0.050194
  0
VERTEX
  8
0
 10
262.263572
 20
326.987541
 42
-0.018336
  0
VERTEX
  8
0
 10
265.724420
 20
325.469365
 42
-0.058657
  0
VERTEX
  8
0
 10
271.631448
 20
321.706097
 42
-0.023997
  0
VERTEX
  8
0
 10
278.716116
 20
315.335150
 42
-0.023462
  0
VERTEX
  8
0
 10
285.705119
 20
307.734352
 42
-0.028858
  0
VERTEX
  8
0
 10
291.450149
 20
300.000000
 42
-0.018717
  0
VERTEX
  8
0
 10
296.436377
 20
291.751898
 42
-0.011900
  0
VERTEX
  8
0
 10
301.643703
 20
281.810692
 42
-0.011861
  0
VERTEX
  8
0
 10
306.169235
 20
272.071675
 42
-0.028860
  0
VERTEX
  8
0
 10
308.910399
 20
264.644665
 42
-0.039085
  0
VERTEX
  8
0
 10
310.569201
 20
257.147069
 42
-0.037686
  0
VERTEX
  8
0
 10
311.068443
 20
249.389897
 42
-0.039936
  0
VERTEX
  8
0
 10
310.414410
 20
242.214377
 42
-0.068555
  0
VERTEX
  8
0
 10
308.598914
 20
236.500000
 42
-0.023288
  0
VERTEX
  8
0
 10
306.216769
 20
232.045571
 42
-0.029580
  0
VERTEX
  8
0
 10
303.596376
 20
228.188878
 42
-0.019518
  0
VERTEX
  8
0
 10
299.779588
 20
223.610880
 42
-0.004532
  0
VERTEX
  8
0
 10
293.000000
 20
216.231529
 42
0.015551
  0
VERTEX
  8
0
 10
286.187803
 20
208.480618
 42
0.033467
  0
VERTEX
  8
0
 10
281.551092
 20
202.027126
 42
0.041895
  0
VERTEX
  8
0
 10
278.504019
 20
196.063648
 42
0.046980
  0
VERTEX
  8
0
 10
276.632033
 20
189.897374
 42
0.000000
  0
VERTEX
  8
0
 10
275.329553
 20
183.500000
 42
0.000000
  0
VERTEX
  8
0
 10
266.446987
 20
183.207891
 42
0.019296
  0
VERTEX
  8
0
 10
260.068885
 20
182.751321
 42
0.088378
  0
VERTEX
  8
0
 10
256.521477
 20
181.706826
 42
0.162586
  0
VERTEX
  8
0
 10
254.675376
 20
179.862211
 42
0.116384
  0
VERTEX
  8
0
 10
254.000000
 20
177.000000
 42
0.056152
  0
VERTEX
  8
0
 10
254.128829
 20
175.856464
 42
0.041833
  0
VERTEX
  8
0
 10
254.514062
 20
174.645454
 42
0.042676
  0
VERTEX
  8
0
 10
255.079632
 20
173.550837
 42
0.071214
  0
VERTEX
  8
0
 10
255.750000
 20
172.762007
 42
0.103138
  0
VERTEX
  8
0
 10
257.916154
 20
171.525584
 42
0.019340
  0
VERTEX
  8
0
 10
262.336087
 20
170.281166
 42
0.020895
  0
VERTEX
  8
0
 10
267.472701
 20
169.272060
 42
0.023192
  0
VERTEX
  8
0
 10
272.500000
 20
168.738065
 42
-0.019263
  0
VERTEX
  8
0
 10
274.950884
 20
168.497188
 42
-0.150493
  0
VERTEX
  8
0
 10
275.978540
 20
168.019359
 42
-0.165372
  0
VERTEX
  8
0
 10
276.509810
 20
167.067437
 42
-0.024511
  0
VERTEX
  8
0
 10
276.804086
 20
164.855329
 42
0.000000
  0
VERTEX
  8
0
 10
277.108172
 20
161.210658
 42
0.000000
  0
VERTEX
  8
0
 10
268.025422
 20
163.206543
 42
0.014982
  0
VERTEX
  8
0
 10
261.141178
 20
164.504446
 42
0.072886
  0
VERTEX
  8
0
 10
257.181385
 20
164.547485
 42
0.144588
  0
VERTEX
  8
0
 10
254.761960
 20
163.461718
 42
0.132353
  0
VERTEX
  8
0
 10
253.219878
 20
161.200899
 42
0.108471
  0
VERTEX
  8
0
 10
252.806488
 20
157.753168
 42
0.174988
  0
VERTEX
  8
0
 10
254.060655
 20
155.111342
 42
0.099101
  0
VERTEX
  8
0
 10
257.422826
 20
152.891504
 42
0.022089
  0
VERTEX
  8
0
 10
263.939651
 20
150.572961
 42
-0.013427
  0
VERTEX
  8
0
 10
270.057074
 20
148.515146
 42
-0.115353
  0
VERTEX
  8
0
 10
272.452152
 20
146.942406
 42
-0.266810
  0
VERTEX
  8
0
 10
272.900546
 20
145.098877
 42
-0.087344
  0
VERTEX
  8
0
 10
271.619288
 20
142.494024
 42
-0.115425
  0
VERTEX
  8
0
 10
270.532953
 20
141.561057
 42
-0.168133
  0
VERTEX
  8
0
 10
269.294970
 20
141.378244
 42
-0.055055
  0
VERTEX
  8
0
 10
267.267101
 20
141.997852
 42
-0.004219
  0
VERTEX
  8
0
 10
262.034998
 20
144.302894
 42
0.008751
  0
VERTEX
  8
0
 10
258.740984
 20
145.718580
 42
0.010874
  0
VERTEX
  8
0
 10
255.628173
 20
146.913975
 42
0.009294
  0
VERTEX
  8
0
 10
252.989838
 20
147.806847
 42
0.077086
  0
VERTEX
  8
0
 10
251.744450
 20
148.000000
 42
0.110979
  0
VERTEX
  8
0
 10
249.614607
 20
147.521370
 42
0.093234
  0
VERTEX
  8
0
 10
247.738564
 20
146.159153
 42
0.090933
  0
VERTEX
  8
0
 10
246.450325
 20
144.173289
 42
0.098844
  0
VERTEX
  8
0
 10
246.000000
 20
141.917593
 42
0.118397
  0
VERTEX
  8
0
 10
246.548889
 20
139.632086
 42
0.091917
  0
VERTEX
  8
0
 10
248.111482
 20
137.596576
 42
0.056833
  0
VERTEX
  8
0
 10
251.002395
 20
135.536120
 42
0.017093
  0
VERTEX
  8
0
 10
255.821568
 20
133.079063
 42
-0.011494
  0
VERTEX
  8
0
 10
259.310388
 20
131.349223
 42
-0.101474
  0
VERTEX
  8
0
 10
260.634923
 20
130.265924
 42
-0.372612
  0
VERTEX
  8
0
 10
260.608825
 20
129.406407
 42
-0.115683
  0
VERTEX
  8
0
 10
259.450196
 20
128.619262
 42
-0.160314
  0
VERTEX
  8
0
 10
256.588265
 20
128.480395
 42
-0.002747
  0
VERTEX
  8
0
 10
241.304101
 20
132.791707
 42
-0.002120
  0
VERTEX
  8
0
 10
225.816022
 20
137.323761
 42
-0.232292
  0
VERTEX
  8
0
 10
224.268436
 20
138.752236
 42
-0.138454
  0
VERTEX
  8
0
 10
224.040645
 20
141.174793
 42
-0.107499
  0
VERTEX
  8
0
 10
225.065513
 20
143.629019
 42
-0.071431
  0
VERTEX
  8
0
 10
227.484456
 20
146.213242
 42
-0.028132
  0
VERTEX
  8
0
 10
231.462161
 20
149.050264
 42
0.057003
  0
VERTEX
  8
0
 10
240.859331
 20
156.605713
 42
0.089657
  0
VERTEX
  8
0
 10
246.699023
 20
165.125218
 42
0.097356
  0
VERTEX
  8
0
 10
248.900658
 20
174.615438
 42
0.078551
  0
VERTEX
  8
0
 10
247.614974
 20
185.021974
 42
-0.012700
  0
VERTEX
  8
0
 10
246.738878
 20
188.392443
 42
-0.001569
  0
VERTEX
  8
0
 10
245.038860
 20
195.793955
 42
-0.001852
  0
VERTEX
  8
0
 10
243.079412
 20
204.600724
 42
-0.001531
  0
VERTEX
  8
0
 10
241.054785
 20
214.000000
 42
0.004272
  0
VERTEX
  8
0
 10
237.393298
 20
230.556911
 42
0.019473
  0
VERTEX
  8
0
 10
234.809030
 20
240.074706
 42
0.032940
  0
VERTEX
  8
0
 10
232.518708
 20
245.981005
 42
0.114080
  0
VERTEX
  8
0
 10
230.011656
 20
249.191645
 42
0.045204
  0
VERTEX
  8
0
 10
228.058837
 20
250.500046
 42
0.128346
  0
VERTEX
  8
0
 10
226.481499
 20
250.893860
 42
0.125681
  0
VERTEX
  8
0
 10
224.892430
 20
250.469978
 42
0.042508
  0
VERTEX
  8
0
 10
222.894932
 20
249.116004
 42
0.056741
  0
VERTEX
  8
0
 10
221.573920
 20
247.772016
 42
0.134330
  0
VERTEX
  8
0
 10
221.036576
 20
246.488047
 42
0.064194
  0
VERTEX
  8
0
 10
221.034492
 20
244.558198
 42
0.006072
  0
VERTEX
  8
0
 10
221.692262
 20
239.866004
 42
0.008093
  0
VERTEX
  8
0
 10
222.334620
 20
236.069418
 42
0.002537
  0
VERTEX
  8
0
 10
223.417456
 20
230.404389
 42
0.002534
  0
VERTEX
  8
0
 10
224.690594
 20
224.091633
 42
0.002801
  0
VERTEX
  8
0
 10
225.986928
 20
218.000000
 42
-0.001471
  0
VERTEX
  8
0
 10
227.239140
 20
212.191673
 42
-0.001777
  0
VERTEX
  8
0
 10
228.379285
 20
206.731250
 42
-0.001507
  0
VERTEX
  8
0
 10
229.308935
 20
202.128016
 42
-0.012121
  0
VERTEX
  8
0
 10
229.678649
 20
200.000000
 42
0.000000
  0
VERTEX
  8
0
 10
230.199669
 20
196.500000
 42
0.000000
  0
VERTEX
  8
0
 10
216.599835
 20
196.804116
 42
-0.003153
  0
VERTEX
  8
0
 10
208.751458
 20
197.029145
 42
-0.027854
  0
VERTEX
  8
0
 10
205.299370
 20
197.342985
 42
-0.079080
  0
VERTEX
  8
0
 10
203.593228
 20
197.878595
 42
-0.289673
  0
VERTEX
  8
0
 10
203.032303
 20
198.804116
 42
-0.042220
  0
VERTEX
  8
0
 10
203.158638
 20
200.021138
 42
-0.001105
  0
VERTEX
  8
0
 10
204.189101
 20
205.378170
 42
-0.002322
  0
VERTEX
  8
0
 10
205.443453
 20
211.666436
 42
-0.001585
  0
VERTEX
  8
0
 10
206.924975
 20
218.802422
 42
0.004904
  0
VERTEX
  8
0
 10
209.207242
 20
230.174031
 42
0.026268
  0
VERTEX
  8
0
 10
210.062607
 20
236.436938
 42
0.054323
  0
VERTEX
  8
0
 10
209.973532
 20
239.953262
 42
0.375527
  0
VERTEX
  8
0
 10
208.776380
 20
241.000000
 42
-0.181124
  0
VERTEX
  8
0
 10
208.447751
 20
241.123083
 42
-0.148028
  0
VERTEX
  8
0
 10
208.247002
 20
241.443176
 42
-0.101597
  0
VERTEX
  8
0
 10
208.215869
 20
241.931044
 42
-0.056971
  0
VERTEX
  8
0
 10
208.364959
 20
242.508684
 42
0.130230
  0
VERTEX
  8
0
 10
208.565229
 20
244.366132
 42
0.068651
  0
VERTEX
  8
0
 10
207.900172
 20
246.605522
 42
0.066391
  0
VERTEX
  8
0
 10
206.610004
 20
248.670889
 42
0.097419
  0
VERTEX
  8
0
 10
204.957140
 20
250.022938
 42
0.051845
  0
VERTEX
  8
0
 10
203.774620
 20
250.505981
 42
0.074051
  0
VERTEX
  8
0
 10
202.653278
 20
250.659855
 42
0.064849
  0
VERTEX
  8
0
 10
201.428831
 20
250.486082
 42
0.030560
  0
VERTEX
  8
0
 10
199.915886
 20
249.965159
 42
0.101794
  0
VERTEX
  8
0
 10
197.933184
 20
248.621524
 42
0.099174
  0
VERTEX
  8
0
 10
196.619657
 20
246.592925
 42
0.039840
  0
VERTEX
  8
0
 10
195.478602
 20
242.868362
 42
0.004242
  0
VERTEX
  8
0
 10
193.596177
 20
234.000000
 42
-0.001250
  0
VERTEX
  8
0
 10
192.802558
 20
230.147781
 42
-0.000403
  0
VERTEX
  8
0
 10
191.607762
 20
224.443750
 42
-0.000402
  0
VERTEX
  8
0
 10
190.268600
 20
218.101430
 42
-0.000451
  0
VERTEX
  8
0
 10
188.969421
 20
212.000000
 42
0.001045
  0
VERTEX
  8
0
 10
187.739868
 20
206.191679
 42
0.001262
  0
VERTEX
  8
0
 10
186.610258
 20
200.731250
 42
0.001071
  0
VERTEX
  8
0
 10
185.680533
 20
196.128908
 42
0.008575
  0
VERTEX
  8
0
 10
185.293057
 20
194.000000
 42
-0.020879
  0
VERTEX
  8
0
 10
184.974061
 20
192.462982
 42
-0.013997
  0
VERTEX
  8
0
 10
184.487639
 20
190.734900
 42
-0.014110
  0
VERTEX
  8
0
 10
183.921326
 20
189.084736
 42
-0.026864
  0
VERTEX
  8
0
 10
183.358931
 20
187.799660
 42
0.050993
  0
VERTEX
  8
0
 10
182.836394
 20
186.429495
 42
0.020828
  0
VERTEX
  8
0
 10
182.399418
 20
184.482645
 42
0.020349
  0
VERTEX
  8
0
 10
182.100200
 20
182.335289
 42
0.024485
  0
VERTEX
  8
0
 10
182.000789
 20
180.299660
 42
0.101240
  0
VERTEX
  8
0
 10
183.678286
 20
172.106640
 42
0.054360
  0
VERTEX
  8
0
 10
188.757695
 20
163.075990
 42
0.053711
  0
VERTEX
  8
0
 10
195.795835
 20
155.184392
 42
0.086459
  0
VERTEX
  8
0
 10
203.397806
 20
150.389773
 42
0.000000
  0
VERTEX
  8
0
 10
207.992503
 20
148.500000
 42
0.000000
  0
VERTEX
  8
0
 10
207.996252
 20
143.269052
 42
-0.011407
  0
VERTEX
  8
0
 10
207.926072
 20
140.093487
 42
-0.098868
  0
VERTEX
  8
0
 10
207.588812
 20
138.727193
 42
-0.175107
  0
VERTEX
  8
0
 10
206.819448
 20
137.958449
 42
-0.054531
  0
VERTEX
  8
0
 10
205.250000
 20
137.422026
 42
0.006355
  0
VERTEX
  8
0
 10
203.587306
 20
137.027277
 42
0.000826
  0
VERTEX
  8
0
 10
200.052230
 20
136.134173
 42
0.000962
  0
VERTEX
  8
0
 10
195.862107
 20
135.059622
 42
0.000804
  0
VERTEX
  8
0
 10
191.417166
 20
133.902974
 42
-0.001359
  0
VERTEX
  8
0
 10
182.422201
 20
131.572990
 42
-0.042894
  0
VERTEX
  8
0
 10
180.169298
 20
131.197832
 42
-0.668406
  0
VERTEX
  8
0
 10
179.923421
 20
131.679895
 42
-0.049422
  0
VERTEX
  8
0
 10
181.410214
 20
133.108034
 42
0.036746
  0
VERTEX
  8
0
 10
182.894642
 20
134.463386
 42
0.117435
  0
VERTEX
  8
0
 10
183.560590
 20
135.616941
 42
0.091276
  0
VERTEX
  8
0
 10
183.722150
 20
137.111049
 42
0.017117
  0
VERTEX
  8
0
 10
183.422745
 20
139.858034
 42
0.072093
  0
VERTEX
  8
0
 10
181.868428
 20
145.129413
 42
0.208274
  0
VERTEX
  8
0
 10
179.091434
 20
147.611831
 42
0.154845
  0
VERTEX
  8
0
 10
174.725712
 20
147.662122
 42
0.036553
  0
VERTEX
  8
0
 10
167.839788
 20
145.000789
 42
-0.009082
  0
VERTEX
  8
0
 10
163.510093
 20
143.047940
 42
-0.043820
  0
VERTEX
  8
0
 10
160.946878
 20
142.204293
 42
-0.119576
  0
VERTEX
  8
0
 10
159.555916
 20
142.214916
 42
-0.343960
  0
VERTEX
  8
0
 10
159.000000
 20
142.927420
 42
-0.214711
  0
VERTEX
  8
0
 10
159.636528
 20
144.341377
 42
-0.040814
  0
VERTEX
  8
0
 10
161.951929
 20
146.076899
 42
-0.041690
  0
VERTEX
  8
0
 10
164.875165
 20
147.592464
 42
-0.055762
  0
VERTEX
  8
0
 10
167.741300
 20
148.427699
 42
0.031058
  0
VERTEX
  8
0
 10
172.781440
 20
149.630433
 42
0.081491
  0
VERTEX
  8
0
 10
176.104649
 20
151.272650
 42
0.154990
  0
VERTEX
  8
0
 10
177.550302
 20
153.207554
 42
0.225645
  0
VERTEX
  8
0
 10
177.320928
 20
155.289744
 42
-0.059826
  0
VERTEX
  8
0
 10
177.050142
 20
155.873901
 42
-0.022056
  0
VERTEX
  8
0
 10
176.807099
 20
156.750541
 42
-0.021489
  0
VERTEX
  8
0
 10
176.623456
 20
157.740754
 42
-0.024168
  0
VERTEX
  8
0
 10
176.534422
 20
158.704986
 42
0.070612
  0
VERTEX
  8
0
 10
176.340052
 20
159.745134
 42
0.036067
  0
VERTEX
  8
0
 10
175.824302
 20
160.972413
 42
0.034953
  0
VERTEX
  8
0
 10
175.098567
 20
162.183642
 42
0.043956
  0
VERTEX
  8
0
 10
174.258747
 20
163.185698
 42
0.057769
  0
VERTEX
  8
0
 10
172.703157
 20
164.418090
 42
0.123303
  0
VERTEX
  8
0
 10
171.252073
 20
164.881649
 42
0.054553
  0
VERTEX
  8
0
 10
169.076937
 20
164.783368
 42
0.004625
  0
VERTEX
  8
0
 10
163.542008
 20
163.870826
 42
-0.008632
  0
VERTEX
  8
0
 10
160.266313
 20
163.357694
 42
-0.014665
  0
VERTEX
  8
0
 10
157.509215
 20
163.056552
 42
-0.008508
  0
VERTEX
  8
0
 10
155.285786
 20
162.917524
 42
-0.427584
  0
VERTEX
  8
0
 10
155.000000
 20
163.190612
 42
-0.131054
  0
VERTEX
  8
0
 10
155.114363
 20
163.619438
 42
-0.023096
  0
VERTEX
  8
0
 10
155.566326
 20
164.328568
 42
-0.023636
  0
VERTEX
  8
0
 10
156.189799
 20
165.130451
 42
-0.019317
  0
VERTEX
  8
0
 10
156.927918
 20
165.927918
 42
-0.099303
  0
VERTEX
  8
0
 10
158.786291
 20
167.165329
 42
-0.041364
  0
VERTEX
  8
0
 10
161.671503
 20
168.079389
 42
-0.029277
  0
VERTEX
  8
0
 10
165.751053
 20
168.761154
 42
-0.011139
  0
VERTEX
  8
0
 10
171.500000
 20
169.249685
 42
0.000000
  0
VERTEX
  8
0
 10
175.500000
 20
169.500000
 42
0.000000
  0
VERTEX
  8
0
 10
175.175461
 20
174.500000
 42
0.043985
  0
VERTEX
  8
0
 10
174.493914
 20
178.927657
 42
0.152067
  0
VERTEX
  8
0
 10
173.013486
 20
181.383628
 42
0.144028
  0
VERTEX
  8
0
 10
170.345578
 20
182.640994
 42
0.038041
  0
VERTEX
  8
0
 10
165.595012
 20
183.013655
 42
-0.013769
  0
VERTEX
  8
0
 10
160.182579
 20
183.174866
 42
-0.069066
  0
VERTEX
  8
0
 10
157.215739
 20
183.761542
 42
-0.133139
  0
VERTEX
  8
0
 10
155.507269
 20
184.925007
 42
-0.118029
  0
VERTEX
  8
0
 10
154.524389
 20
186.844483
 42
0.034480
  0
VERTEX
  8
0
 10
154.049714
 20
188.340689
 42
0.006080
  0
VERTEX
  8
0
 10
152.933261
 20
191.069942
 42
0.006561
  0
VERTEX
  8
0
 10
151.540856
 20
194.242447
 42
0.005860
  0
VERTEX
  8
0
 10
150.013528
 20
197.500000
 42
0.023314
  0
VERTEX
  8
0
 10
147.576229
 20
201.995962
 42
0.023750
  0
VERTEX
  8
0
 10
144.744770
 20
206.216831
 42
0.018890
  0
VERTEX
  8
0
 10
140.992854
 20
210.893289
 42
0.007931
  0
VERTEX
  8
0
 10
135.613031
 20
216.907511
 42
-0.006738
  0
VERTEX
  8
0
 10
131.450646
 20
221.538449
 42
-0.008033
  0
VERTEX
  8
0
 10
127.656295
 20
226.019359
 42
-0.007074
  0
VERTEX
  8
0
 10
124.578444
 20
229.885117
 42
-0.050790
  0
VERTEX
  8
0
 10
123.319589
 20
231.907511
 42
-0.048072
  0
VERTEX
  8
0
 10
122.555781
 20
233.941633
 42
-0.021180
  0
VERTEX
  8
0
 10
121.925765
 20
236.748646
 42
-0.018891
  0
VERTEX
  8
0
 10
121.453049
 20
240.087298
 42
-0.014129
  0
VERTEX
  8
0
 10
121.176001
 20
243.793194
 42
-0.044665
  0
VERTEX
  8
0
 10
121.518938
 20
251.780900
 42
-0.037846
  0
VERTEX
  8
0
 10
123.262947
 20
260.051140
 42
-0.030649
  0
VERTEX
  8
0
 10
126.636534
 20
269.445441
 42
-0.015070
  0
VERTEX
  8
0
 10
132.004320
 20
280.961157
 42
-0.027729
  0
VERTEX
  8
0
 10
141.639113
 20
297.720010
 42
-0.044053
  0
VERTEX
  8
0
 10
151.846286
 20
310.730015
 42
-0.051563
  0
VERTEX
  8
0
 10
162.753107
 20
320.189557
 42
-0.067033
  0
VERTEX
  8
0
 10
174.486943
 20
326.261905
 42
-0.057978
  0
VERTEX
  8
0
 10
180.395629
 20
327.632085
 42
-0.046068
  0
VERTEX
  8
0
 10
186.948463
 20
327.762949
 42
-0.046706
  0
VERTEX
  8
0
 10
193.304076
 20
326.701727
 42
-0.065541
  0
SEQEND
  0
POLYLINE
  8
0
 66
1
 70
1
  0
VERTEX
  8
0
 10
234.000000
 20
179.195781
 42
-0.107268
  0
VERTEX
  8
0
 10
233.305711
 20
175.996772
 42
-0.035898
  0
VERTEX
  8
0
 10
231.002183
 20
171.772181
 42
-0.035734
  0
VERTEX
  8
0
 10
227.886381
 20
167.608274
 42
-0.051383
  0
VERTEX
  8
0
 10
224.533035
 20
164.457400
 42
-0.034218
  0
VERTEX
  8
0
 10
222.537995
 20
163.141185
 42
-0.041892
  0
VERTEX
  8
0
 10
220.509018
 20
162.208071
 42
-0.040079
  0
VERTEX
  8
0
 10
218.279554
 20
161.597759
 42
-0.027472
  0
VERTEX
  8
0
 10
215.677864
 20
161.251911
 42
-0.023934
  0
VERTEX
  8
0
 10
212.707662
 20
161.164656
 42
-0.060773
  0
VERTEX
  8
0
 10
210.574496
 20
161.465020
 42
-0.057669
  0
VERTEX
  8
0
 10
208.511725
 20
162.280541
 42
-0.019863
  0
VERTEX
  8
0
 10
205.741863
 20
163.908757
 42
-0.073217
  0
VERTEX
  8
0
 10
200.766894
 20
168.248596
 42
-0.126205
  0
VERTEX
  8
0
 10
198.360312
 20
173.152460
 42
-0.176650
  0
VERTEX
  8
0
 10
198.992835
 20
177.497637
 42
-0.168162
  0
VERTEX
  8
0
 10
202.284845
 20
180.523783
 42
-0.064263
  0
VERTEX
  8
0
 10
204.513337
 20
181.168913
 42
-0.017837
  0
VERTEX
  8
0
 10
208.134331
 20
181.597334
 42
-0.014010
  0
VERTEX
  8
0
 10
213.072958
 20
181.864674
 42
-0.005829
  0
VERTEX
  8
0
 10
219.750000
 20
181.960858
 42
0.000000
  0
VERTEX
  8
0
 10
234.000000
 20
182.000000
 42
0.000000
  0
SEQEND
  0
POLYLINE
  8
0
 66
1
 70
1
  0
VERTEX
  8
0
 10
161.500000
 20
275.165944
 42
0.122560
  0
VERTEX
  8
0
 10
153.972177
 20
268.980996
 42
0.125407
  0
VERTEX
  8
0
 10
150.301394
 20
260.040731
 42
0.126936
  0
VERTEX
  8
0
 10
151.376441
 20
250.519171
 42
0.127265
  0
VERTEX
  8
0
 10
156.924238
 20
242.717203
 42
0.071380
  0
VERTEX
  8
0
 10
160.964468
 20
240.201108
 42
0.029073
  0
VERTEX
  8
0
 10
167.046999
 20
237.937013
 42
0.028424
  0
VERTEX
  8
0
 10
173.223638
 20
236.416469
 42
0.092762
  0
VERTEX
  8
0
 10
177.416516
 20
236.418360
 42
0.061473
  0
VERTEX
  8
0
 10
180.853863
 20
237.512756
 42
0.049547
  0
VERTEX
  8
0
 10
184.201128
 20
239.474153
 42
0.049497
  0
VERTEX
  8
0
 10
187.100606
 20
242.058347
 42
0.060995
  0
VERTEX
  8
0
 10
189.209917
 20
245.000000
 42
0.133038
  0
VERTEX
  8
0
 10
190.780351
 20
251.538567
 42
0.068991
  0
VERTEX
  8
0
 10
189.377679
 20
259.881421
 42
0.066701
  0
VERTEX
  8
0
 10
185.638791
 20
267.874307
 42
0.099079
  0
VERTEX
  8
0
 10
180.285054
 20
273.414820
 42
0.065937
  0
VERTEX
  8
0
 10
175.902214
 20
275.659623
 42
0.062258
  0
VERTEX
  8
0
 10
170.999515
 20
276.742097
 42
0.063073
  0
VERTEX
  8
0
 10
166.042591
 20
276.578317
 42
0.071338
  0
SEQEND
  0
POLYLINE
  8
0
 66
1
 70
1
  0
VERTEX
  8
0
 10
175.810577
 20
257.810577
 42
-0.121715
  0
VERTEX
  8
0
 10
175.484695
 20
255.263811
 42
-0.104349
  0
VERTEX
  8
0
 10
174.005902
 20
252.994098
 42
-0.104349
  0
VERTEX
  8
0
 10
171.736189
 20
251.515305
 42
-0.121715
  0
VERTEX
  8
0
 10
169.189423
 20
251.189423
 42
-0.138410
  0
VERTEX
  8
0
 10
167.096698
 20
252.049755
 42
-0.204301
  0
VERTEX
  8
0
 10
166.152985
 20
253.766483
 42
-0.150237
  0
VERTEX
  8
0
 10
166.620344
 20
256.087869
 42
-0.072246
  0
VERTEX
  8
0
 10
168.454545
 20
258.545455
 42
-0.072246
  0
VERTEX
  8
0
 10
170.912131
 20
260.379656
 42
-0.150237
  0
VERTEX
  8
0
 10
173.233517
 20
260.847015
 42
-0.204301
  0
VERTEX
  8
0
 10
174.950245
 20
259.903302
 42
-0.138410
  0
SEQEND
  0
POLYLINE
  8
0
 66
1
 70
1
  0
VERTEX
  8
0
 10
251.203717
 20
274.871810
 42
0.120085
  0
VERTEX
  8
0
 10
243.940670
 20
268.770888
 42
0.129104
  0
VERTEX
  8
0
 10
240.542321
 20
260.170915
 42
0.126293
  0
VERTEX
  8
0
 10
241.775638
 20
250.861887
 42
0.112187
  0
VERTEX
  8
0
 10
247.353908
 20
242.819342
 42
0.078278
  0
VERTEX
  8
0
 10
251.166966
 20
240.295426
 42
0.029826
  0
VERTEX
  8
0
 10
257.128218
 20
237.991273
 42
0.029300
  0
VERTEX
  8
0
 10
263.230651
 20
236.429062
 42
0.095003
  0
VERTEX
  8
0
 10
267.392035
 20
236.418264
 42
0.056766
  0
VERTEX
  8
0
 10
270.948113
 20
237.519274
 42
0.055104
  0
VERTEX
  8
0
 10
274.204120
 20
239.399833
 42
0.055707
  0
VERTEX
  8
0
 10
276.939372
 20
241.923345
 42
0.060724
  0
VERTEX
  8
0
 10
278.959663
 20
244.920933
 42
0.048491
  0
VERTEX
  8
0
 10
280.371310
 20
248.508900
 42
0.063834
  0
VERTEX
  8
0
 10
280.897914
 20
251.982988
 42
0.055394
  0
VERTEX
  8
0
 10
280.558489
 20
255.841791
 42
0.026744
  0
VERTEX
  8
0
 10
279.320589
 20
260.651921
 42
0.088895
  0
VERTEX
  8
0
 10
274.829130
 20
269.222894
 42
0.111092
  0
VERTEX
  8
0
 10
267.916225
 20
274.922646
 42
0.119245
  0
VERTEX
  8
0
 10
259.626356
 20
276.871201
 42
0.113768
  0
SEQEND
  0
POLYLINE
  8
0
 66
1
 70
1
  0
VERTEX
  8
0
 10
265.824956
 20
257.661566
 42
-0.102473
  0
VERTEX
  8
0
 10
265.595133
 20
255.121854
 42
-0.110358
  0
VERTEX
  8
0
 10
264.372466
 20
252.957943
 42
-0.109698
  0
VERTEX
  8
0
 10
262.337970
 20
251.511205
 42
-0.100238
  0
VERTEX
  8
0
 10
259.813628
 20
251.000000
 42
-0.085705
  0
VERTEX
  8
0
 10
257.649780
 20
251.373648
 42
-0.212259
  0
VERTEX
  8
0
 10
256.509019
 20
252.458524
 42
-0.167369
  0
VERTEX
  8
0
 10
256.400072
 20
254.256248
 42
-0.051574
  0
VERTEX
  8
0
 10
257.406606
 20
256.819396
 42
-0.036850
  0
VERTEX
  8
0
 10
258.682436
 20
258.896055
 42
-0.095377
  0
VERTEX
  8
0
 10
259.955830
 20
260.096781
 42
-0.108672
  0
VERTEX
  8
0
 10
261.476362
 20
260.650720
 42
-0.056902
  0
VERTEX
  8
0
 10
263.500000
 20
260.689552
 42
-0.091339
  0
VERTEX
  8
0
 10
264.418756
 20
260.428673
 42
-0.114787
  0
VERTEX
  8
0
 10
265.100802
 20
259.868717
 42
-0.092580
  0
VERTEX
  8
0
 10
265.561714
 20
258.961745
 42
-0.042915
  0
SEQEND
  0
ENDSEC
  0
EOF
