  0
SECTION
  2
HEADER
  9
$ACADVER
  1
AC1006
  9
$EXTMIN
 10
0.000000
 20
0.000000
 30
0.000000
  9
$EXTMAX
 10
404.000000
 20
417.000000
 30
0.000000
  0
ENDSEC
  0
SECTION
  2
ENTITIES
  0
POLYLINE
  8
0
 66
1
 70
1
  0
VERTEX
  8
0
 10
321.000000
 20
379.538074
 42
-0.018566
  0
VERTEX
  8
0
 10
310.934661
 20
377.790849
 42
-0.016873
  0
VERTEX
  8
0
 10
300.441259
 20
376.727338
 42
-0.017568
  0
VERTEX
  8
0
 10
290.579941
 20
376.410382
 42
-0.031516
  0
VERTEX
  8
0
 10
282.500000
 20
376.944538
 42
0.003020
  0
VERTEX
  8
0
 10
270.597149
 20
378.415805
 42
0.022807
  0
VERTEX
  8
0
 10
264.946139
 20
378.819610
 42
0.047561
  0
VERTEX
  8
0
 10
261.172203
 20
378.557576
 42
0.050151
  0
VERTEX
  8
0
 10
257.585309
 20
377.585730
 42
0.097215
  0
VERTEX
  8
0
 10
251.415047
 20
373.729058
 42
0.053977
  0
VERTEX
  8
0
 10
245.605668
 20
366.977052
 42
0.052687
  0
VERTEX
  8
0
 10
241.200435
 20
358.862675
 42
0.074211
  0
VERTEX
  8
0
 10
239.215013
 20
350.885884
 42
0.025944
  0
VERTEX
  8
0
 10
239.093707
 20
348.125442
 42
0.077296
  0
VERTEX
  8
0
 10
239.398514
 20
346.263280
 42
0.070768
  0
VERTEX
  8
0
 10
240.271408
 20
344.491808
 42
0.019342
  0
VERTEX
  8
0
 10
242.131326
 20
341.982294
 42
0.000000
  0
VERTEX
  8
0
 10
245.500000
 20
337.786516
 42
0.000000
  0
VERTEX
  8
0
 10
250.906652
 20
338.420405
 42
-0.014645
  0
VERTEX
  8
0
 10
253.960929
 20
338.688099
 42
-0.063694
  0
VERTEX
  8
0
 10
255.769842
 20
338.562937
 42
-0.090758
  0
VERTEX
  8
0
 10
257.158639
 20
338.012546
 42
-0.049001
  0
VERTEX
  8
0
 10
258.620991
 20
336.886335
 42
0.046087
  0
VERTEX
  8
0
 10
260.040481
 20
335.779925
 42
0.089235
  0
VERTEX
  8
0
 10
261.366049
 20
335.231985
 42
0.068806
  0
VERTEX
  8
0
 10
263.021267
 20
335.104982
 42
0.018852
  0
VERTEX
  8
0
 10
265.631430
 20
335.362960
 42
-0.018816
  0
VERTEX
  8
0
 10
268.089940
 20
335.606132
 42
-0.056675
  0
VERTEX
  8
0
 10
269.770176
 20
335.518235
 42
-0.077885
  0
VERTEX
  8
0
 10
271.072268
 20
335.085363
 42
-0.064857
  0
VERTEX
  8
0
 10
272.272449
 20
334.253772
 42
0.071380
  0
VERTEX
  8
0
 10
273.437486
 20
333.468727
 42
0.055905
  0
VERTEX
  8
0
 10
274.876804
 20
332.961629
 42
0.044707
  0
VERTEX
  8
0
 10
276.683747
 20
332.711244
 42
0.022846
  0
VERTEX
  8
0
 10
278.975546
 20
332.705163
 42
-0.037409
  0
VERTEX
  8
0
 10
282.871274
 20
332.581428
 42
-0.134359
  0
VERTEX
  8
0
 10
285.166533
 20
331.681526
 42
-0.187660
  0
VERTEX
  8
0
 10
286.250054
 20
329.949525
 42
-0.086708
  0
VERTEX
  8
0
 10
286.290645
 20
327.250000
 42
-0.094466
  0
VERTEX
  8
0
 10
285.494720
 20
325.044394
 42
-0.203775
  0
VERTEX
  8
0
 10
284.067882
 20
323.995172
 42
-0.222727
  0
VERTEX
  8
0
 10
282.424088
 20
324.339159
 42
-0.109133
  0
VERTEX
  8
0
 10
281.000000
 20
326.000000
 42
0.183511
  0
VERTEX
  8
0
 10
279.032316
 20
327.713353
 42
0.156714
  0
VERTEX
  8
0
 10
276.269464
 20
327.830936
 42
0.153074
  0
VERTEX
  8
0
 10
273.909235
 20
326.310913
 42
0.175481
  0
VERTEX
  8
0
 10
273.000000
 20
323.800000
 42
-0.182454
  0
VERTEX
  8
0
 10
272.518877
 20
322.525412
 42
-0.248270
  0
VERTEX
  8
0
 10
271.390146
 20
322.097687
 42
-0.116843
  0
VERTEX
  8
0
 10
269.602133
 20
322.764802
 42
-0.039438
  0
VERTEX
  8
0
 10
267.405499
 20
324.500000
 42
0.082256
  0
VERTEX
  8
0
 10
264.496574
 20
326.419444
 42
0.152778
  0
VERTEX
  8
0
 10
261.714864
 20
326.743330
 42
0.202808
  0
VERTEX
  8
0
 10
259.760817
 20
325.442088
 42
0.146822
  0
VERTEX
  8
0
 10
259.000000
 20
322.906989
 42
-0.216110
  0
VERTEX
  8
0
 10
258.141928
 20
321.014439
 42
-0.157346
  0
VERTEX
  8
0
 10
255.991502
 20
320.086649
 42
-0.123903
  0
VERTEX
  8
0
 10
253.276587
 20
320.500763
 42
-0.123680
  0
VERTEX
  8
0
 10
251.079011
 20
322.150754
 42
0.046238
  0
VERTEX
  8
0
 10
250.096531
 20
323.157763
 42
0.095168
  0
VERTEX
  8
0
 10
249.142227
 20
323.698541
 42
0.095850
  0
VERTEX
  8
0
 10
248.060093
 20
323.845162
 42
0.047400
  0
VERTEX
  8
0
 10
246.683948
 20
323.635524
 42
0.235231
  0
VERTEX
  8
0
 10
244.059284
 20
321.388816
 42
0.146536
  0
VERTEX
  8
0
 10
243.606239
 20
317.278103
 42
0.071399
  0
VERTEX
  8
0
 10
245.725576
 20
310.963022
 42
0.022757
  0
VERTEX
  8
0
 10
250.594107
 20
302.296923
 42
0.017659
  0
VERTEX
  8
0
 10
254.610519
 20
296.332821
 42
0.037305
  0
VERTEX
  8
0
 10
258.211657
 20
292.079555
 42
0.046025
  0
VERTEX
  8
0
 10
261.847806
 20
289.006445
 42
0.048342
  0
VERTEX
  8
0
 10
265.927785
 20
286.707746
 42
0.046875
  0
VERTEX
  8
0
 10
269.123313
 20
285.638875
 42
0.042626
  0
VERTEX
  8
0
 10
272.566117
 20
285.139974
 42
0.020309
  0
VERTEX
  8
0
 10
277.806278
 20
285.045132
 42
0.002665
  0
VERTEX
  8
0
 10
288.939010
 20
285.355213
 42
-0.004542
  0
VERTEX
  8
0
 10
296.485078
 20
285.537053
 42
-0.004970
  0
VERTEX
  8
0
 10
303.810209
 20
285.574189
 42
-0.004662
  0
VERTEX
  8
0
 10
310.074740
 20
285.485265
 42
-0.024624
  0
VERTEX
  8
0
 10
313.500000
 20
285.235616
 42
0.000000
  0
VERTEX
  8
0
 10
319.500000
 20
284.500000
 42
0.000000
  0
VERTEX
  8
0
 10
319.801226
 20
278.114846
 42
-0.056615
  0
VERTEX
  8
0
 10
319.419282
 20
272.333429
 42
-0.058346
  0
VERTEX
  8
0
 10
317.748247
 20
266.846754
 42
-0.058002
  0
VERTEX
  8
0
 10
314.843292
 20
261.866794
 42
-0.054781
  0
VERTEX
  8
0
 10
310.822462
 20
257.580029
 42
-0.049652
  0
VERTEX
  8
0
 10
306.282389
 20
254.415507
 42
-0.058507
  0
VERTEX
  8
0
 10
301.444413
 20
252.412002
 42
-0.047928
  0
VERTEX
  8
0
 10
295.529542
 20
251.335941
 42
-0.021081
  0
VERTEX
  8
0
 10
287.571861
 20
251.001367
 42
-0.019874
  0
VERTEX
  8
0
 10
278.675616
 20
251.356323
 42
-0.020733
  0
VERTEX
  8
0
 10
269.961405
 20
252.416632
 42
-0.017772
  0
VERTEX
  8
0
 10
260.281905
 20
254.359430
 42
-0.009213
  0
VERTEX
  8
0
 10
248.338660
 20
257.435093
 42
0.034506
  0
VERTEX
  8
0
 10
224.283656
 20
262.348569
 42
0.034050
  0
VERTEX
  8
0
 10
199.673792
 20
263.936380
 42
0.030368
  0
VERTEX
  8
0
 10
172.667685
 20
262.195807
 42
0.018809
  0
VERTEX
  8
0
 10
141.287355
 20
257.044937
 42
-0.014455
  0
VERTEX
  8
0
 10
123.101353
 20
253.897037
 42
-0.027739
  0
VERTEX
  8
0
 10
108.358560
 20
252.610821
 42
-0.034894
  0
VERTEX
  8
0
 10
96.587326
 20
253.060708
 42
-0.072592
  0
VERTEX
  8
0
 10
87.714459
 20
255.353657
 42
-0.083023
  0
VERTEX
  8
0
 10
82.353168
 20
258.741002
 42
-0.074616
  0
VERTEX
  8
0
 10
78.153363
 20
263.801815
 42
-0.070989
  0
VERTEX
  8
0
 10
75.467927
 20
270.118349
 42
-0.064030
  0
VERTEX
  8
0
 10
74.529855
 20
277.163858
 42
-0.015168
  0
VERTEX
  8
0
 10
74.628528
 20
280.979786
 42
-0.052441
  0
VERTEX
  8
0
 10
75.024236
 20
283.416754
 42
-0.060971
  0
VERTEX
  8
0
 10
75.883618
 20
285.522088
 42
-0.025826
  0
VERTEX
  8
0
 10
77.509150
 20
288.109215
 42
-0.062653
  0
VERTEX
  8
0
 10
81.296705
 20
292.275958
 42
-0.069903
  0
VERTEX
  8
0
 10
85.869884
 20
295.196342
 42
-0.064577
  0
VERTEX
  8
0
 10
91.378350
 20
296.898858
 42
-0.043459
  0
VERTEX
  8
0
 10
97.947737
 20
297.451471
 42
-0.042340
  0
VERTEX
  8
0
 10
104.306959
 20
296.893158
 42
-0.051563
  0
VERTEX
  8
0
 10
110.056457
 20
295.269475
 42
-0.037934
  0
VERTEX
  8
0
 10
116.590925
 20
292.079825
 42
-0.012130
  0
VERTEX
  8
0
 10
125.789615
 20
286.386819
 42
0.022795
  0
VERTEX
  8
0
 10
138.452705
 20
278.918343
 42
0.044003
  0
VERTEX
  8
0
 10
149.285496
 20
274.346725
 42
0.054661
  0
VERTEX
  8
0
 10
158.965920
 20
272.362447
 42
0.069319
  0
VERTEX
  8
0
 10
168.075037
 20
272.776761
 42
0.050623
  0
VERTEX
  8
0
 10
176.104894
 20
275.129570
 42
0.063680
  0
VERTEX
  8
0
 10
182.850363
 20
278.932681
 42
0.065691
  0
VERTEX
  8
0
 10
188.263311
 20
284.199961
 42
0.058978
  0
VERTEX
  8
0
 10
192.357618
 20
290.877595
 42
0.033125
  0
VERTEX
  8
0
 10
193.408347
 20
293.619275
 42
0.036046
  0
VERTEX
  8
0
 10
194.052628
 20
296.399845
 42
0.028003
  0
VERTEX
  8
0
 10
194.390610
 20
299.780686
 42
0.010772
  0
VERTEX
  8
0
 10
194.494947
 20
304.500000
 42
0.036264
  0
VERTEX
  8
0
 10
193.928438
 20
312.361730
 42
0.060670
  0
VERTEX
  8
0
 10
192.190626
 20
318.749555
 42
0.072133
  0
VERTEX
  8
0
 10
189.267243
 20
323.729490
 42
0.083406
  0
VERTEX
  8
0
 10
185.169949
 20
327.392716
 42
-0.010384
  0
VERTEX
  8
0
 10
183.590596
 20
328.436203
 42
-0.012556
  0
VERTEX
  8
0
 10
182.154753
 20
329.482529
 42
-0.011214
  0
VERTEX
  8
0
 10
180.995347
 20
330.414889
 42
-0.079546
  0
VERTEX
  8
0
 10
180.525043
 20
330.959480
 42
0.165993
  0
VERTEX
  8
0
 10
179.663644
 20
331.667873
 42
0.081448
  0
VERTEX
  8
0
 10
178.254175
 20
331.948767
 42
0.072229
  0
VERTEX
  8
0
 10
176.643607
 20
331.770837
 42
0.077903
  0
VERTEX
  8
0
 10
175.195060
 20
331.141716
 42
0.147629
  0
VERTEX
  8
0
 10
174.611345
 20
330.465935
 42
0.017949
  0
VERTEX
  8
0
 10
173.869602
 20
328.627009
 42
0.020043
  0
VERTEX
  8
0
 10
173.137180
 20
326.320077
 42
0.015274
  0
VERTEX
  8
0
 10
172.515330
 20
323.743255
 42
-0.020608
  0
VERTEX
  8
0
 10
171.103398
 20
318.154533
 42
-0.048857
  0
VERTEX
  8
0
 10
169.488504
 20
314.184243
 42
-0.066307
  0
VERTEX
  8
0
 10
167.518689
 20
311.403726
 42
-0.086404
  0
VERTEX
  8
0
 10
165.039275
 20
309.520310
 42
-0.113494
  0
VERTEX
  8
0
 10
161.993901
 20
308.738709
 42
-0.134986
  0
VERTEX
  8
0
 10
159.122793
 20
309.450882
 42
-0.062063
  0
VERTEX
  8
0
 10
155.484747
 20
312.133967
 42
-0.009286
  0
VERTEX
  8
0
 10
149.000000
 20
318.523420
 42
0.043264
  0
VERTEX
  8
0
 10
132.199961
 20
332.966255
 42
0.057973
  0
VERTEX
  8
0
 10
114.660026
 20
342.726843
 42
0.062547
  0
VERTEX
  8
0
 10
96.473971
 20
347.702369
 42
0.063903
  0
VERTEX
  8
0
 10
77.757617
 20
347.973591
 42
0.039292
  0
VERTEX
  8
0
 10
65.899102
 20
345.672234
 42
0.048275
  0
VERTEX
  8
0
 10
55.376208
 20
341.630662
 42
0.046929
  0
VERTEX
  8
0
 10
45.592863
 20
335.538259
 42
0.034152
  0
VERTEX
  8
0
 10
35.942301
 20
327.090529
 42
0.045257
  0
VERTEX
  8
0
 10
26.486506
 20
315.704108
 42
0.056044
  0
VERTEX
  8
0
 10
19.997352
 20
303.555957
 42
0.054683
  0
VERTEX
  8
0
 10
16.261287
 20
290.023814
 42
0.040191
  0
VERTEX
  8
0
 10
15.020143
 20
274.500000
 42
0.037609
  0
VERTEX
  8
0
 10
16.299095
 20
257.646317
 42
0.047366
  0
VERTEX
  8
0
 10
20.101968
 20
242.473907
 42
0.048141
  0
VERTEX
  8
0
 10
26.627274
 20
228.484758
 42
0.040913
  0
VERTEX
  8
0
 10
36.026013
 20
215.163630
 42
0.050387
  0
VERTEX
  8
0
 10
47.965295
 20
203.496144
 42
0.045017
  0
VERTEX
  8
0
 10
62.437020
 20
193.947911
 42
0.034951
  0
VERTEX
  8
0
 10
81.515314
 20
185.350681
 42
0.015031
  0
VERTEX
  8
0
 10
108.000000
 20
176.472585
 42
-0.012121
  0
VERTEX
  8
0
 10
119.278949
 20
172.764564
 42
-0.019410
  0
VERTEX
  8
0
 10
128.687569
 20
168.999210
 42
-0.018854
  0
VERTEX
  8
0
 10
137.966466
 20
164.434310
 42
-0.010642
  0
VERTEX
  8
0
 10
148.875091
 20
158.243586
 42
-0.010864
  0
VERTEX
  8
0
 10
156.180318
 20
153.671778
 42
-0.347685
  0
VERTEX
  8
0
 10
156.801936
 20
151.800088
 42
-0.287847
  0
VERTEX
  8
0
 10
155.096958
 20
150.472226
 42
-0.008749
  0
VERTEX
  8
0
 10
145.766627
 20
149.689895
 42
0.024513
  0
VERTEX
  8
0
 10
138.029257
 20
148.794806
 42
0.036571
  0
VERTEX
  8
0
 10
131.411565
 20
147.194290
 42
0.037078
  0
VERTEX
  8
0
 10
125.164706
 20
144.666351
 42
0.026168
  0
VERTEX
  8
0
 10
118.556551
 20
140.961553
 42
-0.019316
  0
VERTEX
  8
0
 10
115.202344
 20
139.020190
 42
-0.022149
  0
VERTEX
  8
0
 10
111.855447
 20
137.437350
 42
-0.023072
  0
VERTEX
  8
0
 10
108.513229
 20
136.212303
 42
-0.025305
  0
VERTEX
  8
0
 10
105.173053
 20
135.343045
 42
0.025125
  0
VERTEX
  8
0
 10
100.431956
 20
134.111030
 42
0.053009
  0
VERTEX
  8
0
 10
96.951101
 20
132.596512
 42
0.060329
  0
VERTEX
  8
0
 10
94.154864
 20
130.528360
 42
0.043000
  0
VERTEX
  8
0
 10
91.561789
 20
127.616259
 42
0.084195
  0
VERTEX
  8
0
 10
90.411520
 20
125.371695
 42
0.043933
  0
VERTEX
  8
0
 10
89.730494
 20
122.294008
 42
0.020375
  0
VERTEX
  8
0
 10
89.276532
 20
117.219048
 42
0.002842
  0
VERTEX
  8
0
 10
88.825257
 20
106.678048
 42
-0.006331
  0
VERTEX
  8
0
 10
88.182985
 20
93.781930
 42
-0.027541
  0
VERTEX
  8
0
 10
87.286444
 20
86.186423
 42
-0.038506
  0
VERTEX
  8
0
 10
85.715643
 20
80.022718
 42
-0.021773
  0
VERTEX
  8
0
 10
82.925962
 20
72.831312
 42
0.037108
  0
VERTEX
  8
0
 10
79.818963
 20
64.031291
 42
0.066972
  0
VERTEX
  8
0
 10
78.818285
 20
56.464154
 42
0.076585
  0
VERTEX
  8
0
 10
79.889181
 20
49.616795
 42
0.065721
  0
VERTEX
  8
0
 10
82.993601
 20
43.009972
 42
0.069660
  0
VERTEX
  8
0
 10
90.331987
 20
34.465601
 42
0.103507
  0
VERTEX
  8
0
 10
98.883259
 20
29.616959
 42
0.096908
  0
VERTEX
  8
0
 10
109.087396
 20
28.424682
 42
0.054945
  0
VERTEX
  8
0
 10
121.354962
 20
30.741733
 42
-0.041756
  0
VERTEX
  8
0
 10
126.978410
 20
31.957937
 42
-0.032377
  0
VERTEX
  8
0
 10
133.231570
 20
32.363701
 42
-0.033247
  0
VERTEX
  8
0
 10
139.166638
 20
31.969013
 42
-0.063763
  0
VERTEX
  8
0
 10
143.770236
 20
30.743237
 42
0.020135
  0
VERTEX
  8
0
 10
147.480788
 20
29.400052
 42
0.097585
  0
VERTEX
  8
0
 10
149.695879
 20
29.149799
 42
0.129548
  0
VERTEX
  8
0
 10
151.517793
 20
29.793694
 42
0.047040
  0
VERTEX
  8
0
 10
153.646346
 20
31.555436
 42
0.032401
  0
VERTEX
  8
0
 10
154.972734
 20
33.065851
 42
0.091193
  0
VERTEX
  8
0
 10
155.611875
 20
34.311855
 42
0.089340
  0
VERTEX
  8
0
 10
155.772783
 20
35.718854
 42
0.030286
  0
VERTEX
  8
0
 10
155.515160
 20
37.770881
 42
0.036570
  0
VERTEX
  8
0
 10
154.589542
 20
41.270740
 42
0.041030
  0
VERTEX
  8
0
 10
153.189366
 20
44.460162
 42
0.037207
  0
VERTEX
  8
0
 10
151.162197
 20
47.622357
 42
0.022570
  0
VERTEX
  8
0
 10
148.333543
 20
51.052568
 42
0.000000
  0
VERTEX
  8
0
 10
144.780228
 20
54.985663
 42
0.000000
  0
VERTEX
  8
0
 10
147.890114
 20
58.527628
 42
0.108759
  0
VERTEX
  8
0
 10
150.300418
 20
62.899401
 42
0.105912
  0
VERTEX
  8
0
 10
150.683778
 20
67.923097
 42
0.092127
  0
VERTEX
  8
0
 10
148.934668
 20
73.225896
 42
0.062889
  0
VERTEX
  8
0
 10
145.196952
 20
78.374333
 42
0.068741
  0
VERTEX
  8
0
 10
141.688824
 20
81.210983
 42
0.020759
  0
VERTEX
  8
0
 10
135.664719
 20
84.511204
 42
0.019400
  0
VERTEX
  8
0
 10
129.481899
 20
87.278752
 42
0.095811
  0
VERTEX
  8
0
 10
125.752532
 20
88.000000
 42
-0.015827
  0
VERTEX
  8
0
 10
123.983065
 20
88.056026
 42
-0.267637
  0
VERTEX
  8
0
 10
123.514715
 20
88.367123
 42
-0.227740
  0
VERTEX
  8
0
 10
123.506546
 20
88.966958
 42
-0.011782
  0
VERTEX
  8
0
 10
124.385043
 20
90.750000
 42
-0.052251
  0
VERTEX
  8
0
 10
126.150004
 20
93.410366
 42
-0.033196
  0
VERTEX
  8
0
 10
128.704321
 20
96.116582
 42
-0.032214
  0
VERTEX
  8
0
 10
131.714777
 20
98.568458
 42
-0.037883
  0
VERTEX
  8
0
 10
134.862518
 20
100.469704
 42
-0.065433
  0
VERTEX
  8
0
 10
139.166536
 20
101.977432
 42
-0.040875
  0
VERTEX
  8
0
 10
144.474470
 20
102.642049
 42
-0.032763
  0
VERTEX
  8
0
 10
150.985171
 20
102.494599
 42
-0.017362
  0
VERTEX
  8
0
 10
159.000000
 20
101.504857
 42
0.004050
  0
VERTEX
  8
0
 10
163.506994
 20
100.826058
 42
0.003249
  0
VERTEX
  8
0
 10
168.368287
 20
100.166325
 42
0.003284
  0
VERTEX
  8
0
 10
172.871229
 20
99.615044
 42
0.008355
  0
VERTEX
  8
0
 10
176.147361
 20
99.291154
 42
-0.010457
  0
VERTEX
  8
0
 10
179.905706
 20
98.903628
 42
-0.060616
  0
VERTEX
  8
0
 10
181.837045
 20
98.421275
 42
-0.112356
  0
VERTEX
  8
0
 10
183.017553
 20
97.631541
 42
-0.082661
  0
VERTEX
  8
0
 10
183.899327
 20
96.321609
 42
0.034629
  0
VERTEX
  8
0
 10
184.665688
 20
94.907915
 42
0.004542
  0
VERTEX
  8
0
 10
186.525404
 20
92.038637
 42
0.005262
  0
VERTEX
  8
0
 10
188.800989
 20
88.674151
 42
0.004384
  0
VERTEX
  8
0
 10
191.288018
 20
85.145678
 42
-0.016608
  0
VERTEX
  8
0
 10
196.632636
 20
77.155126
 42
-0.017385
  0
VERTEX
  8
0
 10
201.349602
 20
68.946183
 42
-0.017893
  0
VERTEX
  8
0
 10
205.354951
 20
60.675457
 42
-0.020487
  0
VERTEX
  8
0
 10
208.565874
 20
52.500000
 42
0.028298
  0
VERTEX
  8
0
 10
211.235811
 20
46.002006
 42
0.035292
  0
VERTEX
  8
0
 10
214.460437
 20
40.330596
 42
0.039653
  0
VERTEX
  8
0
 10
217.936406
 20
35.914308
 42
0.085770
  0
VERTEX
  8
0
 10
221.356895
 20
33.294566
 42
0.075202
  0
VERTEX
  8
0
 10
224.989905
 20
32.040606
 42
0.053752
  0
VERTEX
  8
0
 10
229.285045
 20
31.718591
 42
0.052081
  0
VERTEX
  8
0
 10
233.704560
 20
32.326245
 42
0.058993
  0
VERTEX
  8
0
 10
237.710162
 20
33.827355
 42
-0.066832
  0
VERTEX
  8
0
 10
242.107075
 20
35.397259
 42
-0.050335
  0
VERTEX
  8
0
 10
247.215083
 20
35.955674
 42
-0.046254
  0
VERTEX
  8
0
 10
252.771041
 20
35.487105
 42
-0.038716
  0
VERTEX
  8
0
 10
258.500000
 20
34.000000
 42
0.020819
  0
VERTEX
  8
0
 10
263.337383
 20
32.557871
 42
0.058760
  0
VERTEX
  8
0
 10
266.828486
 20
32.098910
 42
0.089673
  0
VERTEX
  8
0
 10
269.403104
 20
32.529037
 42
0.123327
  0
VERTEX
  8
0
 10
271.345012
 20
33.828741
 42
0.171528
  0
VERTEX
  8
0
 10
272.911066
 20
37.576467
 42
0.089912
  0
VERTEX
  8
0
 10
272.281927
 20
42.654051
 42
0.068018
  0
VERTEX
  8
0
 10
269.535285
 20
48.511907
 42
0.042636
  0
VERTEX
  8
0
 10
264.890313
 20
54.503170
 42
0.000000
  0
VERTEX
  8
0
 10
260.922707
 20
58.807514
 42
0.000000
  0
VERTEX
  8
0
 10
265.189988
 20
61.161480
 42
0.093575
  0
VERTEX
  8
0
 10
269.803656
 20
64.974748
 42
0.247064
  0
VERTEX
  8
0
 10
270.666076
 20
69.039655
 42
0.164662
  0
VERTEX
  8
0
 10
267.716247
 20
73.335170
 42
0.042290
  0
VERTEX
  8
0
 10
260.472658
 20
77.857511
 42
0.041905
  0
VERTEX
  8
0
 10
254.134822
 20
80.461401
 42
0.047962
  0
VERTEX
  8
0
 10
247.730817
 20
81.827785
 42
0.052274
  0
VERTEX
  8
0
 10
241.728491
 20
81.887255
 42
0.075451
  0
VERTEX
  8
0
 10
236.587490
 20
80.601002
 42
-0.020445
  0
VERTEX
  8
0
 10
233.006506
 20
79.273940
 42
-0.149049
  0
VERTEX
  8
0
 10
231.196319
 20
79.241189
 42
-0.211840
  0
VERTEX
  8
0
 10
230.015102
 20
80.226733
 42
-0.046801
  0
VERTEX
  8
0
 10
229.052581
 20
82.750000
 42
-0.066266
  0
VERTEX
  8
0
 10
228.133161
 20
89.343498
 42
-0.084384
  0
VERTEX
  8
0
 10
229.123065
 20
95.394520
 42
-0.084470
  0
VERTEX
  8
0
 10
232.055378
 20
100.774038
 42
-0.066553
  0
VERTEX
  8
0
 10
236.824424
 20
105.401054
 42
0.027411
  0
VERTEX
  8
0
 10
241.303833
 20
109.114536
 42
0.011098
  0
VERTEX
  8
0
 10
247.005197
 20
114.633958
 42
0.011198
  0
VERTEX
  8
0
 10
252.607266
 20
120.563337
 42
0.020487
  0
VERTEX
  8
0
 10
256.859512
 20
125.677261
 42
-0.032382
  0
VERTEX
  8
0
 10
258.802276
 20
127.903852
 42
-0.053545
  0
VERTEX
  8
0
 10
260.737843
 20
129.474322
 42
-0.045813
  0
VERTEX
  8
0
 10
263.170950
 20
130.750592
 42
-0.017571
  0
VERTEX
  8
0
 10
266.754329
 20
132.084635
 42
0.008316
  0
VERTEX
  8
0
 10
270.042214
 20
133.239858
 42
0.003275
  0
VERTEX
  8
0
 10
274.532029
 20
134.935299
 42
0.003240
  0
VERTEX
  8
0
 10
279.361681
 20
136.831329
 42
0.004043
  0
VERTEX
  8
0
 10
283.821001
 20
138.657374
 42
-0.014112
  0
VERTEX
  8
0
 10
291.166564
 20
141.493975
 42
-0.048634
  0
VERTEX
  8
0
 10
296.116796
 20
142.721709
 42
-0.078932
  0
VERTEX
  8
0
 10
299.771416
 20
142.679251
 42
-0.110916
  0
VERTEX
  8
0
 10
302.777494
 20
141.443296
 42
-0.125161
  0
VERTEX
  8
0
 10
304.467832
 20
139.479712
 42
-0.150907
  0
VERTEX
  8
0
 10
304.859222
 20
137.087518
 42
-0.106244
  0
VERTEX
  8
0
 10
303.822134
 20
134.238216
 42
-0.043513
  0
VERTEX
  8
0
 10
301.325151
 20
130.938143
 42
-0.028812
  0
VERTEX
  8
0
 10
298.257056
 20
127.912232
 42
-0.045949
  0
VERTEX
  8
0
 10
295.280473
 20
125.746359
 42
-0.054765
  0
VERTEX
  8
0
 10
292.414001
 20
124.439428
 42
-0.079758
  0
VERTEX
  8
0
 10
289.676778
 20
124.000000
 42
-0.079288
  0
VERTEX
  8
0
 10
286.903913
 20
124.442490
 42
-0.023097
  0
VERTEX
  8
0
 10
282.848740
 20
125.981262
 42
-0.022341
  0
VERTEX
  8
0
 10
278.984040
 20
127.864997
 42
-0.095253
  0
VERTEX
  8
0
 10
277.009663
 20
129.488357
 42
0.129800
  0
VERTEX
  8
0
 10
275.370183
 20
130.658585
 42
0.113285
  0
VERTEX
  8
0
 10
273.277003
 20
130.945345
 42
0.114400
  0
VERTEX
  8
0
 10
271.284378
 20
130.291050
 42
0.134381
  0
VERTEX
  8
0
 10
269.921078
 20
128.852533
 42
0.143177
  0
VERTEX
  8
0
 10
269.338914
 20
126.080095
 42
0.065486
  0
VERTEX
  8
0
 10
270.110337
 20
122.429131
 42
0.044777
  0
VERTEX
  8
0
 10
272.241815
 20
117.763208
 42
0.017877
  0
VERTEX
  8
0
 10
275.941623
 20
111.779213
 42
0.038052
  0
VERTEX
  8
0
 10
281.836883
 20
104.270054
 42
0.053867
  0
VERTEX
  8
0
 10
288.212080
 20
98.661372
 42
0.062599
  0
VERTEX
  8
0
 10
294.757975
 20
95.179474
 42
0.091207
  0
VERTEX
  8
0
 10
301.170091
 20
94.000000
 42
0.042725
  0
VERTEX
  8
0
 10
305.806549
 20
94.396909
 42
0.077991
  0
VERTEX
  8
0
 10
309.395122
 20
95.611916
 42
0.057460
  0
VERTEX
  8
0
 10
313.112412
 20
98.138292
 42
0.014569
  0
VERTEX
  8
0
 10
318.507643
 20
103.073066
 42
0.000000
  0
VERTEX
  8
0
 10
325.748617
 20
110.094246
 42
0.000000
  0
VERTEX
  8
0
 10
329.094354
 20
106.547123
 42
0.133237
  0
VERTEX
  8
0
 10
334.365113
 20
103.317826
 42
0.182290
  0
VERTEX
  8
0
 10
339.864235
 20
103.735694
 42
0.139267
  0
VERTEX
  8
0
 10
344.803290
 20
108.008645
 42
0.069777
  0
VERTEX
  8
0
 10
348.359765
 20
115.533780
 42
-0.018990
  0
VERTEX
  8
0
 10
349.377595
 20
118.409803
 42
-0.007837
  0
VERTEX
  8
0
 10
350.962856
 20
122.225122
 42
-0.007740
  0
VERTEX
  8
0
 10
352.792581
 20
126.268523
 42
-0.009870
  0
VERTEX
  8
0
 10
354.609765
 20
129.934719
 42
0.039428
  0
VERTEX
  8
0
 10
358.279021
 20
138.586914
 42
0.104198
  0
VERTEX
  8
0
 10
359.044470
 20
145.235065
 42
0.104605
  0
VERTEX
  8
0
 10
357.061834
 20
151.611262
 42
0.039923
  0
VERTEX
  8
0
 10
351.862939
 20
159.380628
 42
-0.007019
  0
VERTEX
  8
0
 10
350.382891
 20
161.305514
 42
-0.010164
  0
VERTEX
  8
0
 10
349.134738
 20
163.049704
 42
-0.006187
  0
VERTEX
  8
0
 10
348.142363
 20
164.536917
 42
-0.145016
  0
VERTEX
  8
0
 10
348.000000
 20
165.017449
 42
-0.186046
  0
VERTEX
  8
0
 10
348.192384
 20
165.516586
 42
-0.001970
  0
VERTEX
  8
0
 10
350.734204
 20
168.301944
 42
-0.005921
  0
VERTEX
  8
0
 10
353.740149
 20
171.493253
 42
-0.003775
  0
VERTEX
  8
0
 10
357.307928
 20
175.136821
 42
0.017721
  0
VERTEX
  8
0
 10
364.467034
 20
182.867957
 42
0.021738
  0
VERTEX
  8
0
 10
370.563501
 20
190.593278
 42
0.021776
  0
VERTEX
  8
0
 10
375.957766
 20
198.807350
 42
0.017891
  0
VERTEX
  8
0
 10
381.005069
 20
208.007943
 42
0.012892
  0
VERTEX
  8
0
 10
385.266650
 20
217.055506
 42
0.025493
  0
VERTEX
  8
0
 10
388.087752
 20
224.472945
 42
0.024866
  0
VERTEX
  8
0
 10
390.181535
 20
232.257703
 42
0.011652
  0
VERTEX
  8
0
 10
392.149380
 20
242.505506
 42
0.026572
  0
VERTEX
  8
0
 10
393.988724
 20
258.672699
 42
0.013248
  0
VERTEX
  8
0
 10
394.682213
 20
279.269450
 42
0.012714
  0
VERTEX
  8
0
 10
394.319545
 20
299.123572
 42
0.042761
  0
VERTEX
  8
0
 10
392.647111
 20
312.000000
 42
0.043925
  0
VERTEX
  8
0
 10
385.990736
 20
333.335012
 42
0.055205
  0
VERTEX
  8
0
 10
376.060286
 20
351.490335
 42
0.059351
  0
VERTEX
  8
0
 10
363.107318
 20
365.982434
 42
0.065388
  0
VERTEX
  8
0
 10
347.500000
 20
376.483760
 42
0.040687
  0
VERTEX
  8
0
 10
341.172881
 20
379.013470
 42
0.046101
  0
VERTEX
  8
0
 10
334.777937
 20
380.355705
 42
0.045039
  0
VERTEX
  8
0
 10
328.118273
 20
380.520460
 42
0.035946
  0
SEQEND
  0
POLYLINE
  8
0
 66
1
 70
1
  0
VERTEX
  8
0
 10
346.320190
 20
361.950125
 42
-0.053166
  0
VERTEX
  8
0
 10
353.211835
 20
357.368478
 42
-0.034650
  0
VERTEX
  8
0
 10
360.128636
 20
350.765094
 42
-0.033962
  0
VERTEX
  8
0
 10
366.252752
 20
343.057371
 42
-0.042625
  0
VERTEX
  8
0
 10
370.771807
 20
335.133621
 42
-0.045672
  0
VERTEX
  8
0
 10
375.439052
 20
322.015926
 42
-0.030351
  0
VERTEX
  8
0
 10
378.454681
 20
306.324372
 42
-0.027866
  0
VERTEX
  8
0
 10
379.742496
 20
288.826665
 42
-0.023459
  0
VERTEX
  8
0
 10
379.200645
 20
270.249923
 42
-0.009978
  0
VERTEX
  8
0
 10
377.495882
 20
252.551317
 42
-0.027485
  0
VERTEX
  8
0
 10
375.364346
 20
240.203379
 42
-0.034200
  0
VERTEX
  8
0
 10
372.206918
 20
229.785101
 42
-0.024682
  0
VERTEX
  8
0
 10
367.343466
 20
218.656010
 42
-0.033638
  0
VERTEX
  8
0
 10
358.640846
 20
203.755196
 42
-0.039754
  0
VERTEX
  8
0
 10
348.440705
 20
191.020027
 42
-0.041530
  0
VERTEX
  8
0
 10
336.785576
 20
180.526445
 42
-0.043725
  0
VERTEX
  8
0
 10
323.746946
 20
172.304662
 42
-0.007086
  0
VERTEX
  8
0
 10
319.979197
 20
170.433109
 42
-0.062467
  0
VERTEX
  8
0
 10
318.218661
 20
169.845614
 42
-0.143150
  0
VERTEX
  8
0
 10
316.993589
 20
169.952537
 42
-0.091287
  0
VERTEX
  8
0
 10
315.768340
 20
170.709649
 42
-0.151438
  0
VERTEX
  8
0
 10
314.167748
 20
173.412591
 42
-0.235601
  0
VERTEX
  8
0
 10
314.769560
 20
175.997822
 42
-0.080151
  0
VERTEX
  8
0
 10
318.314752
 20
179.103180
 42
-0.010256
  0
VERTEX
  8
0
 10
327.030999
 20
184.314799
 42
0.027539
  0
VERTEX
  8
0
 10
334.474995
 20
189.122389
 42
0.066216
  0
VERTEX
  8
0
 10
339.219229
 20
193.638273
 42
0.081271
  0
VERTEX
  8
0
 10
342.041718
 20
198.618214
 42
0.061126
  0
VERTEX
  8
0
 10
343.487647
 20
204.756498
 42
-0.033185
  0
VERTEX
  8
0
 10
344.001828
 20
207.654694
 42
-0.016313
  0
VERTEX
  8
0
 10
345.017757
 20
211.261504
 42
-0.015384
  0
VERTEX
  8
0
 10
346.389035
 20
215.163538
 42
-0.015083
  0
VERTEX
  8
0
 10
348.005978
 20
219.000000
 42
0.018100
  0
VERTEX
  8
0
 10
351.568742
 20
227.597778
 42
0.034106
  0
VERTEX
  8
0
 10
353.704767
 20
234.796158
 42
0.038371
  0
VERTEX
  8
0
 10
354.690852
 20
241.617231
 42
0.031251
  0
VERTEX
  8
0
 10
354.723211
 20
249.000000
 42
0.033749
  0
VERTEX
  8
0
 10
353.797927
 20
256.329817
 42
0.033499
  0
VERTEX
  8
0
 10
351.893765
 20
263.487248
 42
0.032084
  0
VERTEX
  8
0
 10
348.959515
 20
270.602597
 42
0.026128
  0
VERTEX
  8
0
 10
344.952621
 20
277.807754
 42
-0.013588
  0
VERTEX
  8
0
 10
343.439297
 20
280.375283
 42
-0.016268
  0
VERTEX
  8
0
 10
342.161082
 20
282.873727
 42
-0.015090
  0
VERTEX
  8
0
 10
341.224851
 20
285.026768
 42
-0.095287
  0
VERTEX
  8
0
 10
341.000000
 20
286.195923
 42
-0.108948
  0
VERTEX
  8
0
 10
341.236529
 20
287.268559
 42
-0.025338
  0
VERTEX
  8
0
 10
342.101562
 20
288.911067
 42
-0.024969
  0
VERTEX
  8
0
 10
343.314572
 20
290.741140
 42
-0.022190
  0
VERTEX
  8
0
 10
344.750000
 20
292.517531
 42
0.001620
  0
VERTEX
  8
0
 10
346.345069
 20
294.333351
 42
0.001330
  0
VERTEX
  8
0
 10
348.037148
 20
296.282686
 42
0.001343
  0
VERTEX
  8
0
 10
349.582439
 20
298.082262
 42
0.003562
  0
VERTEX
  8
0
 10
350.674332
 20
299.379362
 42
-0.091228
  0
VERTEX
  8
0
 10
352.966023
 20
301.295009
 42
-0.132584
  0
VERTEX
  8
0
 10
355.505395
 20
301.945242
 42
-0.125537
  0
VERTEX
  8
0
 10
358.129340
 20
301.239560
 42
-0.077169
  0
VERTEX
  8
0
 10
360.658618
 20
299.250000
 42
-0.020700
  0
VERTEX
  8
0
 10
361.703662
 20
298.031323
 42
-0.016760
  0
VERTEX
  8
0
 10
362.724106
 20
296.643265
 42
-0.017079
  0
VERTEX
  8
0
 10
363.579477
 20
295.297729
 42
-0.041360
  0
VERTEX
  8
0
 10
364.090791
 20
294.237709
 42
0.160275
  0
VERTEX
  8
0
 10
366.290391
 20
291.543177
 42
0.117269
  0
VERTEX
  8
0
 10
369.962997
 20
290.265220
 42
0.130918
  0
VERTEX
  8
0
 10
373.522658
 20
290.835879
 42
0.214227
  0
VERTEX
  8
0
 10
375.523644
 20
293.074496
 42
0.095866
  0
VERTEX
  8
0
 10
375.830344
 20
295.702381
 42
0.104276
  0
VERTEX
  8
0
 10
375.113256
 20
298.170413
 42
0.072117
  0
VERTEX
  8
0
 10
373.178231
 20
300.799139
 42
0.024645
  0
VERTEX
  8
0
 10
369.682889
 20
304.009859
 42
-0.011825
  0
VERTEX
  8
0
 10
367.550299
 20
305.870309
 42
-0.013594
  0
VERTEX
  8
0
 10
365.607529
 20
307.747322
 42
-0.012744
  0
VERTEX
  8
0
 10
364.052249
 20
309.417008
 42
-0.072937
  0
VERTEX
  8
0
 10
363.391669
 20
310.427834
 42
0.114356
  0
VERTEX
  8
0
 10
361.342137
 20
313.063494
 42
0.035211
  0
VERTEX
  8
0
 10
357.193733
 20
315.973630
 42
0.035595
  0
VERTEX
  8
0
 10
352.630944
 20
318.292419
 42
0.100347
  0
VERTEX
  8
0
 10
349.140809
 20
318.996262
 42
0.075265
  0
VERTEX
  8
0
 10
345.710994
 20
318.473430
 42
0.059388
  0
VERTEX
  8
0
 10
342.278324
 20
316.939852
 42
0.059274
  0
VERTEX
  8
0
 10
339.295675
 20
314.638349
 42
0.074233
  0
VERTEX
  8
0
 10
337.191512
 20
311.853106
 42
-0.026723
  0
VERTEX
  8
0
 10
335.068342
 20
308.407412
 42
-0.031765
  0
VERTEX
  8
0
 10
332.698746
 20
305.411386
 42
-0.034819
  0
VERTEX
  8
0
 10
330.219503
 20
303.014543
 42
-0.055467
  0
VERTEX
  8
0
 10
327.768395
 20
301.380232
 42
-0.059818
  0
VERTEX
  8
0
 10
325.709894
 20
300.610676
 42
-0.053600
  0
VERTEX
  8
0
 10
323.449005
 20
300.312415
 42
-0.029234
  0
VERTEX
  8
0
 10
320.174117
 20
300.425061
 42
-0.005334
  0
VERTEX
  8
0
 10
314.137511
 20
301.052110
 42
0.014449
  0
VERTEX
  8
0
 10
308.407555
 20
301.541926
 42
0.009127
  0
VERTEX
  8
0
 10
301.701604
 20
301.797727
 42
0.008164
  0
VERTEX
  8
0
 10
294.127751
 20
301.824576
 42
0.006033
  0
VERTEX
  8
0
 10
285.750000
 20
301.616343
 42
-0.002356
  0
VERTEX
  8
0
 10
275.789247
 20
301.295437
 42
-0.018399
  0
VERTEX
  8
0
 10
271.148726
 20
301.338591
 42
-0.038496
  0
VERTEX
  8
0
 10
268.643153
 20
301.648461
 42
-0.356776
  0
VERTEX
  8
0
 10
268.000000
 20
302.435069
 42
-0.246886
  0
VERTEX
  8
0
 10
268.506298
 20
303.397936
 42
-0.085471
  0
VERTEX
  8
0
 10
269.977771
 20
304.076502
 42
-0.031577
  0
VERTEX
  8
0
 10
272.945145
 20
304.673158
 42
-0.003893
  0
VERTEX
  8
0
 10
279.500000
 20
305.513517
 42
0.027419
  0
VERTEX
  8
0
 10
287.824307
 20
306.981437
 42
0.019562
  0
VERTEX
  8
0
 10
296.951199
 20
309.492555
 42
0.018994
  0
VERTEX
  8
0
 10
306.199754
 20
312.822428
 42
0.020700
  0
VERTEX
  8
0
 10
314.901636
 20
316.760432
 42
-0.005132
  0
VERTEX
  8
0
 10
322.305926
 20
320.392969
 42
-0.042269
  0
VERTEX
  8
0
 10
325.814815
 20
321.719123
 42
-0.062449
  0
VERTEX
  8
0
 10
328.966931
 20
322.202367
 42
-0.018047
  0
VERTEX
  8
0
 10
333.901636
 20
322.159419
 42
0.009654
  0
VERTEX
  8
0
 10
338.191394
 20
322.050070
 42
0.045159
  0
VERTEX
  8
0
 10
340.650853
 20
322.257346
 42
0.071477
  0
VERTEX
  8
0
 10
342.456808
 20
322.849905
 42
0.051737
  0
VERTEX
  8
0
 10
344.250000
 20
323.981999
 42
0.082935
  0
VERTEX
  8
0
 10
346.303942
 20
326.236937
 42
0.182023
  0
VERTEX
  8
0
 10
346.790307
 20
328.483641
 42
0.133857
  0
VERTEX
  8
0
 10
345.693680
 20
330.985888
 42
0.037786
  0
VERTEX
  8
0
 10
342.750444
 20
334.115523
 42
0.019021
  0
VERTEX
  8
0
 10
340.211921
 20
336.264598
 42
0.066995
  0
VERTEX
  8
0
 10
338.371218
 20
337.344782
 42
0.073430
  0
VERTEX
  8
0
 10
336.400683
 20
337.848562
 42
0.025931
  0
VERTEX
  8
0
 10
333.482578
 20
338.000000
 42
-0.026782
  0
VERTEX
  8
0
 10
330.899977
 20
338.138436
 42
-0.043754
  0
VERTEX
  8
0
 10
328.749949
 20
338.562094
 42
-0.045790
  0
VERTEX
  8
0
 10
326.776064
 20
339.335701
 42
-0.032964
  0
VERTEX
  8
0
 10
324.734182
 20
340.534660
 42
0.038534
  0
VERTEX
  8
0
 10
318.425232
 20
344.145382
 42
0.039616
  0
VERTEX
  8
0
 10
311.694031
 20
346.706693
 42
0.029753
  0
VERTEX
  8
0
 10
303.143343
 20
348.662985
 42
0.010814
  0
VERTEX
  8
0
 10
290.829396
 20
350.446055
 42
-0.002972
  0
VERTEX
  8
0
 10
285.860639
 20
351.086151
 42
-0.004125
  0
VERTEX
  8
0
 10
281.416834
 20
351.722858
 42
-0.002582
  0
VERTEX
  8
0
 10
277.691437
 20
352.307731
 42
-0.051425
  0
VERTEX
  8
0
 10
276.579396
 20
352.607907
 42
-0.234708
  0
VERTEX
  8
0
 10
275.448179
 20
353.838569
 42
-0.060255
  0
VERTEX
  8
0
 10
274.999794
 20
356.584113
 42
-0.060828
  0
VERTEX
  8
0
 10
275.219529
 20
359.325463
 42
-0.257211
  0
VERTEX
  8
0
 10
276.250000
 20
360.536541
 42
-0.089185
  0
VERTEX
  8
0
 10
279.782522
 20
361.195387
 42
-0.001546
  0
VERTEX
  8
0
 10
299.408110
 20
361.262109
 42
-0.000808
  0
VERTEX
  8
0
 10
319.667531
 20
361.235609
 42
-0.667176
  0
VERTEX
  8
0
 10
319.950286
 20
360.550000
 42
0.145061
  0
VERTEX
  8
0
 10
319.134890
 20
359.048291
 42
0.090971
  0
VERTEX
  8
0
 10
319.078753
 20
357.035527
 42
0.088654
  0
VERTEX
  8
0
 10
319.747345
 20
355.086150
 42
0.127001
  0
VERTEX
  8
0
 10
321.000000
 20
353.767927
 42
-0.039648
  0
VERTEX
  8
0
 10
321.765247
 20
353.201133
 42
-0.042469
  0
VERTEX
  8
0
 10
322.412500
 20
352.532499
 42
-0.046545
  0
VERTEX
  8
0
 10
322.860225
 20
351.865602
 42
-0.125203
  0
VERTEX
  8
0
 10
323.000000
 20
351.316157
 42
0.195585
  0
VERTEX
  8
0
 10
323.520794
 20
350.035709
 42
0.049418
  0
VERTEX
  8
0
 10
325.275680
 20
348.559220
 42
0.049670
  0
VERTEX
  8
0
 10
327.421849
 20
347.382740
 42
0.100886
  0
VERTEX
  8
0
 10
329.299429
 20
347.000000
 42
0.155170
  0
VERTEX
  8
0
 10
331.138620
 20
347.584856
 42
0.029829
  0
VERTEX
  8
0
 10
333.903268
 20
349.799606
 42
0.028814
  0
VERTEX
  8
0
 10
336.378011
 20
352.310564
 42
0.182104
  0
VERTEX
  8
0
 10
337.000000
 20
353.961714
 42
0.149959
  0
VERTEX
  8
0
 10
336.802526
 20
354.605336
 42
0.013599
  0
VERTEX
  8
0
 10
335.810960
 20
355.986666
 42
0.016678
  0
VERTEX
  8
0
 10
334.502587
 20
357.594251
 42
0.012275
  0
VERTEX
  8
0
 10
332.952205
 20
359.288637
 42
-0.004818
  0
VERTEX
  8
0
 10
330.334825
 20
362.064839
 42
-0.101371
  0
VERTEX
  8
0
 10
329.748958
 20
363.032812
 42
-0.357153
  0
VERTEX
  8
0
 10
329.971234
 20
363.653574
 42
-0.061261
  0
VERTEX
  8
0
 10
331.202205
 20
364.201101
 42
-0.076659
  0
VERTEX
  8
0
 10
334.327225
 20
364.651455
 42
-0.034492
  0
VERTEX
  8
0
 10
338.470051
 20
364.324113
 42
-0.033966
  0
VERTEX
  8
0
 10
342.740838
 20
363.388288
 42
-0.049257
  0
SEQEND
  0
POLYLINE
  8
0
 66
1
 70
1
  0
VERTEX
  8
0
 10
263.500000
 20
357.000000
 42
-0.146489
  0
VERTEX
  8
0
 10
263.602013
 20
356.620597
 42
-0.191582
  0
VERTEX
  8
0
 10
263.461189
 20
356.293750
 42
-0.134005
  0
VERTEX
  8
0
 10
263.074636
 20
356.072951
 42
-0.063222
  0
VERTEX
  8
0
 10
262.500000
 20
356.000000
 42
-0.063222
  0
VERTEX
  8
0
 10
261.925364
 20
356.072951
 42
-0.134005
  0
VERTEX
  8
0
 10
261.538811
 20
356.293750
 42
-0.191582
  0
VERTEX
  8
0
 10
261.397987
 20
356.620597
 42
-0.146489
  0
VERTEX
  8
0
 10
261.500000
 20
357.000000
 42
-0.025622
  0
VERTEX
  8
0
 10
261.764631
 20
357.382847
 42
-0.032351
  0
VERTEX
  8
0
 10
262.048689
 20
357.706250
 42
-0.033983
  0
VERTEX
  8
0
 10
262.313296
 20
357.937141
 42
-0.163822
  0
VERTEX
  8
0
 10
262.500000
 20
358.000000
 42
-0.163822
  0
VERTEX
  8
0
 10
262.686704
 20
357.937141
 42
-0.033983
  0
VERTEX
  8
0
 10
262.951311
 20
357.706250
 42
-0.032351
  0
VERTEX
  8
0
 10
263.235369
 20
357.382847
 42
-0.025622
  0
SEQEND
  0
POLYLINE
  8
0
 66
1
 70
1
  0
VERTEX
  8
0
 10
112.196504
 20
328.722646
 42
-0.029281
  0
VERTEX
  8
0
 10
119.655159
 20
325.320430
 42
-0.033964
  0
VERTEX
  8
0
 10
126.287529
 20
321.213833
 42
-0.029190
  0
VERTEX
  8
0
 10
133.054947
 20
315.733825
 42
-0.014446
  0
VERTEX
  8
0
 10
141.009815
 20
308.052268
 42
0.009807
  0
VERTEX
  8
0
 10
148.595104
 20
300.590376
 42
0.040179
  0
VERTEX
  8
0
 10
153.621577
 20
296.548314
 42
0.057979
  0
VERTEX
  8
0
 10
158.250574
 20
294.131782
 42
0.038493
  0
VERTEX
  8
0
 10
164.000000
 20
292.426416
 42
0.000000
  0
VERTEX
  8
0
 10
169.500000
 20
291.246081
 42
0.000000
  0
VERTEX
  8
0
 10
166.500000
 20
289.944837
 42
-0.080520
  0
VERTEX
  8
0
 10
162.364641
 20
288.895232
 42
-0.032000
  0
VERTEX
  8
0
 10
156.492851
 20
288.754912
 42
-0.031873
  0
VERTEX
  8
0
 10
150.346292
 20
289.395286
 42
-0.049950
  0
VERTEX
  8
0
 10
145.224815
 20
290.798105
 42
-0.026297
  0
VERTEX
  8
0
 10
142.566659
 20
291.984369
 42
-0.008294
  0
VERTEX
  8
0
 10
138.725158
 20
294.028053
 42
-0.008258
  0
VERTEX
  8
0
 10
134.508508
 20
296.453692
 42
-0.009073
  0
VERTEX
  8
0
 10
130.506030
 20
298.944600
 42
0.008904
  0
VERTEX
  8
0
 10
126.251380
 20
301.594441
 42
0.005822
  0
VERTEX
  8
0
 10
121.257006
 20
304.504461
 42
0.005856
  0
VERTEX
  8
0
 10
116.321775
 20
307.227661
 42
0.011155
  0
VERTEX
  8
0
 10
112.281215
 20
309.281104
 42
0.009984
  0
VERTEX
  8
0
 10
106.630131
 20
311.858561
 42
0.048171
  0
VERTEX
  8
0
 10
103.272048
 20
312.940474
 42
0.045554
  0
VERTEX
  8
0
 10
99.687688
 20
313.388566
 42
0.008331
  0
VERTEX
  8
0
 10
93.000000
 20
313.500000
 42
0.007840
  0
VERTEX
  8
0
 10
86.973447
 20
313.405499
 42
0.032349
  0
VERTEX
  8
0
 10
83.345635
 20
313.056030
 42
0.044362
  0
VERTEX
  8
0
 10
80.383384
 20
312.301616
 42
0.025139
  0
VERTEX
  8
0
 10
76.954369
 20
310.898887
 42
0.032310
  0
VERTEX
  8
0
 10
72.027528
 20
308.187025
 42
0.037735
  0
VERTEX
  8
0
 10
67.755410
 20
304.984937
 42
0.039286
  0
VERTEX
  8
0
 10
64.159616
 20
301.303502
 42
0.041275
  0
VERTEX
  8
0
 10
61.249224
 20
297.162295
 42
0.031424
  0
VERTEX
  8
0
 10
59.844447
 20
294.377962
 42
0.045922
  0
VERTEX
  8
0
 10
59.000235
 20
291.766400
 42
0.034452
  0
VERTEX
  8
0
 10
58.505597
 20
288.537290
 42
0.010226
  0
VERTEX
  8
0
 10
58.192593
 20
283.549447
 42
0.033409
  0
VERTEX
  8
0
 10
58.381381
 20
275.868364
 42
0.056234
  0
VERTEX
  8
0
 10
59.684435
 20
269.560716
 42
0.054237
  0
VERTEX
  8
0
 10
62.401615
 20
263.547980
 42
0.028801
  0
VERTEX
  8
0
 10
66.956596
 20
256.750749
 42
0.061871
  0
VERTEX
  8
0
 10
76.705080
 20
246.728709
 42
0.074451
  0
VERTEX
  8
0
 10
88.054294
 20
240.124331
 42
0.068419
  0
VERTEX
  8
0
 10
101.620415
 20
236.779032
 42
0.042809
  0
VERTEX
  8
0
 10
118.000000
 20
236.458338
 42
0.007588
  0
VERTEX
  8
0
 10
122.594041
 20
236.832038
 42
0.005419
  0
VERTEX
  8
0
 10
127.723438
 20
237.383920
 42
0.005473
  0
VERTEX
  8
0
 10
132.602423
 20
238.016639
 42
0.011653
  0
VERTEX
  8
0
 10
136.356385
 20
238.634832
 42
-0.014901
  0
VERTEX
  8
0
 10
141.964914
 20
239.521058
 42
-0.110555
  0
VERTEX
  8
0
 10
144.639254
 20
239.270821
 42
-0.116127
  0
VERTEX
  8
0
 10
146.893095
 20
237.905261
 42
-0.017155
  0
VERTEX
  8
0
 10
150.589505
 20
234.020352
 42
0.128895
  0
VERTEX
  8
0
 10
153.097219
 20
232.347872
 42
0.182533
  0
VERTEX
  8
0
 10
155.752427
 20
232.425636
 42
0.130077
  0
VERTEX
  8
0
 10
158.362366
 20
234.405900
 42
0.054997
  0
VERTEX
  8
0
 10
160.690701
 20
238.176870
 42
-0.048609
  0
VERTEX
  8
0
 10
162.492904
 20
241.180661
 42
-0.098025
  0
VERTEX
  8
0
 10
164.527861
 20
243.030662
 42
-0.073907
  0
VERTEX
  8
0
 10
167.493671
 20
244.266639
 42
-0.018906
  0
VERTEX
  8
0
 10
172.594367
 20
245.351169
 42
0.000000
  0
VERTEX
  8
0
 10
175.688734
 20
245.887747
 42
0.000000
  0
VERTEX
  8
0
 10
175.247174
 20
233.693873
 42
0.000000
  0
VERTEX
  8
0
 10
174.805613
 20
221.500000
 42
0.000000
  0
VERTEX
  8
0
 10
178.117348
 20
217.249295
 42
0.030078
  0
VERTEX
  8
0
 10
180.965065
 20
214.015537
 42
0.111457
  0
VERTEX
  8
0
 10
183.243694
 20
212.565732
 42
0.161711
  0
VERTEX
  8
0
 10
185.429780
 20
212.513230
 42
0.086126
  0
VERTEX
  8
0
 10
187.870173
 20
213.748151
 42
0.076496
  0
VERTEX
  8
0
 10
189.378880
 20
215.279926
 42
0.094770
  0
VERTEX
  8
0
 10
190.222951
 20
217.090938
 42
0.041158
  0
VERTEX
  8
0
 10
190.721979
 20
220.089750
 42
0.004444
  0
VERTEX
  8
0
 10
191.240130
 20
227.103680
 42
-0.012995
  0
VERTEX
  8
0
 10
192.315032
 20
238.903869
 42
-0.091223
  0
VERTEX
  8
0
 10
194.007488
 20
244.399018
 42
-0.184491
  0
VERTEX
  8
0
 10
197.018265
 20
247.067514
 42
-0.090325
  0
VERTEX
  8
0
 10
202.137969
 20
248.000000
 42
0.000000
  0
VERTEX
  8
0
 10
205.145739
 20
248.000000
 42
0.000000
  0
VERTEX
  8
0
 10
204.845917
 20
235.164074
 42
0.000000
  0
VERTEX
  8
0
 10
204.546095
 20
222.328147
 42
0.000000
  0
VERTEX
  8
0
 10
207.397207
 20
218.914074
 42
0.019365
  0
VERTEX
  8
0
 10
209.892425
 20
216.151030
 42
0.073530
  0
VERTEX
  8
0
 10
211.738217
 20
214.745612
 42
0.110460
  0
VERTEX
  8
0
 10
213.490500
 20
214.234244
 42
0.077610
  0
VERTEX
  8
0
 10
215.543572
 20
214.421580
 42
0.143030
  0
VERTEX
  8
0
 10
217.866303
 20
215.782623
 42
0.107233
  0
VERTEX
  8
0
 10
219.405881
 20
218.333777
 42
0.054897
  0
VERTEX
  8
0
 10
220.394976
 20
222.764334
 42
0.011863
  0
VERTEX
  8
0
 10
221.072181
 20
230.597894
 42
-0.010009
  0
VERTEX
  8
0
 10
221.822895
 20
239.673708
 42
-0.087714
  0
VERTEX
  8
0
 10
222.924270
 20
243.539839
 42
-0.195131
  0
VERTEX
  8
0
 10
224.954519
 20
245.367267
 42
-0.087082
  0
VERTEX
  8
0
 10
228.559935
 20
246.000000
 42
-0.018234
  0
VERTEX
  8
0
 10
231.079053
 20
245.908104
 42
-0.091739
  0
VERTEX
  8
0
 10
232.436893
 20
245.552857
 42
-0.134800
  0
VERTEX
  8
0
 10
233.311703
 20
244.805724
 42
-0.058228
  0
VERTEX
  8
0
 10
234.024751
 20
243.434900
 42
-0.055189
  0
VERTEX
  8
0
 10
234.403276
 20
241.971145
 42
-0.011867
  0
VERTEX
  8
0
 10
234.714924
 20
239.365859
 42
-0.012255
  0
VERTEX
  8
0
 10
234.931318
 20
236.315145
 42
-0.011421
  0
VERTEX
  8
0
 10
235.004778
 20
233.184900
 42
0.009602
  0
VERTEX
  8
0
 10
235.099568
 20
228.404405
 42
0.063564
  0
VERTEX
  8
0
 10
235.493404
 20
226.053546
 42
0.086882
  0
VERTEX
  8
0
 10
236.425884
 20
224.200763
 42
0.025836
  0
VERTEX
  8
0
 10
238.453795
 20
221.750000
 42
0.102677
  0
VERTEX
  8
0
 10
243.156774
 20
218.369467
 42
0.254449
  0
VERTEX
  8
0
 10
247.251977
 20
218.696640
 42
0.188342
  0
VERTEX
  8
0
 10
250.094739
 20
222.674992
 42
0.062106
  0
VERTEX
  8
0
 10
251.000000
 20
229.934859
 42
-0.015437
  0
VERTEX
  8
0
 10
251.084148
 20
232.659668
 42
-0.022419
  0
VERTEX
  8
0
 10
251.340021
 20
235.051449
 42
-0.022449
  0
VERTEX
  8
0
 10
251.715753
 20
236.940931
 42
-0.136899
  0
VERTEX
  8
0
 10
252.200000
 20
237.800000
 42
-0.175611
  0
VERTEX
  8
0
 10
254.780975
 20
239.007893
 42
-0.058756
  0
VERTEX
  8
0
 10
259.009753
 20
238.892271
 42
-0.061914
  0
VERTEX
  8
0
 10
262.820607
 20
237.844221
 42
-0.303524
  0
VERTEX
  8
0
 10
264.000000
 20
236.080371
 42
0.101394
  0
VERTEX
  8
0
 10
264.185914
 20
235.173005
 42
0.019741
  0
VERTEX
  8
0
 10
264.906662
 20
233.656506
 42
0.020235
  0
VERTEX
  8
0
 10
265.904926
 20
231.927510
 42
0.017507
  0
VERTEX
  8
0
 10
267.086510
 20
230.197003
 42
0.021623
  0
VERTEX
  8
0
 10
268.702584
 20
228.187621
 42
0.055417
  0
VERTEX
  8
0
 10
270.079458
 20
226.931669
 42
0.075981
  0
VERTEX
  8
0
 10
271.405937
 20
226.245952
 42
0.082987
  0
VERTEX
  8
0
 10
272.836510
 20
226.015313
 42
0.045257
  0
VERTEX
  8
0
 10
274.988379
 20
226.222967
 42
0.101870
  0
VERTEX
  8
0
 10
276.497778
 20
226.842872
 42
0.075311
  0
VERTEX
  8
0
 10
277.906465
 20
228.137084
 42
0.016930
  0
VERTEX
  8
0
 10
279.866274
 20
230.750000
 42
-0.035873
  0
VERTEX
  8
0
 10
281.412579
 20
232.656752
 42
-0.117711
  0
VERTEX
  8
0
 10
282.756811
 20
233.543894
 42
-0.077139
  0
VERTEX
  8
0
 10
284.659913
 20
233.919833
 42
-0.009982
  0
VERTEX
  8
0
 10
288.818094
 20
234.007554
 42
0.047705
  0
VERTEX
  8
0
 10
303.653874
 20
235.443180
 42
0.072778
  0
VERTEX
  8
0
 10
315.840890
 20
239.714515
 42
0.081628
  0
VERTEX
  8
0
 10
325.295393
 20
246.831988
 42
0.079496
  0
VERTEX
  8
0
 10
332.076781
 20
256.660880
 42
-0.011695
  0
VERTEX
  8
0
 10
333.306682
 20
259.090070
 42
-0.017685
  0
VERTEX
  8
0
 10
334.499473
 20
261.137884
 42
-0.012633
  0
VERTEX
  8
0
 10
335.563884
 20
262.734296
 42
-0.244047
  0
VERTEX
  8
0
 10
336.075833
 20
263.000000
 42
-0.362427
  0
VERTEX
  8
0
 10
338.060696
 20
261.343701
 42
-0.031373
  0
VERTEX
  8
0
 10
338.890656
 20
254.298198
 42
-0.035597
  0
VERTEX
  8
0
 10
338.754374
 20
246.104417
 42
-0.050148
  0
VERTEX
  8
0
 10
337.389689
 20
238.931501
 42
-0.011544
  0
VERTEX
  8
0
 10
336.629910
 20
236.570253
 42
-0.008245
  0
VERTEX
  8
0
 10
335.675616
 20
233.963118
 42
-0.008331
  0
VERTEX
  8
0
 10
334.683089
 20
231.506988
 42
-0.017604
  0
VERTEX
  8
0
 10
333.815834
 20
229.645070
 42
0.000000
  0
VERTEX
  8
0
 10
331.852289
 20
225.790139
 42
0.000000
  0
VERTEX
  8
0
 10
329.611693
 20
227.895070
 42
0.089555
  0
VERTEX
  8
0
 10
326.965619
 20
229.611931
 42
0.138810
  0
VERTEX
  8
0
 10
324.280169
 20
229.938637
 42
0.157903
  0
VERTEX
  8
0
 10
322.060297
 20
228.816557
 42
0.125391
  0
VERTEX
  8
0
 10
320.671424
 20
226.500000
 42
0.130290
  0
VERTEX
  8
0
 10
320.632493
 20
225.263812
 42
0.042902
  0
VERTEX
  8
0
 10
321.197900
 20
223.519111
 42
0.032238
  0
VERTEX
  8
0
 10
322.307506
 20
221.299618
 42
0.014341
  0
VERTEX
  8
0
 10
324.036643
 20
218.521466
 42
-0.043887
  0
VERTEX
  8
0
 10
327.434253
 20
212.267961
 42
-0.175591
  0
VERTEX
  8
0
 10
327.701426
 20
207.987707
 42
-0.161139
  0
VERTEX
  8
0
 10
325.155841
 20
204.305141
 42
-0.035526
  0
VERTEX
  8
0
 10
318.624430
 20
200.068687
 42
0.009398
  0
VERTEX
  8
0
 10
315.300128
 20
198.151247
 42
0.005993
  0
VERTEX
  8
0
 10
311.504108
 20
195.803134
 42
0.006020
  0
VERTEX
  8
0
 10
307.835930
 20
193.410382
 42
0.011139
  0
VERTEX
  8
0
 10
304.924858
 20
191.365768
 42
-0.007670
  0
VERTEX
  8
0
 10
301.219996
 20
188.725065
 42
-0.059208
  0
VERTEX
  8
0
 10
299.339973
 20
187.732827
 42
-0.126964
  0
VERTEX
  8
0
 10
297.913203
 20
187.568354
 42
-0.088629
  0
VERTEX
  8
0
 10
296.365459
 20
188.072004
 42
-0.017939
  0
VERTEX
  8
0
 10
295.459930
 20
188.599255
 42
-0.025347
  0
VERTEX
  8
0
 10
294.697116
 20
189.136760
 42
-0.023507
  0
VERTEX
  8
0
 10
294.132397
 20
189.623644
 42
-0.209363
  0
VERTEX
  8
0
 10
294.007702
 20
189.918980
 42
-0.226506
  0
VERTEX
  8
0
 10
294.164910
 20
190.237284
 42
-0.010644
  0
VERTEX
  8
0
 10
295.147547
 20
190.976973
 42
-0.015789
  0
VERTEX
  8
0
 10
296.396820
 20
191.817785
 42
-0.010518
  0
VERTEX
  8
0
 10
297.877208
 20
192.704757
 42
0.025227
  0
VERTEX
  8
0
 10
302.005886
 20
195.346459
 42
0.030974
  0
VERTEX
  8
0
 10
305.559592
 20
198.229459
 42
0.032416
  0
VERTEX
  8
0
 10
308.593943
 20
201.406144
 42
0.033138
  0
VERTEX
  8
0
 10
311.168104
 20
204.926124
 42
0.045075
  0
VERTEX
  8
0
 10
313.404628
 20
209.274132
 42
0.116925
  0
VERTEX
  8
0
 10
313.935386
 20
212.734357
 42
0.126811
  0
VERTEX
  8
0
 10
312.844584
 20
215.889434
 42
0.057737
  0
VERTEX
  8
0
 10
310.011231
 20
219.250000
 42
0.036465
  0
VERTEX
  8
0
 10
306.627603
 20
221.997797
 42
0.140471
  0
VERTEX
  8
0
 10
304.091044
 20
222.866780
 42
0.201278
  0
VERTEX
  8
0
 10
302.024902
 20
222.121204
 42
0.086327
  0
VERTEX
  8
0
 10
300.203490
 20
219.750000
 42
-0.054773
  0
VERTEX
  8
0
 10
296.980933
 20
214.960022
 42
-0.049081
  0
VERTEX
  8
0
 10
292.684904
 20
210.785444
 42
-0.046261
  0
VERTEX
  8
0
 10
287.400436
 20
207.319281
 42
-0.038561
  0
VERTEX
  8
0
 10
281.241721
 20
204.635315
 42
0.022731
  0
VERTEX
  8
0
 10
274.639183
 20
202.003137
 42
0.042730
  0
VERTEX
  8
0
 10
269.632141
 20
199.200995
 42
0.053614
  0
VERTEX
  8
0
 10
266.019826
 20
196.141374
 42
0.079632
  0
VERTEX
  8
0
 10
263.676585
 20
192.730883
 42
-0.036131
  0
VERTEX
  8
0
 10
262.582738
 20
190.799427
 42
-0.101174
  0
VERTEX
  8
0
 10
261.484130
 20
189.709118
 42
-0.086543
  0
VERTEX
  8
0
 10
259.943155
 20
189.044323
 42
-0.021958
  0
VERTEX
  8
0
 10
257.257496
 20
188.525802
 42
0.039450
  0
VERTEX
  8
0
 10
253.784059
 20
187.728352
 42
0.072913
  0
VERTEX
  8
0
 10
251.181987
 20
186.471080
 42
0.098605
  0
VERTEX
  8
0
 10
249.572047
 20
184.838940
 42
0.146530
  0
VERTEX
  8
0
 10
249.000000
 20
182.928865
 42
0.166645
  0
VERTEX
  8
0
 10
249.785992
 20
180.636074
 42
0.027849
  0
VERTEX
  8
0
 10
252.885192
 20
177.075227
 42
0.030210
  0
VERTEX
  8
0
 10
256.436724
 20
173.841990
 42
0.109052
  0
VERTEX
  8
0
 10
259.160987
 20
172.489294
 42
-0.092664
  0
VERTEX
  8
0
 10
260.562970
 20
171.848979
 42
-0.047176
  0
VERTEX
  8
0
 10
262.040533
 20
170.585350
 42
-0.036225
  0
VERTEX
  8
0
 10
263.629656
 20
168.685542
 42
-0.017794
  0
VERTEX
  8
0
 10
265.380814
 20
166.062090
 42
0.013553
  0
VERTEX
  8
0
 10
266.977607
 20
163.625398
 42
0.010650
  0
VERTEX
  8
0
 10
268.834138
 20
161.071091
 42
0.010798
  0
VERTEX
  8
0
 10
270.663056
 20
158.769204
 42
0.025928
  0
VERTEX
  8
0
 10
272.139293
 20
157.168075
 42
0.000000
  0
VERTEX
  8
0
 10
275.338933
 20
154.039834
 42
0.000000
  0
VERTEX
  8
0
 10
269.614347
 20
151.508150
 42
-0.022551
  0
VERTEX
  8
0
 10
262.963774
 20
148.918729
 42
-0.020098
  0
VERTEX
  8
0
 10
255.848314
 20
146.826263
 42
-0.019946
  0
VERTEX
  8
0
 10
248.528596
 20
145.297216
 42
-0.021274
  0
VERTEX
  8
0
 10
241.265758
 20
144.395641
 42
0.000000
  0
VERTEX
  8
0
 10
232.649312
 20
143.696507
 42
0.000000
  0
VERTEX
  8
0
 10
234.706430
 20
147.098253
 42
0.008656
  0
VERTEX
  8
0
 10
242.210661
 20
160.007129
 42
0.052343
  0
VERTEX
  8
0
 10
245.255967
 20
167.117196
 42
0.130182
  0
VERTEX
  8
0
 10
245.439713
 20
171.577692
 42
0.198773
  0
VERTEX
  8
0
 10
243.250000
 20
174.709567
 42
-0.020556
  0
VERTEX
  8
0
 10
242.101354
 20
175.511186
 42
-0.016176
  0
VERTEX
  8
0
 10
240.923968
 20
176.468678
 42
-0.016463
  0
VERTEX
  8
0
 10
239.886622
 20
177.431259
 42
-0.038318
  0
VERTEX
  8
0
 10
239.193296
 20
178.232620
 42
0.189428
  0
VERTEX
  8
0
 10
236.609209
 20
179.851737
 42
0.210450
  0
VERTEX
  8
0
 10
233.757166
 20
179.185341
 42
0.089805
  0
VERTEX
  8
0
 10
230.441116
 20
175.606350
 42
0.021976
  0
VERTEX
  8
0
 10
226.403301
 20
168.622454
 42
-0.032283
  0
VERTEX
  8
0
 10
218.031216
 20
154.806638
 42
-0.023428
  0
VERTEX
  8
0
 10
207.056183
 20
140.553794
 42
-0.023810
  0
VERTEX
  8
0
 10
195.337375
 20
127.990933
 42
-0.047950
  0
VERTEX
  8
0
 10
184.784001
 20
119.514136
 42
-0.044161
  0
VERTEX
  8
0
 10
179.570832
 20
116.715947
 42
-0.069976
  0
VERTEX
  8
0
 10
174.686263
 20
115.392307
 42
-0.057109
  0
VERTEX
  8
0
 10
168.948419
 20
115.330272
 42
-0.020437
  0
VERTEX
  8
0
 10
160.838241
 20
116.507528
 42
0.014334
  0
VERTEX
  8
0
 10
156.540885
 20
117.184963
 42
0.008128
  0
VERTEX
  8
0
 10
151.305608
 20
117.770766
 42
0.008110
  0
VERTEX
  8
0
 10
146.006427
 20
118.190043
 42
0.013226
  0
VERTEX
  8
0
 10
141.500000
 20
118.353639
 42
0.008403
  0
VERTEX
  8
0
 10
135.768004
 20
118.313696
 42
0.033541
  0
VERTEX
  8
0
 10
132.271438
 20
117.995226
 42
0.044963
  0
VERTEX
  8
0
 10
129.380817
 20
117.264042
 42
0.024738
  0
VERTEX
  8
0
 10
126.000000
 20
115.885842
 42
0.029576
  0
VERTEX
  8
0
 10
120.964097
 20
113.162845
 42
0.042107
  0
VERTEX
  8
0
 10
116.883391
 20
110.130991
 42
0.041341
  0
VERTEX
  8
0
 10
113.314687
 20
106.413694
 42
0.027151
  0
VERTEX
  8
0
 10
109.826235
 20
101.609856
 42
0.000000
  0
VERTEX
  8
0
 10
106.000000
 20
95.689927
 42
0.000000
  0
VERTEX
  8
0
 10
106.000000
 20
105.689976
 42
-0.015426
  0
VERTEX
  8
0
 10
106.230587
 20
113.162049
 42
-0.118581
  0
VERTEX
  8
0
 10
107.251533
 20
116.488871
 42
-0.163905
  0
VERTEX
  8
0
 10
109.539600
 20
118.463722
 42
-0.036915
  0
VERTEX
  8
0
 10
114.500000
 20
120.070947
 42
0.019746
  0
VERTEX
  8
0
 10
118.492453
 20
121.214792
 42
0.027624
  0
VERTEX
  8
0
 10
121.947133
 20
122.569655
 42
0.022106
  0
VERTEX
  8
0
 10
125.756112
 20
124.519783
 42
0.007841
  0
VERTEX
  8
0
 10
131.029642
 20
127.631449
 42
-0.045233
  0
VERTEX
  8
0
 10
136.095682
 20
130.131025
 42
-0.028299
  0
VERTEX
  8
0
 10
142.395371
 20
132.158480
 42
-0.027644
  0
VERTEX
  8
0
 10
149.122011
 20
133.518609
 42
-0.034106
  0
VERTEX
  8
0
 10
155.500000
 20
134.004598
 42
0.071660
  0
VERTEX
  8
0
 10
161.644941
 20
134.939233
 42
0.067749
  0
VERTEX
  8
0
 10
167.405040
 20
137.576114
 42
0.070499
  0
VERTEX
  8
0
 10
172.049119
 20
141.530547
 42
0.091106
  0
VERTEX
  8
0
 10
174.936382
 20
146.315100
 42
0.120739
  0
VERTEX
  8
0
 10
176.111701
 20
155.986603
 42
0.042894
  0
VERTEX
  8
0
 10
173.254319
 20
169.720960
 42
0.042235
  0
VERTEX
  8
0
 10
167.719032
 20
183.771874
 42
0.062142
  0
VERTEX
  8
0
 10
160.413726
 20
194.829758
 42
0.036261
  0
VERTEX
  8
0
 10
156.902577
 20
198.375933
 42
0.026266
  0
VERTEX
  8
0
 10
152.527900
 20
201.808809
 42
0.026537
  0
VERTEX
  8
0
 10
147.900381
 20
204.708541
 42
0.041905
  0
VERTEX
  8
0
 10
143.631493
 20
206.630017
 42
0.021868
  0
VERTEX
  8
0
 10
140.298698
 20
207.644403
 42
0.067003
  0
VERTEX
  8
0
 10
137.958982
 20
207.921591
 42
0.098816
  0
VERTEX
  8
0
 10
136.169063
 20
207.534695
 42
0.094159
  0
VERTEX
  8
0
 10
134.629870
 20
206.487013
 42
-0.054517
  0
VERTEX
  8
0
 10
133.700412
 20
205.740803
 42
-0.190759
  0
VERTEX
  8
0
 10
132.959867
 20
205.597953
 42
-0.122367
  0
VERTEX
  8
0
 10
132.114891
 20
205.985430
 42
-0.017396
  0
VERTEX
  8
0
 10
130.653645
 20
207.237013
 42
0.007282
  0
VERTEX
  8
0
 10
127.909673
 20
209.685191
 42
0.024928
  0
VERTEX
  8
0
 10
126.027643
 20
211.158194
 42
0.034678
  0
VERTEX
  8
0
 10
124.365915
 20
212.165402
 42
0.028072
  0
VERTEX
  8
0
 10
122.461018
 20
213.014821
 42
0.082425
  0
VERTEX
  8
0
 10
120.398435
 20
213.430443
 42
0.088846
  0
VERTEX
  8
0
 10
118.368531
 20
213.138457
 42
0.096701
  0
VERTEX
  8
0
 10
116.700526
 20
212.199105
 42
0.120631
  0
VERTEX
  8
0
 10
115.663284
 20
210.761459
 42
-0.065082
  0
VERTEX
  8
0
 10
115.391505
 20
210.281099
 42
-0.185812
  0
VERTEX
  8
0
 10
115.071396
 20
210.081074
 42
-0.197107
  0
VERTEX
  8
0
 10
114.713547
 20
210.152926
 42
-0.073714
  0
VERTEX
  8
0
 10
114.326131
 20
210.502812
 42
0.074799
  0
VERTEX
  8
0
 10
111.454712
 20
213.084847
 42
0.042765
  0
VERTEX
  8
0
 10
107.349024
 20
215.314946
 42
0.036368
  0
VERTEX
  8
0
 10
102.162483
 20
217.146146
 42
0.024150
  0
VERTEX
  8
0
 10
96.000000
 20
218.513918
 42
-0.019145
  0
VERTEX
  8
0
 10
82.973328
 20
221.268751
 42
-0.020565
  0
VERTEX
  8
0
 10
70.507632
 20
224.959029
 42
-0.022050
  0
VERTEX
  8
0
 10
59.704262
 20
229.186981
 42
-0.047257
  0
VERTEX
  8
0
 10
51.906487
 20
233.564805
 42
-0.038189
  0
VERTEX
  8
0
 10
46.987737
 20
237.561593
 42
-0.022825
  0
VERTEX
  8
0
 10
41.757790
 20
242.993477
 42
-0.022861
  0
VERTEX
  8
0
 10
37.178216
 20
248.713681
 42
-0.050056
  0
VERTEX
  8
0
 10
34.347762
 20
253.551566
 42
-0.026260
  0
VERTEX
  8
0
 10
32.880398
 20
257.259491
 42
-0.053506
  0
VERTEX
  8
0
 10
32.205622
 20
260.314171
 42
-0.031306
  0
VERTEX
  8
0
 10
32.012388
 20
264.344830
 42
-0.004208
  0
VERTEX
  8
0
 10
32.208533
 20
272.832787
 42
-0.005874
  0
VERTEX
  8
0
 10
32.556603
 20
280.871980
 42
-0.026646
  0
VERTEX
  8
0
 10
33.063352
 20
285.532936
 42
-0.036238
  0
VERTEX
  8
0
 10
33.987327
 20
289.408854
 42
-0.017782
  0
VERTEX
  8
0
 10
35.689850
 20
294.190983
 42
-0.043371
  0
VERTEX
  8
0
 10
40.781522
 20
304.358434
 42
-0.047102
  0
VERTEX
  8
0
 10
47.431847
 20
313.196184
 42
-0.047117
  0
VERTEX
  8
0
 10
55.616525
 20
320.630658
 42
-0.043454
  0
VERTEX
  8
0
 10
65.264550
 20
326.631011
 42
-0.029682
  0
VERTEX
  8
0
 10
71.496036
 20
329.340791
 42
-0.042991
  0
VERTEX
  8
0
 10
77.285595
 20
330.911418
 42
-0.036457
  0
VERTEX
  8
0
 10
83.930568
 20
331.619099
 42
-0.014972
  0
VERTEX
  8
0
 10
93.000000
 20
331.648804
 42
-0.007036
  0
VERTEX
  8
0
 10
99.945171
 20
331.365718
 42
-0.024119
  0
VERTEX
  8
0
 10
104.436357
 20
330.901311
 42
-0.032268
  0
VERTEX
  8
0
 10
108.134011
 20
330.090812
 42
-0.022282
  0
SEQEND
  0
POLYLINE
  8
0
 66
1
 70
1
  0
VERTEX
  8
0
 10
297.289749
 20
330.000000
 42
-0.061774
  0
VERTEX
  8
0
 10
296.772293
 20
328.701329
 42
-0.183015
  0
VERTEX
  8
0
 10
296.054459
 20
328.089043
 42
-0.243084
  0
VERTEX
  8
0
 10
295.261111
 20
328.194967
 42
-0.102248
  0
VERTEX
  8
0
 10
294.500000
 20
329.000000
 42
-0.145788
  0
VERTEX
  8
0
 10
294.230687
 20
329.996164
 42
-0.139514
  0
VERTEX
  8
0
 10
294.543213
 20
330.996767
 42
-0.129851
  0
VERTEX
  8
0
 10
295.362005
 20
331.733308
 42
-0.119136
  0
VERTEX
  8
0
 10
296.465397
 20
332.000000
 42
-0.133291
  0
VERTEX
  8
0
 10
296.990927
 20
331.857370
 42
-0.163894
  0
VERTEX
  8
0
 10
297.322674
 20
331.475948
 42
-0.114093
  0
VERTEX
  8
0
 10
297.426346
 20
330.848527
 42
-0.048120
  0
SEQEND
  0
POLYLINE
  8
0
 66
1
 70
1
  0
VERTEX
  8
0
 10
73.794138
 20
208.473887
 42
0.014230
  0
VERTEX
  8
0
 10
84.468071
 20
205.567007
 42
0.012501
  0
VERTEX
  8
0
 10
95.759839
 20
203.131585
 42
0.009668
  0
VERTEX
  8
0
 10
105.866389
 20
201.416574
 42
0.091008
  0
VERTEX
  8
0
 10
110.248758
 20
201.560189
 42
0.050311
  0
VERTEX
  8
0
 10
111.404289
 20
201.936480
 42
0.036232
  0
VERTEX
  8
0
 10
112.603284
 20
202.572600
 42
0.036820
  0
VERTEX
  8
0
 10
113.666079
 20
203.353739
 42
0.063173
  0
VERTEX
  8
0
 10
114.404210
 20
204.166703
 42
-0.062990
  0
VERTEX
  8
0
 10
115.354642
 20
205.214256
 42
-0.278074
  0
VERTEX
  8
0
 10
116.142534
 20
205.346027
 42
-0.103634
  0
VERTEX
  8
0
 10
117.155711
 20
204.677490
 42
-0.006507
  0
VERTEX
  8
0
 10
119.655453
 20
202.089165
 42
0.051344
  0
VERTEX
  8
0
 10
122.768735
 20
199.395719
 42
0.099383
  0
VERTEX
  8
0
 10
125.772352
 20
198.081283
 42
0.125316
  0
VERTEX
  8
0
 10
128.572667
 20
198.179160
 42
0.113305
  0
VERTEX
  8
0
 10
131.105989
 20
199.595919
 42
-0.038231
  0
VERTEX
  8
0
 10
132.200066
 20
200.443528
 42
-0.161569
  0
VERTEX
  8
0
 10
132.990425
 20
200.655765
 42
-0.124336
  0
VERTEX
  8
0
 10
133.869204
 20
200.378691
 42
-0.018900
  0
VERTEX
  8
0
 10
135.409590
 20
199.345919
 42
-0.026513
  0
VERTEX
  8
0
 10
136.420523
 20
198.526010
 42
-0.025138
  0
VERTEX
  8
0
 10
137.358073
 20
197.589737
 42
-0.025988
  0
VERTEX
  8
0
 10
138.101457
 20
196.677662
 42
-0.075852
  0
VERTEX
  8
0
 10
138.475733
 20
195.959569
 42
0.122851
  0
VERTEX
  8
0
 10
138.972809
 20
195.190060
 42
0.019412
  0
VERTEX
  8
0
 10
140.343685
 20
194.002266
 42
0.020545
  0
VERTEX
  8
0
 10
142.107011
 20
192.705597
 42
0.016671
  0
VERTEX
  8
0
 10
144.096061
 20
191.459569
 42
-0.028259
  0
VERTEX
  8
0
 10
146.426328
 20
189.923507
 42
-0.030079
  0
VERTEX
  8
0
 10
148.517883
 20
188.163808
 42
-0.031394
  0
VERTEX
  8
0
 10
150.297170
 20
186.247913
 42
-0.038515
  0
VERTEX
  8
0
 10
151.693201
 20
184.244895
 42
-0.023532
  0
VERTEX
  8
0
 10
153.880570
 20
180.090510
 42
-0.015552
  0
VERTEX
  8
0
 10
156.013921
 20
175.134469
 42
-0.007250
  0
VERTEX
  8
0
 10
157.831955
 20
170.317305
 42
-0.290745
  0
VERTEX
  8
0
 10
157.596850
 20
169.263516
 42
-0.319477
  0
VERTEX
  8
0
 10
157.177391
 20
169.192833
 42
-0.003016
  0
VERTEX
  8
0
 10
154.224701
 20
170.646724
 42
-0.008564
  0
VERTEX
  8
0
 10
150.789491
 20
172.438208
 42
-0.005266
  0
VERTEX
  8
0
 10
146.803912
 20
174.659026
 42
0.010640
  0
VERTEX
  8
0
 10
136.512109
 20
180.249671
 42
0.016386
  0
VERTEX
  8
0
 10
127.361431
 20
184.597602
 42
0.017303
  0
VERTEX
  8
0
 10
118.329117
 20
188.165451
 42
0.014030
  0
VERTEX
  8
0
 10
108.420702
 20
191.378058
 42
-0.009521
  0
VERTEX
  8
0
 10
92.570395
 20
196.359718
 42
-0.014050
  0
VERTEX
  8
0
 10
78.880581
 20
201.382653
 42
-0.015020
  0
VERTEX
  8
0
 10
68.040818
 20
206.091319
 42
-0.061791
  0
VERTEX
  8
0
 10
62.000000
 20
209.906085
 42
-0.137133
  0
VERTEX
  8
0
 10
61.101352
 20
211.187630
 42
-0.556283
  0
VERTEX
  8
0
 10
61.576910
 20
211.780145
 42
-0.040223
  0
VERTEX
  8
0
 10
64.969175
 20
211.088108
 42
-0.003175
  0
SEQEND
  0
POLYLINE
  8
0
 66
1
 70
1
  0
VERTEX
  8
0
 10
289.701742
 20
179.712980
 42
0.024204
  0
VERTEX
  8
0
 10
294.004346
 20
174.181218
 42
0.015583
  0
VERTEX
  8
0
 10
299.487263
 20
168.183889
 42
0.014698
  0
VERTEX
  8
0
 10
305.768740
 20
162.097589
 42
0.013982
  0
VERTEX
  8
0
 10
312.500000
 20
156.285352
 42
-0.014023
  0
VERTEX
  8
0
 10
320.795601
 20
149.121157
 42
-0.088958
  0
VERTEX
  8
0
 10
324.168141
 20
144.711934
 42
-0.154566
  0
VERTEX
  8
0
 10
324.874601
 20
140.566691
 42
-0.070174
  0
VERTEX
  8
0
 10
323.347996
 20
135.217881
 42
0.000000
  0
VERTEX
  8
0
 10
321.695992
 20
131.500000
 42
0.000000
  0
VERTEX
  8
0
 10
320.903664
 20
136.440358
 42
0.034429
  0
VERTEX
  8
0
 10
320.394718
 20
138.635199
 42
0.021785
  0
VERTEX
  8
0
 10
319.517523
 20
141.113020
 42
0.021815
  0
VERTEX
  8
0
 10
318.431510
 20
143.497130
 42
0.035405
  0
VERTEX
  8
0
 10
317.283921
 20
145.403638
 42
0.071196
  0
VERTEX
  8
0
 10
313.096675
 20
149.855552
 42
0.025554
  0
VERTEX
  8
0
 10
306.008375
 20
154.945727
 42
0.025246
  0
VERTEX
  8
0
 10
297.750512
 20
159.687023
 42
0.031809
  0
VERTEX
  8
0
 10
289.657718
 20
163.176746
 42
-0.009911
  0
VERTEX
  8
0
 10
285.003623
 20
164.946371
 42
-0.035670
  0
VERTEX
  8
0
 10
282.151925
 20
166.339689
 42
-0.055680
  0
VERTEX
  8
0
 10
280.262672
 20
167.737636
 42
-0.068838
  0
VERTEX
  8
0
 10
278.878596
 20
169.431610
 42
-0.091854
  0
VERTEX
  8
0
 10
277.166636
 20
173.919762
 42
-0.095417
  0
VERTEX
  8
0
 10
277.209529
 20
178.660783
 42
-0.099020
  0
VERTEX
  8
0
 10
278.988679
 20
182.907877
 42
-0.107503
  0
VERTEX
  8
0
 10
282.225074
 20
185.999449
 42
-0.009272
  0
VERTEX
  8
0
 10
284.176425
 20
187.142227
 42
-0.104654
  0
VERTEX
  8
0
 10
285.027377
 20
187.407975
 42
-0.285179
  0
VERTEX
  8
0
 10
285.524939
 20
187.160553
 42
-0.086088
  0
VERTEX
  8
0
 10
285.853716
 20
186.342095
 42
0.068356
  0
VERTEX
  8
0
 10
286.188271
 20
185.416166
 42
0.010680
  0
VERTEX
  8
0
 10
287.129982
 20
183.710982
 42
0.011712
  0
VERTEX
  8
0
 10
288.337969
 20
181.737874
 42
0.009969
  0
SEQEND
  0
POLYLINE
  8
0
 66
1
 70
1
  0
VERTEX
  8
0
 10
340.902988
 20
151.600091
 42
-0.020099
  0
VERTEX
  8
0
 10
342.534472
 20
149.775516
 42
-0.067233
  0
VERTEX
  8
0
 10
343.378611
 20
148.414412
 42
-0.098771
  0
VERTEX
  8
0
 10
343.658649
 20
147.185022
 42
-0.081418
  0
VERTEX
  8
0
 10
343.476766
 20
145.850091
 42
-0.059528
  0
VERTEX
  8
0
 10
342.059664
 20
142.649404
 42
-0.494916
  0
VERTEX
  8
0
 10
340.708810
 20
142.492097
 42
-0.106722
  0
VERTEX
  8
0
 10
339.138328
 20
145.025440
 42
-0.006955
  0
VERTEX
  8
0
 10
336.335973
 20
153.250000
 42
-0.139128
  0
VERTEX
  8
0
 10
336.288539
 20
154.497614
 42
-0.446271
  0
VERTEX
  8
0
 10
336.935005
 20
154.844777
 42
-0.095975
  0
VERTEX
  8
0
 10
338.492111
 20
153.915545
 42
-0.017905
  0
SEQEND
  0
POLYLINE
  8
0
 66
1
 70
1
  0
VERTEX
  8
0
 10
233.399678
 20
128.114125
 42
-0.178650
  0
VERTEX
  8
0
 10
234.086349
 20
127.502760
 42
-0.274297
  0
VERTEX
  8
0
 10
234.051017
 20
126.729281
 42
-0.066832
  0
VERTEX
  8
0
 10
232.984111
 20
125.499349
 42
-0.006548
  0
VERTEX
  8
0
 10
229.998147
 20
122.934410
 42
0.005502
  0
VERTEX
  8
0
 10
222.552931
 20
116.566007
 42
0.025538
  0
VERTEX
  8
0
 10
218.490653
 20
112.629539
 42
0.042471
  0
VERTEX
  8
0
 10
215.933732
 20
109.369923
 42
0.043533
  0
VERTEX
  8
0
 10
213.988271
 20
105.751098
 42
0.056224
  0
VERTEX
  8
0
 10
212.351392
 20
100.343392
 42
0.048222
  0
VERTEX
  8
0
 10
211.844930
 20
94.415236
 42
0.042108
  0
VERTEX
  8
0
 10
212.479550
 20
87.776903
 42
0.026856
  0
VERTEX
  8
0
 10
214.272701
 20
80.226616
 42
-0.002742
  0
VERTEX
  8
0
 10
215.182559
 20
77.078946
 42
-0.004973
  0
VERTEX
  8
0
 10
215.886996
 20
74.493012
 42
-0.002084
  0
VERTEX
  8
0
 10
216.431368
 20
72.377369
 42
-0.761733
  0
VERTEX
  8
0
 10
216.340760
 20
72.325906
 42
-0.044453
  0
VERTEX
  8
0
 10
216.076618
 20
72.641712
 42
-0.000199
  0
VERTEX
  8
0
 10
213.585372
 20
76.226693
 42
-0.000955
  0
VERTEX
  8
0
 10
210.763123
 20
80.308081
 42
-0.000603
  0
VERTEX
  8
0
 10
207.484043
 20
85.081852
 42
-0.009731
  0
VERTEX
  8
0
 10
201.682144
 20
93.914106
 42
-0.067192
  0
VERTEX
  8
0
 10
199.536707
 20
98.622330
 42
-0.124958
  0
VERTEX
  8
0
 10
199.367406
 20
102.402501
 42
-0.068848
  0
VERTEX
  8
0
 10
200.926036
 20
106.789838
 42
-0.066689
  0
VERTEX
  8
0
 10
203.673546
 20
110.704139
 42
-0.007450
  0
VERTEX
  8
0
 10
211.194271
 20
118.615482
 42
-0.005650
  0
VERTEX
  8
0
 10
219.073712
 20
126.480850
 42
-0.108058
  0
VERTEX
  8
0
 10
222.000000
 20
128.307034
 42
-0.070760
  0
VERTEX
  8
0
 10
224.179668
 20
128.751958
 42
-0.019251
  0
VERTEX
  8
0
 10
227.703742
 20
128.828005
 42
-0.019285
  0
VERTEX
  8
0
 10
231.224918
 20
128.632432
 42
-0.070072
  0
SEQEND
  0
POLYLINE
  8
0
 66
1
 70
1
  0
VERTEX
  8
0
 10
106.828084
 20
60.778166
 42
0.044582
  0
VERTEX
  8
0
 10
109.366058
 20
57.388405
 42
0.019325
  0
VERTEX
  8
0
 10
113.293012
 20
53.342104
 42
0.013178
  0
VERTEX
  8
0
 10
117.341678
 20
49.679574
 42
0.179133
  0
VERTEX
  8
0
 10
119.177657
 20
49.000000
 42
-0.063151
  0
VERTEX
  8
0
 10
119.631191
 20
48.942488
 42
-0.262676
  0
VERTEX
  8
0
 10
119.822617
 20
48.758342
 42
-0.227907
  0
VERTEX
  8
0
 10
119.777713
 20
48.474919
 42
-0.050555
  0
VERTEX
  8
0
 10
119.450000
 20
48.090789
 42
-0.114190
  0
VERTEX
  8
0
 10
117.393234
 20
46.868869
 42
-0.014996
  0
VERTEX
  8
0
 10
112.474749
 20
45.461539
 42
-0.018485
  0
VERTEX
  8
0
 10
107.280895
 20
44.345109
 42
-0.043719
  0
VERTEX
  8
0
 10
103.341552
 20
44.000000
 42
-0.024710
  0
VERTEX
  8
0
 10
101.020570
 20
44.114772
 42
-0.079476
  0
VERTEX
  8
0
 10
99.529481
 20
44.507346
 42
-0.096437
  0
VERTEX
  8
0
 10
98.396631
 20
45.296313
 42
-0.047571
  0
VERTEX
  8
0
 10
97.295780
 20
46.671335
 42
-0.094571
  0
VERTEX
  8
0
 10
95.947947
 20
49.936747
 42
-0.073468
  0
VERTEX
  8
0
 10
95.731598
 20
53.782003
 42
-0.051205
  0
VERTEX
  8
0
 10
96.688609
 20
58.684434
 42
-0.019045
  0
VERTEX
  8
0
 10
98.988307
 20
65.329113
 42
0.000000
  0
VERTEX
  8
0
 10
102.425783
 20
74.158225
 42
0.000000
  0
VERTEX
  8
0
 10
103.534360
 20
69.236016
 42
0.022186
  0
VERTEX
  8
0
 10
104.117919
 20
67.093232
 42
0.015278
  0
VERTEX
  8
0
 10
104.959180
 20
64.721111
 42
0.015431
  0
VERTEX
  8
0
 10
105.910740
 20
62.484315
 42
0.030133
  0
SEQEND
  0
POLYLINE
  8
0
 66
1
 70
1
  0
VERTEX
  8
0
 10
229.134859
 20
58.000000
 42
-0.016228
  0
VERTEX
  8
0
 10
229.849853
 20
57.976788
 42
-0.026500
  0
VERTEX
  8
0
 10
230.452115
 20
57.905453
 42
-0.024747
  0
VERTEX
  8
0
 10
230.904063
 20
57.804214
 42
-0.337210
  0
VERTEX
  8
0
 10
231.000000
 20
57.678139
 42
-0.089384
  0
VERTEX
  8
0
 10
230.683572
 20
55.922239
 42
-0.010606
  0
VERTEX
  8
0
 10
229.217408
 20
52.227870
 42
-0.005594
  0
VERTEX
  8
0
 10
227.558957
 20
48.414182
 42
-0.295532
  0
VERTEX
  8
0
 10
226.919418
 20
48.000000
 42
-0.280460
  0
VERTEX
  8
0
 10
225.966641
 20
48.580057
 42
-0.019345
  0
VERTEX
  8
0
 10
224.571737
 20
51.555579
 42
-0.025739
  0
VERTEX
  8
0
 10
223.276841
 20
55.122665
 42
-0.027834
  0
VERTEX
  8
0
 10
222.394127
 20
58.712658
 42
0.000000
  0
VERTEX
  8
0
 10
221.706940
 20
62.375681
 42
0.000000
  0
VERTEX
  8
0
 10
224.488329
 20
60.187841
 42
0.029017
  0
VERTEX
  8
0
 10
225.690214
 20
59.350503
 42
0.027612
  0
VERTEX
  8
0
 10
227.000570
 20
58.642678
 42
0.028720
  0
VERTEX
  8
0
 10
228.227556
 20
58.148848
 42
0.081483
  0
SEQEND
  0
POLYLINE
  8
0
 66
1
 70
1
  0
VERTEX
  8
0
 10
206.200000
 20
206.800000
 42
0.149253
  0
VERTEX
  8
0
 10
205.179937
 20
204.883336
 42
0.093221
  0
VERTEX
  8
0
 10
205.162361
 20
202.320196
 42
0.073770
  0
VERTEX
  8
0
 10
206.157503
 20
199.379649
 42
0.049324
  0
VERTEX
  8
0
 10
208.084519
 20
196.387505
 42
0.032155
  0
VERTEX
  8
0
 10
210.643157
 20
193.557144
 42
0.081535
  0
VERTEX
  8
0
 10
212.910275
 20
191.976729
 42
0.117127
  0
VERTEX
  8
0
 10
215.030839
 20
191.518363
 42
0.118318
  0
VERTEX
  8
0
 10
217.122343
 20
192.065476
 42
0.152002
  0
VERTEX
  8
0
 10
219.565358
 20
194.546370
 42
0.126523
  0
VERTEX
  8
0
 10
220.392142
 20
198.170379
 42
0.134153
  0
VERTEX
  8
0
 10
219.357219
 20
201.587024
 42
0.177820
  0
VERTEX
  8
0
 10
216.807284
 20
203.557890
 42
-0.047294
  0
VERTEX
  8
0
 10
215.828271
 20
203.972456
 42
-0.031493
  0
VERTEX
  8
0
 10
214.793920
 20
204.618125
 42
-0.031693
  0
VERTEX
  8
0
 10
213.861150
 20
205.379192
 42
-0.052488
  0
VERTEX
  8
0
 10
213.193296
 20
206.143459
 42
0.122655
  0
VERTEX
  8
0
 10
211.781243
 20
207.365553
 42
0.094205
  0
VERTEX
  8
0
 10
209.814923
 20
207.934091
 42
0.094742
  0
VERTEX
  8
0
 10
207.787148
 20
207.740232
 42
0.125951
  0
SEQEND
  0
ENDSEC
  0
EOF
