  0
SECTION
  2
HEADER
  9
$ACADVER
  1
AC1006
  9
$EXTMIN
 10
0.000000
 20
0.000000
 30
0.000000
  9
$EXTMAX
 10
407.000000
 20
422.000000
 30
0.000000
  0
ENDSEC
  0
SECTION
  2
ENTITIES
  0
POLYLINE
  8
0
 66
1
 70
1
  0
VERTEX
  8
0
 10
88.000000
 20
358.500000
 42
0.000000
  0
VERTEX
  8
0
 10
78.539501
 20
349.000000
 42
0.000000
  0
VERTEX
  8
0
 10
84.662762
 20
349.000000
 42
-0.013202
  0
VERTEX
  8
0
 10
87.504073
 20
348.924963
 42
-0.038003
  0
VERTEX
  8
0
 10
89.457995
 20
348.671945
 42
-0.058231
  0
VERTEX
  8
0
 10
90.728449
 20
348.249412
 42
-0.194130
  0
VERTEX
  8
0
 10
91.316202
 20
347.618373
 42
0.152216
  0
VERTEX
  8
0
 10
91.758301
 20
347.058649
 42
0.045561
  0
VERTEX
  8
0
 10
92.718682
 20
346.522581
 42
0.041022
  0
VERTEX
  8
0
 10
93.967632
 20
346.086329
 42
0.034471
  0
VERTEX
  8
0
 10
95.346093
 20
345.828175
 42
0.009560
  0
VERTEX
  8
0
 10
97.487947
 20
345.619546
 42
0.167514
  0
VERTEX
  8
0
 10
98.154301
 20
345.792512
 42
0.343114
  0
VERTEX
  8
0
 10
98.314353
 20
346.269361
 42
0.033674
  0
VERTEX
  8
0
 10
97.804652
 20
347.459802
 42
-0.573216
  0
VERTEX
  8
0
 10
97.954733
 20
347.694405
 42
-0.144011
  0
VERTEX
  8
0
 10
98.506571
 20
347.508242
 42
-0.029585
  0
VERTEX
  8
0
 10
99.839502
 20
346.450986
 42
-0.009963
  0
VERTEX
  8
0
 10
101.656204
 20
344.759747
 42
0.000000
  0
VERTEX
  8
0
 10
106.548906
 20
340.019494
 42
0.000000
  0
VERTEX
  8
0
 10
111.004302
 20
344.259747
 42
-0.001061
  0
VERTEX
  8
0
 10
113.253584
 20
346.391338
 42
-0.060574
  0
VERTEX
  8
0
 10
113.713554
 20
346.730541
 42
-0.848422
  0
VERTEX
  8
0
 10
113.770107
 20
346.660329
 42
-0.002363
  0
VERTEX
  8
0
 10
112.229849
 20
344.952393
 42
0.014208
  0
VERTEX
  8
0
 10
110.992974
 20
343.513764
 42
0.018484
  0
VERTEX
  8
0
 10
109.948768
 20
342.125120
 42
0.016326
  0
VERTEX
  8
0
 10
109.171511
 20
340.926105
 42
0.136461
  0
VERTEX
  8
0
 10
109.000000
 20
340.309382
 42
0.197327
  0
VERTEX
  8
0
 10
109.303799
 20
339.569568
 42
0.058944
  0
VERTEX
  8
0
 10
110.276349
 20
338.793108
 42
0.056108
  0
VERTEX
  8
0
 10
111.524370
 20
338.199608
 42
0.083141
  0
VERTEX
  8
0
 10
112.716489
 20
338.000000
 42
0.201691
  0
VERTEX
  8
0
 10
114.392482
 20
338.704734
 42
0.002369
  0
VERTEX
  8
0
 10
122.897938
 20
347.476707
 42
0.002460
  0
VERTEX
  8
0
 10
131.298846
 20
356.309971
 42
0.191127
  0
VERTEX
  8
0
 10
132.000000
 20
358.077231
 42
0.145068
  0
VERTEX
  8
0
 10
131.565127
 20
359.544546
 42
0.208217
  0
VERTEX
  8
0
 10
130.449077
 20
360.282104
 42
0.153623
  0
VERTEX
  8
0
 10
128.848338
 20
360.070457
 42
0.078588
  0
VERTEX
  8
0
 10
127.151506
 20
358.926522
 42
-0.016840
  0
VERTEX
  8
0
 10
126.304240
 20
358.188869
 42
-0.021065
  0
VERTEX
  8
0
 10
125.468506
 20
357.565916
 42
-0.019820
  0
VERTEX
  8
0
 10
124.738739
 20
357.109618
 42
-0.130523
  0
VERTEX
  8
0
 10
124.325974
 20
357.000000
 42
-0.627688
  0
VERTEX
  8
0
 10
124.227108
 20
357.204805
 42
-0.008267
  0
VERTEX
  8
0
 10
125.386437
 20
358.615625
 42
-0.012138
  0
VERTEX
  8
0
 10
126.969673
 20
360.389523
 42
-0.006552
  0
VERTEX
  8
0
 10
129.000000
 20
362.500000
 42
0.000000
  0
VERTEX
  8
0
 10
134.431680
 20
368.000000
 42
0.000000
  0
VERTEX
  8
0
 10
115.946089
 20
368.000000
 42
0.000000
  0
VERTEX
  8
0
 10
97.460499
 20
368.000000
 42
0.000000
  0
SEQEND
  0
POLYLINE
  8
0
 66
1
 70
1
  0
VERTEX
  8
0
 10
123.000000
 20
355.696167
 42
-0.196596
  0
VERTEX
  8
0
 10
122.919596
 20
355.499580
 42
-0.002230
  0
VERTEX
  8
0
 10
121.898438
 20
354.469273
 42
-0.006442
  0
VERTEX
  8
0
 10
120.687395
 20
353.289043
 42
-0.004107
  0
VERTEX
  8
0
 10
119.250000
 20
351.946167
 42
0.000000
  0
VERTEX
  8
0
 10
115.500000
 20
348.500000
 42
0.000000
  0
VERTEX
  8
0
 10
118.946167
 20
352.250000
 42
-0.004068
  0
VERTEX
  8
0
 10
121.052752
 20
354.505211
 42
-0.026699
  0
VERTEX
  8
0
 10
122.175940
 20
355.568348
 42
-0.102567
  0
VERTEX
  8
0
 10
122.749449
 20
355.881757
 42
-0.503731
  0
SEQEND
  0
POLYLINE
  8
0
 66
1
 70
1
  0
VERTEX
  8
0
 10
180.243505
 20
320.743618
 42
0.000000
  0
VERTEX
  8
0
 10
152.000000
 20
292.487066
 42
0.000000
  0
VERTEX
  8
0
 10
152.000000
 20
255.531385
 42
0.000000
  0
VERTEX
  8
0
 10
152.000000
 20
218.575703
 42
0.000000
  0
VERTEX
  8
0
 10
147.791792
 20
214.287852
 42
0.000000
  0
VERTEX
  8
0
 10
143.583584
 20
210.000000
 42
0.000000
  0
VERTEX
  8
0
 10
147.791792
 20
205.712148
 42
0.000000
  0
VERTEX
  8
0
 10
152.000000
 20
201.424297
 42
0.000000
  0
VERTEX
  8
0
 10
152.000000
 20
182.952011
 42
0.000000
  0
VERTEX
  8
0
 10
152.000000
 20
164.479726
 42
0.000000
  0
VERTEX
  8
0
 10
170.259874
 20
146.239863
 42
0.001897
  0
VERTEX
  8
0
 10
177.313602
 20
139.247127
 42
0.003068
  0
VERTEX
  8
0
 10
183.373322
 20
133.357960
 42
0.000536
  0
VERTEX
  8
0
 10
188.755305
 20
128.202364
 42
0.193058
  0
VERTEX
  8
0
 10
189.259874
 20
128.000000
 42
0.405983
  0
VERTEX
  8
0
 10
189.564675
 20
128.296331
 42
0.000399
  0
VERTEX
  8
0
 10
189.852245
 20
138.795312
 42
0.003146
  0
VERTEX
  8
0
 10
190.093015
 20
150.658251
 42
0.001887
  0
VERTEX
  8
0
 10
190.237131
 20
164.750000
 42
0.000000
  0
VERTEX
  8
0
 10
190.474261
 20
201.500000
 42
0.000000
  0
VERTEX
  8
0
 10
190.749688
 20
165.170853
 42
0.001408
  0
VERTEX
  8
0
 10
190.941629
 20
146.709630
 42
0.007221
  0
VERTEX
  8
0
 10
191.224859
 20
136.470201
 42
0.004956
  0
VERTEX
  8
0
 10
191.576419
 20
129.716519
 42
0.492312
  0
VERTEX
  8
0
 10
192.262558
 20
129.253206
 42
0.303517
  0
VERTEX
  8
0
 10
192.935080
 20
130.119029
 42
0.004739
  0
VERTEX
  8
0
 10
193.340483
 20
136.696150
 42
0.007508
  0
VERTEX
  8
0
 10
193.696992
 20
146.309967
 42
0.001715
  0
VERTEX
  8
0
 10
194.000000
 20
162.582354
 42
-0.001945
  0
VERTEX
  8
0
 10
194.425263
 20
184.869292
 42
-0.024094
  0
VERTEX
  8
0
 10
195.027748
 20
193.323064
 42
-0.066806
  0
VERTEX
  8
0
 10
196.291285
 20
198.215537
 42
-0.082878
  0
VERTEX
  8
0
 10
198.751775
 20
202.214959
 42
0.071422
  0
VERTEX
  8
0
 10
199.306244
 20
203.071864
 42
0.049627
  0
VERTEX
  8
0
 10
199.683186
 20
204.163327
 42
0.048350
  0
VERTEX
  8
0
 10
199.845539
 20
205.343287
 42
0.057311
  0
VERTEX
  8
0
 10
199.761948
 20
206.464959
 42
-0.050413
  0
VERTEX
  8
0
 10
199.593058
 20
208.376098
 42
-0.491906
  0
VERTEX
  8
0
 10
200.151285
 20
208.795112
 42
-0.124076
  0
VERTEX
  8
0
 10
201.384416
 20
208.093486
 42
-0.008279
  0
VERTEX
  8
0
 10
204.297052
 20
205.207837
 42
0.000000
  0
VERTEX
  8
0
 10
208.000000
 20
201.415675
 42
0.000000
  0
VERTEX
  8
0
 10
208.000000
 20
146.126251
 42
0.000000
  0
VERTEX
  8
0
 10
208.000000
 20
90.836828
 42
0.000000
  0
VERTEX
  8
0
 10
199.282315
 20
98.918414
 42
0.005611
  0
VERTEX
  8
0
 10
195.865338
 20
102.015493
 42
0.008489
  0
VERTEX
  8
0
 10
192.816630
 20
104.626034
 42
0.004088
  0
VERTEX
  8
0
 10
190.190899
 20
106.762300
 42
0.170318
  0
VERTEX
  8
0
 10
189.513328
 20
107.000000
 42
0.199101
  0
VERTEX
  8
0
 10
188.079329
 20
106.405410
 42
0.002076
  0
VERTEX
  8
0
 10
180.299472
 20
98.549313
 42
0.002111
  0
VERTEX
  8
0
 10
172.593355
 20
90.636229
 42
0.194375
  0
VERTEX
  8
0
 10
172.000000
 20
89.167582
 42
0.187812
  0
VERTEX
  8
0
 10
172.209017
 20
88.630758
 42
0.002895
  0
VERTEX
  8
0
 10
174.508385
 20
86.154560
 42
0.007283
  0
VERTEX
  8
0
 10
177.266306
 20
83.303200
 42
0.004700
  0
VERTEX
  8
0
 10
180.539184
 20
80.077818
 42
0.007057
  0
VERTEX
  8
0
 10
185.306726
 20
75.595469
 42
0.033123
  0
VERTEX
  8
0
 10
188.244349
 20
73.247779
 42
0.057328
  0
VERTEX
  8
0
 10
190.596461
 20
71.982629
 42
0.066240
  0
VERTEX
  8
0
 10
193.062987
 20
71.361562
 42
0.046349
  0
VERTEX
  8
0
 10
195.538841
 20
71.307701
 42
0.103537
  0
VERTEX
  8
0
 10
197.341275
 20
71.820575
 42
0.061076
  0
VERTEX
  8
0
 10
199.324347
 20
73.193507
 42
0.008555
  0
VERTEX
  8
0
 10
202.996447
 20
76.578021
 42
0.014937
  0
VERTEX
  8
0
 10
207.079502
 20
80.712433
 42
0.063501
  0
VERTEX
  8
0
 10
209.101140
 20
83.529623
 42
0.127940
  0
VERTEX
  8
0
 10
209.632898
 20
85.692113
 42
0.171488
  0
VERTEX
  8
0
 10
208.940118
 20
87.572154
 42
-0.022188
  0
VERTEX
  8
0
 10
208.499016
 20
88.154379
 42
-0.037866
  0
VERTEX
  8
0
 10
208.191642
 20
88.681043
 42
-0.046626
  0
VERTEX
  8
0
 10
208.037014
 20
89.092582
 42
-0.342625
  0
VERTEX
  8
0
 10
208.112495
 20
89.274166
 42
0.048030
  0
VERTEX
  8
0
 10
208.376961
 20
89.460052
 42
0.001608
  0
VERTEX
  8
0
 10
209.346957
 20
90.296920
 42
0.003036
  0
VERTEX
  8
0
 10
210.483912
 20
91.296404
 42
0.002109
  0
VERTEX
  8
0
 10
211.756732
 20
92.438755
 42
-0.008724
  0
VERTEX
  8
0
 10
213.862136
 20
94.278645
 42
-0.122943
  0
VERTEX
  8
0
 10
214.755617
 20
94.716984
 42
-0.247595
  0
VERTEX
  8
0
 10
215.474860
 20
94.514836
 42
-0.045033
  0
VERTEX
  8
0
 10
216.420366
 20
93.439793
 42
0.297472
  0
VERTEX
  8
0
 10
217.772821
 20
92.928944
 42
0.110892
  0
VERTEX
  8
0
 10
219.699779
 20
93.831418
 42
0.028097
  0
VERTEX
  8
0
 10
223.144767
 20
96.822947
 42
0.002112
  0
VERTEX
  8
0
 10
231.996973
 20
105.501038
 42
0.002792
  0
VERTEX
  8
0
 10
237.506900
 20
111.009598
 42
0.003961
  0
VERTEX
  8
0
 10
242.341445
 20
115.975305
 42
0.002273
  0
VERTEX
  8
0
 10
246.363857
 20
120.211247
 42
0.056326
  0
VERTEX
  8
0
 10
247.328343
 20
121.500000
 42
0.118349
  0
VERTEX
  8
0
 10
247.913290
 20
123.429649
 42
0.003717
  0
VERTEX
  8
0
 10
248.338281
 20
131.707534
 42
0.005614
  0
VERTEX
  8
0
 10
248.708280
 20
143.041791
 42
0.001887
  0
VERTEX
  8
0
 10
249.000000
 20
159.587746
 42
0.000000
  0
VERTEX
  8
0
 10
249.500000
 20
195.675491
 42
0.000000
  0
VERTEX
  8
0
 10
252.277783
 20
199.681587
 42
0.060801
  0
VERTEX
  8
0
 10
254.222683
 20
203.373808
 42
0.094752
  0
VERTEX
  8
0
 10
254.844842
 20
206.904386
 42
0.102017
  0
VERTEX
  8
0
 10
254.109243
 20
210.227560
 42
0.080372
  0
VERTEX
  8
0
 10
252.079937
 20
213.314356
 42
-0.072706
  0
VERTEX
  8
0
 10
250.568565
 20
215.538704
 42
-0.075174
  0
VERTEX
  8
0
 10
249.778758
 20
218.077616
 42
-0.028349
  0
VERTEX
  8
0
 10
249.373275
 20
222.340064
 42
-0.002340
  0
VERTEX
  8
0
 10
249.000000
 20
233.484707
 42
0.003920
  0
VERTEX
  8
0
 10
248.754168
 20
240.191070
 42
0.006116
  0
VERTEX
  8
0
 10
248.426562
 20
245.961609
 42
0.002147
  0
VERTEX
  8
0
 10
248.063659
 20
250.907938
 42
0.179473
  0
VERTEX
  8
0
 10
247.750000
 20
251.587018
 42
0.637592
  0
VERTEX
  8
0
 10
247.445051
 20
251.474917
 42
0.004430
  0
VERTEX
  8
0
 10
247.176820
 20
247.879207
 42
0.008898
  0
VERTEX
  8
0
 10
246.962267
 20
243.394370
 42
0.004934
  0
VERTEX
  8
0
 10
246.851940
 20
237.916667
 42
-0.000646
  0
VERTEX
  8
0
 10
246.716091
 20
226.167738
 42
-0.011666
  0
VERTEX
  8
0
 10
246.580005
 20
222.408614
 42
-0.037413
  0
VERTEX
  8
0
 10
246.319173
 20
220.478259
 42
-0.143891
  0
VERTEX
  8
0
 10
245.750000
 20
219.423691
 42
-0.652179
  0
VERTEX
  8
0
 10
245.447173
 20
219.539669
 42
-0.002323
  0
VERTEX
  8
0
 10
245.220313
 20
224.624216
 42
-0.006380
  0
VERTEX
  8
0
 10
245.053615
 20
230.755350
 42
-0.003605
  0
VERTEX
  8
0
 10
245.000000
 20
238.190660
 42
0.000000
  0
VERTEX
  8
0
 10
245.000000
 20
257.714653
 42
0.000000
  0
VERTEX
  8
0
 10
226.750000
 20
275.607326
 42
0.000000
  0
VERTEX
  8
0
 10
208.500000
 20
293.500000
 42
0.000000
  0
VERTEX
  8
0
 10
208.237777
 20
256.198643
 42
0.000000
  0
VERTEX
  8
0
 10
207.975555
 20
218.897285
 42
0.000000
  0
VERTEX
  8
0
 10
203.961789
 20
214.720151
 42
-0.012486
  0
VERTEX
  8
0
 10
201.765376
 20
212.545717
 42
-0.065088
  0
VERTEX
  8
0
 10
200.387095
 20
211.550457
 42
-0.132686
  0
VERTEX
  8
0
 10
199.296880
 20
211.293369
 42
-0.132261
  0
VERTEX
  8
0
 10
198.224011
 20
211.619664
 42
-0.182356
  0
VERTEX
  8
0
 10
195.743409
 20
214.870521
 42
-0.054270
  0
VERTEX
  8
0
 10
194.589659
 20
221.117672
 42
-0.017313
  0
VERTEX
  8
0
 10
194.106188
 20
233.329522
 42
-0.001164
  0
VERTEX
  8
0
 10
194.014742
 20
268.250000
 42
0.000782
  0
VERTEX
  8
0
 10
193.961119
 20
297.176565
 42
0.006560
  0
VERTEX
  8
0
 10
193.745129
 20
310.236717
 42
0.006038
  0
VERTEX
  8
0
 10
193.415043
 20
318.141680
 42
0.398540
  0
VERTEX
  8
0
 10
192.509249
 20
319.000000
 42
0.396970
  0
VERTEX
  8
0
 10
191.601512
 20
318.144495
 42
0.006057
  0
VERTEX
  8
0
 10
191.230611
 20
310.277977
 42
0.006614
  0
VERTEX
  8
0
 10
190.948149
 20
297.306544
 42
0.000799
  0
VERTEX
  8
0
 10
190.749790
 20
268.750000
 42
0.000000
  0
VERTEX
  8
0
 10
190.481082
 20
218.500000
 42
0.000000
  0
VERTEX
  8
0
 10
190.240541
 20
274.479151
 42
0.000000
  0
VERTEX
  8
0
 10
190.000000
 20
330.458301
 42
0.000000
  0
VERTEX
  8
0
 10
198.750000
 20
321.878009
 42
0.013684
  0
VERTEX
  8
0
 10
205.000913
 20
316.075189
 42
0.046367
  0
VERTEX
  8
0
 10
209.499789
 20
312.807327
 42
0.080019
  0
VERTEX
  8
0
 10
212.938910
 20
311.450254
 42
0.178753
  0
VERTEX
  8
0
 10
215.682922
 20
311.830305
 42
0.054995
  0
VERTEX
  8
0
 10
216.705309
 20
312.531674
 42
0.008353
  0
VERTEX
  8
0
 10
218.556955
 20
314.181622
 42
0.009270
  0
VERTEX
  8
0
 10
220.682367
 20
316.214325
 42
0.007906
  0
VERTEX
  8
0
 10
222.848800
 20
318.433645
 42
0.048631
  0
VERTEX
  8
0
 10
226.858425
 20
323.596340
 42
0.203291
  0
VERTEX
  8
0
 10
227.479565
 20
327.396005
 42
0.122466
  0
VERTEX
  8
0
 10
225.243134
 20
331.662620
 42
0.013582
  0
VERTEX
  8
0
 10
217.653142
 20
339.750085
 42
0.000000
  0
VERTEX
  8
0
 10
208.487010
 20
349.000169
 42
0.000000
  0
SEQEND
  0
POLYLINE
  8
0
 66
1
 70
1
  0
VERTEX
  8
0
 10
246.942370
 20
160.250000
 42
-0.002067
  0
VERTEX
  8
0
 10
246.907826
 20
145.856217
 42
-0.005450
  0
VERTEX
  8
0
 10
246.728099
 20
135.548093
 42
-0.001602
  0
VERTEX
  8
0
 10
246.472817
 20
127.456669
 42
-0.404074
  0
VERTEX
  8
0
 10
246.000000
 20
127.000000
 42
-0.405755
  0
VERTEX
  8
0
 10
245.524553
 20
127.461871
 42
-0.001303
  0
VERTEX
  8
0
 10
245.285372
 20
136.533750
 42
-0.004885
  0
VERTEX
  8
0
 10
245.124119
 20
148.064245
 42
-0.001825
  0
VERTEX
  8
0
 10
245.114999
 20
164.250000
 42
-0.001768
  0
VERTEX
  8
0
 10
245.214863
 20
179.327439
 42
-0.004544
  0
VERTEX
  8
0
 10
245.424675
 20
190.227186
 42
-0.004968
  0
VERTEX
  8
0
 10
245.702079
 20
197.472274
 42
-0.881244
  0
VERTEX
  8
0
 10
246.057369
 20
197.500000
 42
-0.043169
  0
VERTEX
  8
0
 10
246.388583
 20
194.698509
 42
-0.001911
  0
VERTEX
  8
0
 10
246.658629
 20
184.907813
 42
-0.003215
  0
VERTEX
  8
0
 10
246.860110
 20
173.278849
 42
-0.002290
  0
SEQEND
  0
POLYLINE
  8
0
 66
1
 70
1
  0
VERTEX
  8
0
 10
59.250000
 20
329.750596
 42
0.000000
  0
VERTEX
  8
0
 10
41.000000
 20
311.480252
 42
0.000000
  0
VERTEX
  8
0
 10
41.000000
 20
265.201095
 42
0.000000
  0
VERTEX
  8
0
 10
41.000000
 20
218.921938
 42
0.000000
  0
VERTEX
  8
0
 10
37.000000
 20
214.881762
 42
0.008276
  0
VERTEX
  8
0
 10
35.467407
 20
213.281655
 42
0.012060
  0
VERTEX
  8
0
 10
34.175000
 20
211.817521
 42
0.007639
  0
VERTEX
  8
0
 10
33.152478
 20
210.562800
 42
0.168700
  0
VERTEX
  8
0
 10
33.000000
 20
210.123741
 42
0.171956
  0
VERTEX
  8
0
 10
33.154401
 20
209.688063
 42
0.008008
  0
VERTEX
  8
0
 10
34.175000
 20
208.469406
 42
0.012468
  0
VERTEX
  8
0
 10
35.467412
 20
207.048655
 42
0.008559
  0
VERTEX
  8
0
 10
37.000000
 20
205.500000
 42
0.000000
  0
VERTEX
  8
0
 10
41.000000
 20
201.594104
 42
0.000000
  0
VERTEX
  8
0
 10
41.000000
 20
182.938016
 42
0.000000
  0
VERTEX
  8
0
 10
41.000000
 20
164.281927
 42
0.000000
  0
VERTEX
  8
0
 10
59.078323
 20
146.140964
 42
0.001092
  0
VERTEX
  8
0
 10
66.040041
 20
139.185574
 42
0.001790
  0
VERTEX
  8
0
 10
71.970006
 20
133.328908
 42
0.000182
  0
VERTEX
  8
0
 10
77.287053
 20
128.118856
 42
0.196178
  0
VERTEX
  8
0
 10
77.578323
 20
128.000000
 42
0.408825
  0
VERTEX
  8
0
 10
77.752573
 20
128.171068
 42
0.000130
  0
VERTEX
  8
0
 10
77.945690
 20
138.795312
 42
0.001793
  0
VERTEX
  8
0
 10
78.115691
 20
150.658207
 42
0.001075
  0
VERTEX
  8
0
 10
78.236790
 20
164.750000
 42
0.000000
  0
VERTEX
  8
0
 10
78.473581
 20
201.500000
 42
0.000000
  0
VERTEX
  8
0
 10
78.749820
 20
166.036970
 42
0.002115
  0
VERTEX
  8
0
 10
79.019884
 20
143.567114
 42
0.018613
  0
VERTEX
  8
0
 10
79.551016
 20
133.643293
 42
0.092620
  0
VERTEX
  8
0
 10
80.556651
 20
130.084599
 42
0.585145
  0
VERTEX
  8
0
 10
82.026328
 20
130.008359
 42
0.132964
  0
VERTEX
  8
0
 10
82.421074
 20
131.287191
 42
0.001564
  0
VERTEX
  8
0
 10
82.704293
 20
140.164504
 42
0.004470
  0
VERTEX
  8
0
 10
82.912911
 20
150.686070
 42
0.002601
  0
VERTEX
  8
0
 10
82.984687
 20
163.315741
 42
-0.002054
  0
VERTEX
  8
0
 10
83.084188
 20
184.998062
 42
-0.025960
  0
VERTEX
  8
0
 10
83.578931
 20
193.151334
 42
-0.072593
  0
VERTEX
  8
0
 10
84.823120
 20
197.876881
 42
-0.084353
  0
VERTEX
  8
0
 10
87.331325
 20
201.784113
 42
0.033191
  0
VERTEX
  8
0
 10
88.415959
 20
203.145767
 42
0.109053
  0
VERTEX
  8
0
 10
88.849366
 20
204.203051
 42
0.104471
  0
VERTEX
  8
0
 10
88.806853
 20
205.370451
 42
0.029092
  0
VERTEX
  8
0
 10
88.258255
 20
207.126761
 42
-0.015782
  0
VERTEX
  8
0
 10
87.615697
 20
209.006619
 42
-0.614250
  0
VERTEX
  8
0
 10
87.864802
 20
209.246690
 42
-0.097367
  0
VERTEX
  8
0
 10
88.614678
 20
208.808480
 42
-0.001916
  0
VERTEX
  8
0
 10
91.950147
 20
205.842648
 42
0.000000
  0
VERTEX
  8
0
 10
96.796507
 20
201.500000
 42
0.000000
  0
VERTEX
  8
0
 10
96.898254
 20
154.879837
 42
0.000000
  0
VERTEX
  8
0
 10
97.000000
 20
108.259673
 42
0.000000
  0
VERTEX
  8
0
 10
106.139635
 20
99.076431
 42
0.008701
  0
VERTEX
  8
0
 10
109.851667
 20
95.474271
 42
0.015264
  0
VERTEX
  8
0
 10
113.061827
 20
92.644795
 42
0.010201
  0
VERTEX
  8
0
 10
115.723243
 20
90.529673
 42
0.260015
  0
VERTEX
  8
0
 10
116.607610
 20
90.402920
 42
-0.073725
  0
VERTEX
  8
0
 10
117.159609
 20
90.525908
 42
-0.075304
  0
VERTEX
  8
0
 10
117.719369
 20
90.481998
 42
-0.081824
  0
VERTEX
  8
0
 10
118.200809
 20
90.283033
 42
-0.116027
  0
VERTEX
  8
0
 10
118.526992
 20
89.956326
 42
0.305356
  0
VERTEX
  8
0
 10
120.175200
 20
89.211375
 42
0.105650
  0
VERTEX
  8
0
 10
122.726237
 20
90.226594
 42
0.041576
  0
VERTEX
  8
0
 10
126.718039
 20
93.404565
 42
0.007868
  0
VERTEX
  8
0
 10
133.397613
 20
99.897294
 42
0.002914
  0
VERTEX
  8
0
 10
140.530073
 20
107.135812
 42
0.042371
  0
VERTEX
  8
0
 10
142.808514
 20
109.910532
 42
0.118955
  0
VERTEX
  8
0
 10
143.619586
 20
112.026658
 42
0.078118
  0
VERTEX
  8
0
 10
143.549580
 20
114.647294
 42
0.036782
  0
VERTEX
  8
0
 10
143.118557
 20
116.292969
 42
0.026591
  0
VERTEX
  8
0
 10
142.409906
 20
118.052579
 42
0.027039
  0
VERTEX
  8
0
 10
141.551938
 20
119.660745
 42
0.051437
  0
VERTEX
  8
0
 10
140.669021
 20
120.829570
 42
-0.143067
  0
VERTEX
  8
0
 10
139.338483
 20
123.478247
 42
-0.032306
  0
VERTEX
  8
0
 10
138.745602
 20
128.534578
 42
-0.010911
  0
VERTEX
  8
0
 10
138.450723
 20
138.260346
 42
-0.000666
  0
VERTEX
  8
0
 10
138.242677
 20
167.329570
 42
0.001365
  0
VERTEX
  8
0
 10
138.058543
 20
188.849991
 42
0.005227
  0
VERTEX
  8
0
 10
137.767149
 20
202.250611
 42
0.004189
  0
VERTEX
  8
0
 10
137.391970
 20
211.492369
 42
0.107500
  0
VERTEX
  8
0
 10
136.742677
 20
213.902742
 42
0.753148
  0
VERTEX
  8
0
 10
136.051594
 20
213.764425
 42
0.010223
  0
VERTEX
  8
0
 10
135.641066
 20
207.128937
 42
0.006497
  0
VERTEX
  8
0
 10
135.304813
 20
195.271585
 42
0.000969
  0
VERTEX
  8
0
 10
134.984525
 20
171.402742
 42
0.000000
  0
VERTEX
  8
0
 10
134.469050
 20
126.500000
 42
0.000000
  0
VERTEX
  8
0
 10
134.234525
 20
173.020849
 42
0.000000
  0
VERTEX
  8
0
 10
134.000000
 20
219.541699
 42
0.000000
  0
VERTEX
  8
0
 10
125.230217
 20
228.270849
 42
0.005312
  0
VERTEX
  8
0
 10
121.798237
 20
231.615095
 42
0.008151
  0
VERTEX
  8
0
 10
118.748619
 20
234.430724
 42
0.003602
  0
VERTEX
  8
0
 10
116.111192
 20
236.753373
 42
0.185197
  0
VERTEX
  8
0
 10
115.480217
 20
236.982678
 42
0.179304
  0
VERTEX
  8
0
 10
114.848506
 20
236.735836
 42
0.003196
  0
VERTEX
  8
0
 10
112.100840
 20
234.258345
 42
0.007558
  0
VERTEX
  8
0
 10
108.929231
 20
231.272453
 42
0.004917
  0
VERTEX
  8
0
 10
105.352428
 20
227.732678
 42
-0.000897
  0
VERTEX
  8
0
 10
101.550452
 20
223.909072
 42
-0.000867
  0
VERTEX
  8
0
 10
97.691258
 20
220.055208
 42
-0.000856
  0
VERTEX
  8
0
 10
94.281864
 20
216.673900
 42
-0.003183
  0
VERTEX
  8
0
 10
92.117374
 20
214.561646
 42
0.000000
  0
VERTEX
  8
0
 10
88.029890
 20
210.623292
 42
0.000000
  0
VERTEX
  8
0
 10
85.514945
 20
212.985960
 42
-0.076146
  0
VERTEX
  8
0
 10
84.056844
 20
214.846928
 42
-0.091155
  0
VERTEX
  8
0
 10
83.334731
 20
216.949618
 42
-0.034460
  0
VERTEX
  8
0
 10
83.051946
 20
220.472325
 42
-0.002802
  0
VERTEX
  8
0
 10
83.000000
 20
229.740055
 42
-0.006485
  0
VERTEX
  8
0
 10
83.074662
 20
235.496602
 42
-0.009536
  0
VERTEX
  8
0
 10
83.302287
 20
240.550384
 42
-0.007031
  0
VERTEX
  8
0
 10
83.625826
 20
244.682294
 42
-0.100131
  0
VERTEX
  8
0
 10
84.049305
 20
246.092128
 42
0.072913
  0
VERTEX
  8
0
 10
84.451925
 20
247.209563
 42
0.103728
  0
VERTEX
  8
0
 10
84.445129
 20
248.261809
 42
0.076532
  0
VERTEX
  8
0
 10
83.991275
 20
249.446178
 42
0.025022
  0
VERTEX
  8
0
 10
82.981211
 20
251.026386
 42
0.019298
  0
VERTEX
  8
0
 10
82.102232
 20
252.165116
 42
0.025507
  0
VERTEX
  8
0
 10
81.212050
 20
253.126501
 42
0.024539
  0
VERTEX
  8
0
 10
80.415638
 20
253.830329
 42
0.170292
  0
VERTEX
  8
0
 10
79.931906
 20
254.000000
 42
0.391771
  0
VERTEX
  8
0
 10
79.537534
 20
253.634967
 42
0.003039
  0
VERTEX
  8
0
 10
79.202061
 20
248.927952
 42
0.008487
  0
VERTEX
  8
0
 10
78.928328
 20
243.241505
 42
0.004616
  0
VERTEX
  8
0
 10
78.775221
 20
236.250000
 42
0.000000
  0
VERTEX
  8
0
 10
78.550442
 20
218.500000
 42
0.000000
  0
VERTEX
  8
0
 10
78.250685
 20
235.964868
 42
-0.003064
  0
VERTEX
  8
0
 10
78.175693
 20
242.761102
 42
-0.004535
  0
VERTEX
  8
0
 10
78.200513
 20
248.720377
 42
-0.002120
  0
VERTEX
  8
0
 10
78.289034
 20
253.785121
 42
-0.086387
  0
VERTEX
  8
0
 10
78.500825
 20
254.862745
 42
-0.470034
  0
VERTEX
  8
0
 10
79.184199
 20
255.093472
 42
-0.031561
  0
VERTEX
  8
0
 10
81.103905
 20
253.733767
 42
-0.021993
  0
VERTEX
  8
0
 10
83.948266
 20
251.222183
 42
-0.006303
  0
VERTEX
  8
0
 10
88.129122
 20
247.086792
 42
0.003395
  0
VERTEX
  8
0
 10
93.828695
 20
241.383225
 42
0.043285
  0
VERTEX
  8
0
 10
96.156042
 20
239.452806
 42
0.155373
  0
VERTEX
  8
0
 10
97.657722
 20
238.992155
 42
0.183242
  0
VERTEX
  8
0
 10
99.034212
 20
239.530961
 42
-0.005507
  0
VERTEX
  8
0
 10
100.213422
 20
240.574741
 42
-0.267084
  0
VERTEX
  8
0
 10
100.511296
 20
240.632507
 42
-0.383081
  0
VERTEX
  8
0
 10
100.635447
 20
240.409872
 42
-0.008200
  0
VERTEX
  8
0
 10
100.313820
 20
239.092047
 42
0.047897
  0
VERTEX
  8
0
 10
100.139318
 20
238.011125
 42
0.203894
  0
VERTEX
  8
0
 10
100.351574
 20
237.407128
 42
0.175301
  0
VERTEX
  8
0
 10
100.962711
 20
237.086233
 42
0.034122
  0
VERTEX
  8
0
 10
102.224861
 20
237.000000
 42
0.119955
  0
VERTEX
  8
0
 10
103.690288
 20
237.356702
 42
0.040600
  0
VERTEX
  8
0
 10
105.564953
 20
238.528613
 42
0.029573
  0
VERTEX
  8
0
 10
107.892135
 20
240.484709
 42
0.011892
  0
VERTEX
  8
0
 10
110.841493
 20
243.413446
 42
0.007005
  0
VERTEX
  8
0
 10
113.201335
 20
245.940916
 42
0.010386
  0
VERTEX
  8
0
 10
115.190938
 20
248.226244
 42
0.005879
  0
VERTEX
  8
0
 10
116.788956
 20
250.187075
 42
0.169610
  0
VERTEX
  8
0
 10
117.000000
 20
250.791322
 42
0.115458
  0
VERTEX
  8
0
 10
116.346759
 20
253.582536
 42
0.038873
  0
VERTEX
  8
0
 10
114.192246
 20
257.197259
 42
0.031311
  0
VERTEX
  8
0
 10
110.777606
 20
261.438804
 42
0.016768
  0
VERTEX
  8
0
 10
106.075362
 20
266.250000
 42
0.004921
  0
VERTEX
  8
0
 10
102.909155
 20
269.220246
 42
0.007553
  0
VERTEX
  8
0
 10
100.103739
 20
271.723437
 42
0.003220
  0
VERTEX
  8
0
 10
97.676443
 20
273.797069
 42
0.176949
  0
VERTEX
  8
0
 10
97.120980
 20
274.000000
 42
0.184995
  0
VERTEX
  8
0
 10
96.568409
 20
273.788309
 42
0.002995
  0
VERTEX
  8
0
 10
94.062278
 20
271.510544
 42
0.007378
  0
VERTEX
  8
0
 10
91.173450
 20
268.773389
 42
0.004774
  0
VERTEX
  8
0
 10
87.908070
 20
265.525257
 42
-0.008517
  0
VERTEX
  8
0
 10
84.648219
 20
262.330814
 42
-0.014137
  0
VERTEX
  8
0
 10
81.780307
 20
259.764483
 42
-0.007767
  0
VERTEX
  8
0
 10
79.359163
 20
257.781838
 42
-0.380981
  0
VERTEX
  8
0
 10
78.785186
 20
257.814814
 42
-0.192668
  0
VERTEX
  8
0
 10
78.470370
 20
258.549717
 42
-0.000383
  0
VERTEX
  8
0
 10
78.168894
 20
271.491369
 42
-0.002585
  0
VERTEX
  8
0
 10
77.915334
 20
286.099537
 42
-0.001591
  0
VERTEX
  8
0
 10
77.760443
 20
303.300027
 42
0.000000
  0
VERTEX
  8
0
 10
77.500000
 20
348.020940
 42
0.000000
  0
SEQEND
  0
POLYLINE
  8
0
 66
1
 70
1
  0
VERTEX
  8
0
 10
79.666667
 20
336.333333
 42
0.198617
  0
VERTEX
  8
0
 10
79.040543
 20
334.824159
 42
0.000197
  0
VERTEX
  8
0
 10
79.012750
 20
297.346380
 42
0.000139
  0
VERTEX
  8
0
 10
79.010138
 20
259.629487
 42
0.414152
  0
VERTEX
  8
0
 10
79.639757
 20
259.000000
 42
0.155757
  0
VERTEX
  8
0
 10
79.967653
 20
259.104684
 42
0.027186
  0
VERTEX
  8
0
 10
80.481815
 20
259.514063
 42
0.027231
  0
VERTEX
  8
0
 10
81.052446
 20
260.079956
 42
0.021457
  0
VERTEX
  8
0
 10
81.607954
 20
260.750000
 42
0.146947
  0
VERTEX
  8
0
 10
82.324646
 20
262.668596
 42
0.007339
  0
VERTEX
  8
0
 10
82.670788
 20
269.447857
 42
0.007341
  0
VERTEX
  8
0
 10
82.896194
 20
279.855553
 42
0.001520
  0
VERTEX
  8
0
 10
82.968197
 20
298.168213
 42
0.001594
  0
VERTEX
  8
0
 10
82.936540
 20
311.954026
 42
0.002489
  0
VERTEX
  8
0
 10
82.812355
 20
323.823538
 42
0.000688
  0
VERTEX
  8
0
 10
82.638577
 20
334.156993
 42
0.087275
  0
VERTEX
  8
0
 10
82.393011
 20
335.418213
 42
0.062001
  0
VERTEX
  8
0
 10
81.854144
 20
336.427876
 42
0.159549
  0
VERTEX
  8
0
 10
81.198897
 20
336.916012
 42
0.188580
  0
VERTEX
  8
0
 10
80.459350
 20
336.879790
 42
0.091171
  0
SEQEND
  0
POLYLINE
  8
0
 66
1
 70
1
  0
VERTEX
  8
0
 10
269.250000
 20
316.990473
 42
0.004638
  0
VERTEX
  8
0
 10
264.171571
 20
311.913579
 42
0.007186
  0
VERTEX
  8
0
 10
259.892187
 20
307.428212
 42
0.002840
  0
VERTEX
  8
0
 10
256.322561
 20
303.533315
 42
0.186149
  0
VERTEX
  8
0
 10
256.000000
 20
302.696932
 42
0.147077
  0
VERTEX
  8
0
 10
256.214736
 20
301.982713
 42
0.017967
  0
VERTEX
  8
0
 10
257.175000
 20
300.637781
 42
0.020043
  0
VERTEX
  8
0
 10
258.468176
 20
299.090138
 42
0.015291
  0
VERTEX
  8
0
 10
260.000000
 20
297.500000
 42
0.000000
  0
VERTEX
  8
0
 10
264.000000
 20
293.594104
 42
0.000000
  0
VERTEX
  8
0
 10
264.000000
 20
247.255828
 42
0.000000
  0
VERTEX
  8
0
 10
264.000000
 20
200.917551
 42
0.000000
  0
VERTEX
  8
0
 10
273.062158
 20
191.992428
 42
0.007736
  0
VERTEX
  8
0
 10
277.653487
 20
187.608383
 42
0.024104
  0
VERTEX
  8
0
 10
280.926771
 20
184.858957
 42
0.036031
  0
VERTEX
  8
0
 10
283.484953
 20
183.188736
 42
0.080405
  0
VERTEX
  8
0
 10
285.664863
 20
182.403094
 42
0.092755
  0
VERTEX
  8
0
 10
288.086275
 20
182.401967
 42
0.107847
  0
VERTEX
  8
0
 10
290.204045
 20
183.295794
 42
0.038939
  0
VERTEX
  8
0
 10
293.091115
 20
185.688703
 42
0.003126
  0
VERTEX
  8
0
 10
300.151003
 20
192.619441
 42
0.003202
  0
VERTEX
  8
0
 10
307.056130
 20
199.572020
 42
0.038001
  0
VERTEX
  8
0
 10
309.500411
 20
202.476297
 42
0.104404
  0
VERTEX
  8
0
 10
310.433023
 20
204.589670
 42
0.097426
  0
VERTEX
  8
0
 10
310.464477
 20
206.955258
 42
0.042288
  0
VERTEX
  8
0
 10
310.048079
 20
208.486785
 42
0.024755
  0
VERTEX
  8
0
 10
309.308292
 20
210.239028
 42
0.024630
  0
VERTEX
  8
0
 10
308.387840
 20
211.930965
 42
0.038022
  0
VERTEX
  8
0
 10
307.416180
 20
213.281983
 42
0.000000
  0
VERTEX
  8
0
 10
305.000000
 20
216.153451
 42
0.000000
  0
VERTEX
  8
0
 10
305.000000
 20
259.511626
 42
0.001379
  0
VERTEX
  8
0
 10
304.941193
 20
280.827584
 42
0.005387
  0
VERTEX
  8
0
 10
304.726561
 20
294.000952
 42
0.004945
  0
VERTEX
  8
0
 10
304.395411
 20
302.957490
 42
0.093026
  0
VERTEX
  8
0
 10
303.750000
 20
305.684900
 42
0.772101
  0
VERTEX
  8
0
 10
303.059164
 20
305.571940
 42
0.012975
  0
VERTEX
  8
0
 10
302.639870
 20
299.394926
 42
0.006665
  0
VERTEX
  8
0
 10
302.306819
 20
287.710912
 42
0.000928
  0
VERTEX
  8
0
 10
301.984525
 20
263.500000
 42
0.000000
  0
VERTEX
  8
0
 10
301.469050
 20
218.500000
 42
0.000000
  0
VERTEX
  8
0
 10
301.234525
 20
265.480217
 42
0.000000
  0
VERTEX
  8
0
 10
301.000000
 20
312.460435
 42
0.000000
  0
VERTEX
  8
0
 10
292.270849
 20
321.230217
 42
0.002810
  0
VERTEX
  8
0
 10
288.887018
 20
324.591806
 42
0.004482
  0
VERTEX
  8
0
 10
285.952887
 20
327.422845
 42
0.001126
  0
VERTEX
  8
0
 10
283.370092
 20
329.859560
 42
0.192525
  0
VERTEX
  8
0
 10
283.020849
 20
329.996489
 42
0.189232
  0
VERTEX
  8
0
 10
282.664295
 20
329.853754
 42
0.000505
  0
VERTEX
  8
0
 10
278.760812
 20
326.174524
 42
0.002955
  0
VERTEX
  8
0
 10
274.367269
 20
321.975589
 42
0.001827
  0
SEQEND
  0
POLYLINE
  8
0
 66
1
 70
1
  0
VERTEX
  8
0
 10
320.000000
 20
256.524212
 42
0.000000
  0
VERTEX
  8
0
 10
320.000000
 20
219.568698
 42
0.000000
  0
VERTEX
  8
0
 10
315.326350
 20
214.823700
 42
0.000000
  0
VERTEX
  8
0
 10
310.652701
 20
210.078701
 42
0.000000
  0
VERTEX
  8
0
 10
315.326350
 20
205.082191
 42
0.000000
  0
VERTEX
  8
0
 10
320.000000
 20
200.085682
 42
0.000000
  0
VERTEX
  8
0
 10
320.000000
 20
182.542841
 42
-0.003901
  0
VERTEX
  8
0
 10
319.947517
 20
175.816133
 42
-0.006499
  0
VERTEX
  8
0
 10
319.785499
 20
170.153210
 42
-0.001692
  0
VERTEX
  8
0
 10
319.566244
 20
165.282459
 42
-0.400117
  0
VERTEX
  8
0
 10
319.269783
 20
165.000000
 42
-0.185506
  0
VERTEX
  8
0
 10
318.789563
 20
165.184517
 42
-0.002163
  0
VERTEX
  8
0
 10
316.230827
 20
167.511549
 42
-0.006212
  0
VERTEX
  8
0
 10
313.294998
 20
170.272772
 42
-0.003973
  0
VERTEX
  8
0
 10
309.949813
 20
173.549955
 42
0.000000
  0
VERTEX
  8
0
 10
301.360060
 20
182.099910
 42
0.000000
  0
VERTEX
  8
0
 10
292.101463
 20
172.885278
 42
0.000000
  0
VERTEX
  8
0
 10
282.842866
 20
163.670647
 42
0.000000
  0
VERTEX
  8
0
 10
291.706120
 20
154.807394
 42
0.007126
  0
VERTEX
  8
0
 10
296.464467
 20
150.182785
 42
0.028497
  0
VERTEX
  8
0
 10
299.571578
 20
147.566161
 42
0.047214
  0
VERTEX
  8
0
 10
302.012450
 20
146.074428
 42
0.073467
  0
VERTEX
  8
0
 10
304.358607
 20
145.329232
 42
0.045485
  0
VERTEX
  8
0
 10
306.706995
 20
145.164650
 42
0.112667
  0
VERTEX
  8
0
 10
308.370460
 20
145.581130
 42
0.068055
  0
VERTEX
  8
0
 10
310.156812
 20
146.818022
 42
0.009408
  0
VERTEX
  8
0
 10
313.436369
 20
149.937159
 42
-0.004253
  0
VERTEX
  8
0
 10
316.828709
 20
153.230834
 42
-0.076926
  0
VERTEX
  8
0
 10
318.065859
 20
154.092899
 42
-0.351771
  0
VERTEX
  8
0
 10
318.794441
 20
153.928851
 42
-0.103163
  0
VERTEX
  8
0
 10
319.348794
 20
152.829997
 42
-0.060877
  0
VERTEX
  8
0
 10
319.601005
 20
151.040602
 42
-0.000781
  0
VERTEX
  8
0
 10
319.793432
 20
139.628637
 42
-0.002260
  0
VERTEX
  8
0
 10
319.935974
 20
126.406419
 42
-0.001478
  0
VERTEX
  8
0
 10
319.986345
 20
111.161106
 42
0.000000
  0
VERTEX
  8
0
 10
320.000000
 20
71.822213
 42
0.000000
  0
VERTEX
  8
0
 10
323.167502
 20
74.487490
 42
-0.011911
  0
VERTEX
  8
0
 10
324.988583
 20
75.947175
 42
-0.098048
  0
VERTEX
  8
0
 10
325.937810
 20
76.413210
 42
-0.233644
  0
VERTEX
  8
0
 10
326.609485
 20
76.278360
 42
-0.101195
  0
VERTEX
  8
0
 10
327.220891
 20
75.569773
 42
0.063322
  0
VERTEX
  8
0
 10
327.768166
 20
74.829609
 42
0.164791
  0
VERTEX
  8
0
 10
328.347909
 20
74.527055
 42
0.129235
  0
VERTEX
  8
0
 10
329.089193
 20
74.603451
 42
0.032926
  0
VERTEX
  8
0
 10
330.198884
 20
75.106439
 42
0.072327
  0
VERTEX
  8
0
 10
333.127568
 20
77.267912
 42
0.002096
  0
VERTEX
  8
0
 10
344.085661
 20
88.204028
 42
0.002915
  0
VERTEX
  8
0
 10
354.651143
 20
98.961821
 42
0.046064
  0
VERTEX
  8
0
 10
357.869543
 20
102.954084
 42
0.124636
  0
VERTEX
  8
0
 10
358.823716
 20
105.665046
 42
0.011538
  0
VERTEX
  8
0
 10
359.306049
 20
112.814971
 42
0.007382
  0
VERTEX
  8
0
 10
359.664901
 20
124.968633
 42
0.000949
  0
VERTEX
  8
0
 10
360.000000
 20
151.033416
 42
0.000000
  0
VERTEX
  8
0
 10
360.500000
 20
196.658663
 42
0.000000
  0
VERTEX
  8
0
 10
363.201552
 20
200.199091
 42
0.072961
  0
VERTEX
  8
0
 10
365.131771
 20
203.681329
 42
0.099282
  0
VERTEX
  8
0
 10
365.711574
 20
207.216512
 42
0.101958
  0
VERTEX
  8
0
 10
364.880988
 20
210.631773
 42
0.080725
  0
VERTEX
  8
0
 10
362.721620
 20
213.768679
 42
0.000000
  0
VERTEX
  8
0
 10
360.000000
 20
216.609438
 42
0.000000
  0
VERTEX
  8
0
 10
360.000000
 20
232.222931
 42
0.001918
  0
VERTEX
  8
0
 10
359.943085
 20
247.060992
 42
0.157625
  0
VERTEX
  8
0
 10
359.229804
 20
249.210876
 42
0.709009
  0
VERTEX
  8
0
 10
358.480987
 20
248.982745
 42
0.002251
  0
VERTEX
  8
0
 10
357.962302
 20
235.000000
 42
0.000000
  0
VERTEX
  8
0
 10
357.424603
 20
218.500000
 42
0.000000
  0
VERTEX
  8
0
 10
357.212302
 20
237.510137
 42
0.000000
  0
VERTEX
  8
0
 10
357.000000
 20
256.520274
 42
0.000000
  0
VERTEX
  8
0
 10
338.500000
 20
275.000000
 42
0.000000
  0
VERTEX
  8
0
 10
320.000000
 20
293.479726
 42
0.000000
  0
SEQEND
  0
POLYLINE
  8
0
 66
1
 70
1
  0
VERTEX
  8
0
 10
357.683114
 20
198.812500
 42
-0.054073
  0
VERTEX
  8
0
 10
357.461564
 20
198.395823
 42
-0.470617
  0
VERTEX
  8
0
 10
357.279315
 20
198.378580
 42
-0.168741
  0
VERTEX
  8
0
 10
357.137993
 20
198.670344
 42
-0.018894
  0
VERTEX
  8
0
 10
357.078947
 20
199.416667
 42
-0.028489
  0
VERTEX
  8
0
 10
357.089945
 20
200.112848
 42
-0.077125
  0
VERTEX
  8
0
 10
357.200665
 20
200.592839
 42
-0.208169
  0
VERTEX
  8
0
 10
357.385309
 20
200.775380
 42
-0.296942
  0
VERTEX
  8
0
 10
357.604167
 20
200.729167
 42
-0.126455
  0
VERTEX
  8
0
 10
357.797407
 20
200.402231
 42
-0.060344
  0
VERTEX
  8
0
 10
357.876576
 20
199.916927
 42
-0.054150
  0
VERTEX
  8
0
 10
357.839148
 20
199.359369
 42
-0.051402
  0
SEQEND
  0
POLYLINE
  8
0
 66
1
 70
1
  0
VERTEX
  8
0
 10
357.748956
 20
130.250000
 42
-0.013690
  0
VERTEX
  8
0
 10
357.643631
 20
127.664462
 42
-0.960093
  0
VERTEX
  8
0
 10
357.544110
 20
127.667187
 42
-0.002780
  0
VERTEX
  8
0
 10
357.476197
 20
136.400929
 42
-0.000554
  0
VERTEX
  8
0
 10
357.458908
 20
152.000000
 42
-0.000554
  0
VERTEX
  8
0
 10
357.476197
 20
167.599071
 42
-0.002780
  0
VERTEX
  8
0
 10
357.544110
 20
176.332812
 42
-0.960093
  0
VERTEX
  8
0
 10
357.643631
 20
176.335538
 42
-0.013690
  0
VERTEX
  8
0
 10
357.748956
 20
173.750000
 42
-0.002101
  0
VERTEX
  8
0
 10
357.839387
 20
163.848734
 42
-0.001233
  0
VERTEX
  8
0
 10
357.868601
 20
152.000000
 42
-0.001233
  0
VERTEX
  8
0
 10
357.839387
 20
140.151266
 42
-0.002101
  0
SEQEND
  0
POLYLINE
  8
0
 66
1
 70
1
  0
VERTEX
  8
0
 10
278.523779
 20
66.986691
 42
0.002786
  0
VERTEX
  8
0
 10
273.339522
 20
61.795692
 42
0.004444
  0
VERTEX
  8
0
 10
268.972610
 20
57.294772
 42
0.001112
  0
VERTEX
  8
0
 10
265.212507
 20
53.332114
 42
0.191530
  0
VERTEX
  8
0
 10
265.000000
 20
52.797704
 42
0.357479
  0
VERTEX
  8
0
 10
265.258238
 20
52.482668
 42
0.016010
  0
VERTEX
  8
0
 10
266.745164
 20
52.234326
 42
0.020763
  0
VERTEX
  8
0
 10
268.663290
 20
52.057449
 42
0.012609
  0
VERTEX
  8
0
 10
270.940983
 20
52.000000
 42
-0.015685
  0
VERTEX
  8
0
 10
273.261755
 20
51.927181
 42
-0.022144
  0
VERTEX
  8
0
 10
275.318350
 20
51.706250
 42
-0.019282
  0
VERTEX
  8
0
 10
276.954377
 20
51.391852
 42
-0.199798
  0
VERTEX
  8
0
 10
277.500000
 20
51.000000
 42
0.232133
  0
VERTEX
  8
0
 10
278.164578
 20
50.582384
 42
0.007178
  0
VERTEX
  8
0
 10
281.470680
 20
50.282385
 42
0.012184
  0
VERTEX
  8
0
 10
285.594418
 20
50.068707
 42
0.006851
  0
VERTEX
  8
0
 10
290.608677
 20
50.000000
 42
0.011699
  0
VERTEX
  8
0
 10
299.841721
 20
50.216057
 42
0.069053
  0
VERTEX
  8
0
 10
304.586673
 20
51.102452
 42
0.091438
  0
VERTEX
  8
0
 10
308.297685
 20
53.153636
 42
0.028480
  0
VERTEX
  8
0
 10
313.000000
 20
57.484072
 42
0.007471
  0
VERTEX
  8
0
 10
315.601121
 20
60.250239
 42
0.073262
  0
VERTEX
  8
0
 10
316.494622
 20
61.574793
 42
0.216759
  0
VERTEX
  8
0
 10
316.513379
 20
62.499659
 42
0.132383
  0
VERTEX
  8
0
 10
315.823301
 20
63.370920
 42
-0.065068
  0
VERTEX
  8
0
 10
314.977906
 20
64.186815
 42
-0.217469
  0
VERTEX
  8
0
 10
314.795529
 20
64.916469
 42
-0.109093
  0
VERTEX
  8
0
 10
315.197639
 20
65.865786
 42
-0.011515
  0
VERTEX
  8
0
 10
316.645779
 20
67.806644
 42
0.000000
  0
VERTEX
  8
0
 10
319.144956
 20
71.000000
 42
0.000000
  0
VERTEX
  8
0
 10
310.356827
 20
71.000000
 42
0.000000
  0
VERTEX
  8
0
 10
301.568698
 20
71.000000
 42
0.000000
  0
VERTEX
  8
0
 10
296.808128
 20
75.688987
 42
0.000000
  0
VERTEX
  8
0
 10
292.047558
 20
80.377973
 42
0.000000
  0
SEQEND
  0
ENDSEC
  0
EOF
