  0
SECTION
  2
HEADER
  9
$ACADVER
  1
AC1006
  9
$EXTMIN
 10
0.000000
 20
0.000000
 30
0.000000
  9
$EXTMAX
 10
407.000000
 20
419.000000
 30
0.000000
  0
ENDSEC
  0
SECTION
  2
ENTITIES
  0
POLYLINE
  8
0
 66
1
 70
1
  0
VERTEX
  8
0
 10
48.314288
 20
377.142784
 42
0.017537
  0
VERTEX
  8
0
 10
46.041332
 20
376.267000
 42
0.011604
  0
VERTEX
  8
0
 10
43.493498
 20
375.110658
 42
0.011685
  0
VERTEX
  8
0
 10
41.067075
 20
373.870078
 42
0.022155
  0
VERTEX
  8
0
 10
39.185152
 20
372.741226
 42
0.087049
  0
VERTEX
  8
0
 10
30.979949
 20
364.969640
 42
0.054478
  0
VERTEX
  8
0
 10
24.274726
 20
353.526267
 42
0.048994
  0
VERTEX
  8
0
 10
19.574704
 20
339.497042
 42
0.041408
  0
VERTEX
  8
0
 10
17.349940
 20
324.000000
 42
0.000000
  0
VERTEX
  8
0
 10
16.780988
 20
314.500000
 42
0.000000
  0
VERTEX
  8
0
 10
21.330951
 20
310.750000
 42
0.065591
  0
VERTEX
  8
0
 10
26.890525
 20
307.277426
 42
0.249133
  0
VERTEX
  8
0
 10
30.844988
 20
307.518943
 42
0.190557
  0
VERTEX
  8
0
 10
33.589581
 20
311.167954
 42
0.039638
  0
VERTEX
  8
0
 10
35.125270
 20
319.194540
 42
-0.029465
  0
VERTEX
  8
0
 10
37.535596
 20
333.344795
 42
-0.053601
  0
VERTEX
  8
0
 10
41.384248
 20
344.409889
 42
-0.073932
  0
VERTEX
  8
0
 10
46.202139
 20
351.614500
 42
-0.211516
  0
VERTEX
  8
0
 10
51.588894
 20
354.000000
 42
-0.016629
  0
VERTEX
  8
0
 10
52.896509
 20
353.956500
 42
-0.027126
  0
VERTEX
  8
0
 10
53.997988
 20
353.822848
 42
-0.025765
  0
VERTEX
  8
0
 10
54.821905
 20
353.632967
 42
-0.334937
  0
VERTEX
  8
0
 10
55.000000
 20
353.396929
 42
-0.166349
  0
VERTEX
  8
0
 10
54.866598
 20
353.007055
 42
-0.004139
  0
VERTEX
  8
0
 10
53.685392
 20
351.508850
 42
-0.008478
  0
VERTEX
  8
0
 10
52.239751
 20
349.767477
 42
-0.005621
  0
VERTEX
  8
0
 10
50.524739
 20
347.816291
 42
0.034329
  0
VERTEX
  8
0
 10
47.577024
 20
344.046916
 42
0.049500
  0
VERTEX
  8
0
 10
45.563425
 20
340.326896
 42
0.052594
  0
VERTEX
  8
0
 10
44.402088
 20
336.465077
 42
0.046358
  0
VERTEX
  8
0
 10
44.005577
 20
332.276316
 42
0.066373
  0
VERTEX
  8
0
 10
44.243094
 20
330.471121
 42
0.065895
  0
VERTEX
  8
0
 10
44.945409
 20
328.786432
 42
0.047747
  0
VERTEX
  8
0
 10
46.269853
 20
326.939034
 42
0.016997
  0
VERTEX
  8
0
 10
48.489316
 20
324.563315
 42
-0.010738
  0
VERTEX
  8
0
 10
51.040731
 20
321.899894
 42
-0.071112
  0
VERTEX
  8
0
 10
52.078886
 20
320.383934
 42
-0.132178
  0
VERTEX
  8
0
 10
52.339018
 20
319.071327
 42
-0.074169
  0
VERTEX
  8
0
 10
51.989316
 20
317.471900
 42
0.043106
  0
VERTEX
  8
0
 10
51.608236
 20
316.132354
 42
0.015370
  0
VERTEX
  8
0
 10
51.290612
 20
314.167508
 42
0.015119
  0
VERTEX
  8
0
 10
51.072622
 20
311.979329
 42
0.017266
  0
VERTEX
  8
0
 10
51.000000
 20
309.876917
 42
0.026342
  0
VERTEX
  8
0
 10
51.157995
 20
306.880135
 42
0.085255
  0
VERTEX
  8
0
 10
51.698029
 20
304.969372
 42
0.071748
  0
VERTEX
  8
0
 10
52.896325
 20
303.175001
 42
0.015122
  0
VERTEX
  8
0
 10
55.505807
 20
300.442017
 42
0.012640
  0
VERTEX
  8
0
 10
57.322336
 20
298.739568
 42
0.017073
  0
VERTEX
  8
0
 10
59.053514
 20
297.300344
 42
0.014132
  0
VERTEX
  8
0
 10
60.544304
 20
296.210724
 42
0.148732
  0
VERTEX
  8
0
 10
61.255807
 20
295.984687
 42
-0.169836
  0
VERTEX
  8
0
 10
63.157610
 20
295.293126
 42
-0.268748
  0
VERTEX
  8
0
 10
63.752754
 20
293.714271
 42
-0.070094
  0
VERTEX
  8
0
 10
62.728924
 20
290.457323
 42
-0.007097
  0
VERTEX
  8
0
 10
59.125597
 20
283.161064
 42
0.000000
  0
VERTEX
  8
0
 10
53.352500
 20
271.877551
 42
0.000000
  0
VERTEX
  8
0
 10
48.282098
 20
276.436278
 42
-0.018008
  0
VERTEX
  8
0
 10
46.117675
 20
278.528017
 42
-0.012265
  0
VERTEX
  8
0
 10
43.804160
 20
281.051925
 42
-0.012373
  0
VERTEX
  8
0
 10
41.689524
 20
283.600245
 42
-0.024211
  0
VERTEX
  8
0
 10
40.158194
 20
285.747503
 42
0.040418
  0
VERTEX
  8
0
 10
37.145207
 20
289.695468
 42
0.025444
  0
VERTEX
  8
0
 10
33.048130
 20
293.807738
 42
0.020969
  0
VERTEX
  8
0
 10
28.953857
 20
297.217568
 42
0.164590
  0
VERTEX
  8
0
 10
26.641330
 20
298.000000
 42
0.061379
  0
VERTEX
  8
0
 10
24.691324
 20
297.759716
 42
0.083122
  0
VERTEX
  8
0
 10
23.066833
 20
297.051589
 42
0.086239
  0
VERTEX
  8
0
 10
21.804096
 20
295.877614
 42
0.071732
  0
VERTEX
  8
0
 10
20.913427
 20
294.272296
 42
0.221695
  0
VERTEX
  8
0
 10
21.294670
 20
289.059922
 42
0.032112
  0
VERTEX
  8
0
 10
27.226699
 20
279.876977
 42
0.033932
  0
VERTEX
  8
0
 10
35.632885
 20
270.009186
 42
0.034399
  0
VERTEX
  8
0
 10
45.260445
 20
261.417495
 42
0.000000
  0
VERTEX
  8
0
 10
49.020890
 20
258.500000
 42
0.000000
  0
VERTEX
  8
0
 10
46.027392
 20
246.710418
 42
0.009580
  0
VERTEX
  8
0
 10
42.020517
 20
229.558633
 42
0.023046
  0
VERTEX
  8
0
 10
39.888362
 20
216.694770
 42
0.021766
  0
VERTEX
  8
0
 10
38.883894
 20
203.263220
 42
0.007729
  0
VERTEX
  8
0
 10
38.582166
 20
184.000000
 42
0.002294
  0
VERTEX
  8
0
 10
38.653423
 20
167.744287
 42
0.014851
  0
VERTEX
  8
0
 10
38.970286
 20
159.554660
 42
0.023712
  0
VERTEX
  8
0
 10
39.722994
 20
153.082968
 42
0.011925
  0
VERTEX
  8
0
 10
41.252819
 20
145.000000
 42
0.014388
  0
VERTEX
  8
0
 10
44.769444
 20
130.609668
 42
0.020202
  0
VERTEX
  8
0
 10
48.788295
 20
118.013755
 42
0.016595
  0
VERTEX
  8
0
 10
52.789638
 20
108.066097
 42
0.199788
  0
VERTEX
  8
0
 10
55.718789
 20
105.277669
 42
-0.043736
  0
VERTEX
  8
0
 10
56.471826
 20
104.910354
 42
-0.018965
  0
VERTEX
  8
0
 10
57.405369
 20
104.299841
 42
-0.018596
  0
VERTEX
  8
0
 10
58.355036
 20
103.571470
 42
-0.023488
  0
VERTEX
  8
0
 10
59.173609
 20
102.826391
 42
0.064520
  0
VERTEX
  8
0
 10
60.728178
 20
101.628488
 42
0.101499
  0
VERTEX
  8
0
 10
62.319789
 20
101.091547
 42
0.097710
  0
VERTEX
  8
0
 10
64.038176
 20
101.215036
 42
0.056273
  0
VERTEX
  8
0
 10
65.972767
 20
101.985425
 42
-0.161640
  0
VERTEX
  8
0
 10
67.038163
 20
102.169283
 42
-0.212383
  0
VERTEX
  8
0
 10
67.860340
 20
101.644418
 42
-0.065568
  0
VERTEX
  8
0
 10
68.647690
 20
100.027443
 42
-0.006826
  0
VERTEX
  8
0
 10
69.933193
 20
95.994039
 42
0.021895
  0
VERTEX
  8
0
 10
71.311556
 20
92.080890
 42
0.041382
  0
VERTEX
  8
0
 10
72.811125
 20
89.093120
 42
0.036956
  0
VERTEX
  8
0
 10
74.896771
 20
86.182547
 42
0.014105
  0
VERTEX
  8
0
 10
78.201725
 20
82.443510
 42
0.022640
  0
VERTEX
  8
0
 10
84.624368
 20
76.172369
 42
0.099854
  0
VERTEX
  8
0
 10
89.168082
 20
73.515368
 42
0.166810
  0
VERTEX
  8
0
 10
93.117630
 20
73.517278
 42
0.097677
  0
VERTEX
  8
0
 10
97.251966
 20
75.916367
 42
0.000000
  0
VERTEX
  8
0
 10
100.573524
 20
78.832733
 42
0.000000
  0
VERTEX
  8
0
 10
103.415235
 20
73.405137
 42
0.064679
  0
VERTEX
  8
0
 10
108.496572
 20
66.158057
 42
0.042934
  0
VERTEX
  8
0
 10
115.975904
 20
59.269549
 42
0.043557
  0
VERTEX
  8
0
 10
124.286072
 20
53.926272
 42
0.081631
  0
VERTEX
  8
0
 10
131.846356
 20
51.408578
 42
0.070722
  0
VERTEX
  8
0
 10
134.728862
 20
51.358549
 42
0.116610
  0
VERTEX
  8
0
 10
137.001588
 20
52.203712
 42
0.077267
  0
VERTEX
  8
0
 10
139.254522
 20
54.270881
 42
0.018334
  0
VERTEX
  8
0
 10
142.296685
 20
58.378389
 42
-0.053312
  0
VERTEX
  8
0
 10
143.980865
 20
60.348387
 42
-0.226995
  0
VERTEX
  8
0
 10
145.415780
 20
60.808833
 42
-0.178854
  0
VERTEX
  8
0
 10
146.914510
 20
60.009657
 42
-0.032278
  0
VERTEX
  8
0
 10
148.890212
 20
57.476662
 42
0.042859
  0
VERTEX
  8
0
 10
152.543425
 20
52.991706
 42
0.018736
  0
VERTEX
  8
0
 10
158.087324
 20
47.678913
 42
0.018412
  0
VERTEX
  8
0
 10
163.906546
 20
42.877801
 42
0.053451
  0
VERTEX
  8
0
 10
168.358166
 20
40.171674
 42
0.044996
  0
VERTEX
  8
0
 10
174.768426
 20
37.835563
 42
0.041402
  0
VERTEX
  8
0
 10
181.675002
 20
36.601693
 42
0.022482
  0
VERTEX
  8
0
 10
191.716854
 20
36.108514
 42
0.003915
  0
VERTEX
  8
0
 10
210.694681
 20
36.179000
 42
0.000000
  0
VERTEX
  8
0
 10
238.500000
 20
36.500000
 42
0.000000
  0
VERTEX
  8
0
 10
245.108502
 20
39.631246
 42
0.037591
  0
VERTEX
  8
0
 10
250.288996
 20
42.581137
 42
0.033973
  0
VERTEX
  8
0
 10
255.158238
 20
46.365638
 42
0.032592
  0
VERTEX
  8
0
 10
259.656883
 20
50.940326
 42
0.028734
  0
VERTEX
  8
0
 10
263.730347
 20
56.250000
 42
-0.028368
  0
VERTEX
  8
0
 10
266.080456
 20
59.317972
 42
-0.111437
  0
VERTEX
  8
0
 10
267.982227
 20
60.729334
 42
-0.261099
  0
VERTEX
  8
0
 10
269.412242
 20
60.594073
 42
-0.166094
  0
VERTEX
  8
0
 10
270.431907
 20
59.214542
 42
0.131331
  0
VERTEX
  8
0
 10
271.871843
 20
56.960604
 42
0.030235
  0
VERTEX
  8
0
 10
275.408730
 20
54.096502
 42
0.030480
  0
VERTEX
  8
0
 10
279.275019
 20
51.676393
 42
0.125312
  0
VERTEX
  8
0
 10
281.931785
 20
51.000789
 42
0.096190
  0
VERTEX
  8
0
 10
285.844823
 20
51.761857
 42
0.027003
  0
VERTEX
  8
0
 10
291.509072
 20
54.413819
 42
0.028008
  0
VERTEX
  8
0
 10
297.170604
 20
57.868386
 42
0.048984
  0
VERTEX
  8
0
 10
301.362019
 20
61.411421
 42
0.030131
  0
VERTEX
  8
0
 10
303.295283
 20
63.656549
 42
0.018931
  0
VERTEX
  8
0
 10
305.287945
 20
66.490687
 42
0.018663
  0
VERTEX
  8
0
 10
307.107441
 20
69.542516
 42
0.024610
  0
VERTEX
  8
0
 10
308.519375
 20
72.457354
 42
-0.016110
  0
VERTEX
  8
0
 10
309.731751
 20
75.072579
 42
-0.027413
  0
VERTEX
  8
0
 10
310.931308
 20
77.162207
 42
-0.028228
  0
VERTEX
  8
0
 10
312.018882
 20
78.646422
 42
-0.224139
  0
VERTEX
  8
0
 10
312.768004
 20
79.000000
 42
-0.115544
  0
VERTEX
  8
0
 10
313.544756
 20
78.818073
 42
-0.022660
  0
VERTEX
  8
0
 10
314.808443
 20
78.118750
 42
-0.022942
  0
VERTEX
  8
0
 10
316.236982
 20
77.148472
 42
-0.019508
  0
VERTEX
  8
0
 10
317.652781
 20
76.000000
 42
0.042265
  0
VERTEX
  8
0
 10
320.343958
 20
74.012765
 42
0.101450
  0
VERTEX
  8
0
 10
322.662404
 20
73.168137
 42
0.106676
  0
VERTEX
  8
0
 10
325.051946
 20
73.324616
 42
0.049869
  0
VERTEX
  8
0
 10
327.949291
 20
74.473777
 42
0.094415
  0
VERTEX
  8
0
 10
332.812763
 20
78.291558
 42
0.045900
  0
VERTEX
  8
0
 10
337.453276
 20
84.719850
 42
0.045767
  0
VERTEX
  8
0
 10
340.878497
 20
91.956774
 42
0.086671
  0
VERTEX
  8
0
 10
342.015313
 20
98.287513
 42
-0.035289
  0
VERTEX
  8
0
 10
342.276614
 20
101.750402
 42
-0.203490
  0
VERTEX
  8
0
 10
343.211882
 20
103.284938
 42
-0.222672
  0
VERTEX
  8
0
 10
344.902072
 20
103.599041
 42
-0.042321
  0
VERTEX
  8
0
 10
347.933579
 20
102.529952
 42
0.114530
  0
VERTEX
  8
0
 10
352.767286
 20
101.572399
 42
0.199352
  0
VERTEX
  8
0
 10
356.431753
 20
103.235482
 42
0.092609
  0
VERTEX
  8
0
 10
359.682640
 20
108.346401
 42
0.014841
  0
VERTEX
  8
0
 10
363.781187
 20
119.500000
 42
0.042146
  0
VERTEX
  8
0
 10
370.530485
 20
147.293529
 42
0.036289
  0
VERTEX
  8
0
 10
372.976860
 20
177.266894
 42
0.034565
  0
VERTEX
  8
0
 10
371.079737
 20
208.737031
 42
0.030560
  0
VERTEX
  8
0
 10
364.861612
 20
240.997302
 42
-0.008279
  0
VERTEX
  8
0
 10
363.769768
 20
245.558497
 42
-0.010913
  0
VERTEX
  8
0
 10
362.934566
 20
249.752456
 42
-0.008524
  0
VERTEX
  8
0
 10
362.376535
 20
253.261641
 42
-0.096941
  0
VERTEX
  8
0
 10
362.450032
 20
254.656935
 42
-0.118049
  0
VERTEX
  8
0
 10
363.025694
 20
255.760212
 42
-0.019883
  0
VERTEX
  8
0
 10
364.670325
 20
257.505598
 42
-0.020791
  0
VERTEX
  8
0
 10
366.812308
 20
259.437103
 42
-0.017146
  0
VERTEX
  8
0
 10
369.246371
 20
261.318047
 42
0.042543
  0
VERTEX
  8
0
 10
379.973359
 20
270.513143
 42
0.066057
  0
VERTEX
  8
0
 10
387.292502
 20
280.237875
 42
0.067630
  0
VERTEX
  8
0
 10
391.711741
 20
291.360072
 42
0.047058
  0
VERTEX
  8
0
 10
393.721906
 20
304.741497
 42
0.053073
  0
VERTEX
  8
0
 10
392.545787
 20
327.788009
 42
0.066392
  0
VERTEX
  8
0
 10
386.435591
 20
348.291814
 42
0.074458
  0
VERTEX
  8
0
 10
375.976394
 20
364.578961
 42
0.098369
  0
VERTEX
  8
0
 10
362.025223
 20
375.299457
 42
0.018702
  0
VERTEX
  8
0
 10
358.257690
 20
376.989552
 42
0.038160
  0
VERTEX
  8
0
 10
355.170450
 20
377.971684
 42
0.034821
  0
VERTEX
  8
0
 10
351.793869
 20
378.523895
 42
0.013154
  0
VERTEX
  8
0
 10
347.018500
 20
378.840417
 42
0.058875
  0
VERTEX
  8
0
 10
333.687100
 20
377.801993
 42
0.061358
  0
VERTEX
  8
0
 10
321.161212
 20
373.680036
 42
0.052872
  0
VERTEX
  8
0
 10
308.556162
 20
366.018917
 42
0.029450
  0
VERTEX
  8
0
 10
294.920789
 20
354.283516
 42
0.000000
  0
VERTEX
  8
0
 10
286.341577
 20
345.972318
 42
0.000000
  0
VERTEX
  8
0
 10
278.920789
 20
349.384707
 42
0.014658
  0
VERTEX
  8
0
 10
270.070766
 20
353.144132
 42
0.013985
  0
VERTEX
  8
0
 10
260.877149
 20
356.441974
 42
0.013784
  0
VERTEX
  8
0
 10
251.378076
 20
359.265023
 42
0.013250
  0
VERTEX
  8
0
 10
241.612443
 20
361.601243
 42
0.012476
  0
VERTEX
  8
0
 10
234.412841
 20
362.936407
 42
0.016302
  0
VERTEX
  8
0
 10
227.769891
 20
363.776625
 42
0.012593
  0
VERTEX
  8
0
 10
219.886478
 20
364.313759
 42
0.004221
  0
VERTEX
  8
0
 10
208.349691
 20
364.710807
 42
0.003953
  0
VERTEX
  8
0
 10
192.579120
 20
364.995551
 42
0.029463
  0
VERTEX
  8
0
 10
185.096745
 20
364.630414
 42
0.070661
  0
VERTEX
  8
0
 10
180.968151
 20
363.581680
 42
0.190616
  0
VERTEX
  8
0
 10
178.827066
 20
361.519796
 42
0.087825
  0
VERTEX
  8
0
 10
178.211502
 20
359.132239
 42
0.084329
  0
VERTEX
  8
0
 10
178.439027
 20
356.642516
 42
0.094958
  0
VERTEX
  8
0
 10
179.417462
 20
354.610471
 42
0.157630
  0
VERTEX
  8
0
 10
180.951171
 20
353.515498
 42
-0.065726
  0
VERTEX
  8
0
 10
181.738120
 20
353.146367
 42
-0.048753
  0
VERTEX
  8
0
 10
182.493451
 20
352.551279
 42
-0.049439
  0
VERTEX
  8
0
 10
183.106661
 20
351.833916
 42
-0.075430
  0
VERTEX
  8
0
 10
183.468069
 20
351.100604
 42
0.168545
  0
VERTEX
  8
0
 10
184.967568
 20
349.092006
 42
0.098695
  0
VERTEX
  8
0
 10
187.763764
 20
347.913716
 42
0.051442
  0
VERTEX
  8
0
 10
192.433630
 20
347.448642
 42
0.012376
  0
VERTEX
  8
0
 10
200.220083
 20
347.668920
 42
-0.033166
  0
VERTEX
  8
0
 10
221.165158
 20
347.390896
 42
-0.031566
  0
VERTEX
  8
0
 10
242.245026
 20
344.362418
 42
-0.031809
  0
VERTEX
  8
0
 10
262.610273
 20
338.739380
 42
-0.035058
  0
VERTEX
  8
0
 10
281.421921
 20
330.717522
 42
-0.041496
  0
VERTEX
  8
0
 10
301.184096
 20
318.434386
 42
-0.047298
  0
VERTEX
  8
0
 10
317.724478
 20
303.525080
 42
-0.047691
  0
VERTEX
  8
0
 10
331.059156
 20
285.888484
 42
-0.043446
  0
VERTEX
  8
0
 10
341.293856
 20
265.500000
 42
-0.008579
  0
VERTEX
  8
0
 10
345.166547
 20
255.249822
 42
-0.059367
  0
VERTEX
  8
0
 10
346.365574
 20
250.022706
 42
-0.091392
  0
VERTEX
  8
0
 10
346.034724
 20
245.642397
 42
-0.034217
  0
VERTEX
  8
0
 10
344.053302
 20
239.782677
 42
-0.040597
  0
VERTEX
  8
0
 10
338.326325
 20
228.663803
 42
-0.031825
  0
VERTEX
  8
0
 10
330.436298
 20
217.621471
 42
-0.030362
  0
VERTEX
  8
0
 10
320.767577
 20
207.132774
 42
-0.028611
  0
VERTEX
  8
0
 10
309.714795
 20
197.668199
 42
0.020880
  0
VERTEX
  8
0
 10
304.525428
 20
193.361679
 42
0.125982
  0
VERTEX
  8
0
 10
302.605840
 20
190.467921
 42
0.199139
  0
VERTEX
  8
0
 10
302.766291
 20
187.708091
 42
0.066012
  0
VERTEX
  8
0
 10
305.044168
 20
184.254266
 42
0.033968
  0
VERTEX
  8
0
 10
308.606653
 20
180.673098
 42
0.092463
  0
VERTEX
  8
0
 10
311.669746
 20
178.854839
 42
0.081323
  0
VERTEX
  8
0
 10
315.413686
 20
178.138638
 42
0.022331
  0
VERTEX
  8
0
 10
321.435933
 20
178.246628
 42
0.034050
  0
VERTEX
  8
0
 10
328.792756
 20
179.213356
 42
0.029352
  0
VERTEX
  8
0
 10
336.333941
 20
181.198625
 42
0.029706
  0
VERTEX
  8
0
 10
343.484707
 20
184.017459
 42
0.037827
  0
VERTEX
  8
0
 10
349.668909
 20
187.480784
 42
-0.014792
  0
VERTEX
  8
0
 10
351.810510
 20
188.813178
 42
-0.021834
  0
VERTEX
  8
0
 10
353.770330
 20
189.841723
 42
-0.018190
  0
VERTEX
  8
0
 10
355.398437
 20
190.536352
 42
-0.234266
  0
VERTEX
  8
0
 10
356.038068
 20
190.476473
 42
-0.205456
  0
VERTEX
  8
0
 10
356.415990
 20
189.937988
 42
-0.016925
  0
VERTEX
  8
0
 10
356.717432
 20
188.211249
 42
-0.020473
  0
VERTEX
  8
0
 10
356.930032
 20
186.049783
 42
-0.014277
  0
VERTEX
  8
0
 10
357.000000
 20
183.599912
 42
0.000000
  0
VERTEX
  8
0
 10
357.000000
 20
177.317858
 42
0.000000
  0
VERTEX
  8
0
 10
352.250000
 20
174.766274
 42
-0.034503
  0
VERTEX
  8
0
 10
343.109493
 20
170.640824
 42
-0.026722
  0
VERTEX
  8
0
 10
332.677268
 20
167.395970
 42
-0.024142
  0
VERTEX
  8
0
 10
320.879699
 20
165.006324
 42
-0.017729
  0
VERTEX
  8
0
 10
307.620975
 20
163.459746
 42
0.034828
  0
VERTEX
  8
0
 10
299.054268
 20
162.162446
 42
0.205875
  0
VERTEX
  8
0
 10
295.459666
 20
159.563550
 42
0.272463
  0
VERTEX
  8
0
 10
295.433908
 20
155.726523
 42
0.056344
  0
VERTEX
  8
0
 10
299.621869
 20
150.076546
 42
0.061799
  0
VERTEX
  8
0
 10
307.357377
 20
143.601652
 42
0.051240
  0
VERTEX
  8
0
 10
316.932757
 20
138.724570
 42
0.048206
  0
VERTEX
  8
0
 10
327.896065
 20
135.662508
 42
0.042230
  0
VERTEX
  8
0
 10
339.746405
 20
134.573811
 42
-0.000626
  0
VERTEX
  8
0
 10
343.675639
 20
134.540586
 42
-0.001044
  0
VERTEX
  8
0
 10
346.983984
 20
134.501560
 42
-0.000044
  0
VERTEX
  8
0
 10
349.966912
 20
134.459883
 42
-0.394868
  0
VERTEX
  8
0
 10
349.996405
 20
134.431501
 42
-0.088670
  0
VERTEX
  8
0
 10
349.920586
 20
133.825370
 42
-0.000569
  0
VERTEX
  8
0
 10
348.300870
 20
128.634471
 42
-0.000818
  0
VERTEX
  8
0
 10
346.698978
 20
123.550369
 42
-0.059360
  0
VERTEX
  8
0
 10
346.337972
 20
122.753667
 42
-0.272948
  0
VERTEX
  8
0
 10
345.978960
 20
122.560395
 42
-0.045406
  0
VERTEX
  8
0
 10
345.169127
 20
122.666117
 42
-0.038992
  0
VERTEX
  8
0
 10
344.134378
 20
122.984511
 42
-0.025205
  0
VERTEX
  8
0
 10
342.992909
 20
123.503667
 42
0.106245
  0
VERTEX
  8
0
 10
337.529655
 20
124.989545
 42
0.066862
  0
VERTEX
  8
0
 10
330.910449
 20
124.461085
 42
0.073141
  0
VERTEX
  8
0
 10
325.353031
 20
122.374228
 42
0.235370
  0
VERTEX
  8
0
 10
323.175675
 20
119.213566
 42
0.058984
  0
VERTEX
  8
0
 10
323.146332
 20
117.942230
 42
0.012627
  0
VERTEX
  8
0
 10
323.411075
 20
115.746805
 42
0.013029
  0
VERTEX
  8
0
 10
323.851029
 20
113.203938
 42
0.012087
  0
VERTEX
  8
0
 10
324.432474
 20
110.622564
 42
-0.030467
  0
VERTEX
  8
0
 10
325.305384
 20
105.953112
 42
-0.048504
  0
VERTEX
  8
0
 10
325.414836
 20
101.894484
 42
-0.056133
  0
VERTEX
  8
0
 10
324.763205
 20
98.356076
 42
-0.065774
  0
VERTEX
  8
0
 10
323.355100
 20
95.250000
 42
-0.069308
  0
VERTEX
  8
0
 10
322.040654
 20
93.674722
 42
-0.172366
  0
VERTEX
  8
0
 10
320.674934
 20
93.104302
 42
-0.163189
  0
VERTEX
  8
0
 10
319.202694
 20
93.510580
 42
-0.060687
  0
VERTEX
  8
0
 10
317.558706
 20
94.935131
 42
0.073411
  0
VERTEX
  8
0
 10
315.206957
 20
96.870873
 42
0.029363
  0
VERTEX
  8
0
 10
311.504756
 20
98.814322
 42
0.028936
  0
VERTEX
  8
0
 10
307.319236
 20
100.422527
 42
0.039120
  0
VERTEX
  8
0
 10
303.374561
 20
101.349403
 42
0.026318
  0
VERTEX
  8
0
 10
301.150111
 20
101.572496
 42
0.065966
  0
VERTEX
  8
0
 10
299.528044
 20
101.435255
 42
0.073495
  0
VERTEX
  8
0
 10
298.103436
 20
100.894350
 42
0.039249
  0
VERTEX
  8
0
 10
296.532733
 20
99.847088
 42
0.034875
  0
VERTEX
  8
0
 10
295.054474
 20
98.507467
 42
0.111423
  0
VERTEX
  8
0
 10
294.370979
 20
97.374704
 42
0.095807
  0
VERTEX
  8
0
 10
294.186170
 20
95.960509
 42
0.021945
  0
VERTEX
  8
0
 10
294.439887
 20
93.552292
 42
-0.055241
  0
VERTEX
  8
0
 10
294.639892
 20
88.357212
 42
-0.054010
  0
VERTEX
  8
0
 10
293.703040
 20
83.203134
 42
-0.054686
  0
VERTEX
  8
0
 10
291.701388
 20
78.428678
 42
-0.059687
  0
VERTEX
  8
0
 10
288.758406
 20
74.353728
 42
-0.018649
  0
VERTEX
  8
0
 10
287.102669
 20
72.686716
 42
-0.023527
  0
VERTEX
  8
0
 10
285.446283
 20
71.278908
 42
-0.022625
  0
VERTEX
  8
0
 10
283.983847
 20
70.252066
 42
-0.142687
  0
VERTEX
  8
0
 10
283.118546
 20
70.000000
 42
-0.150692
  0
VERTEX
  8
0
 10
281.234338
 20
70.581066
 42
-0.012032
  0
VERTEX
  8
0
 10
276.950226
 20
73.654626
 42
-0.010194
  0
VERTEX
  8
0
 10
272.758727
 20
76.953448
 42
-0.209870
  0
VERTEX
  8
0
 10
272.047956
 20
78.353071
 42
-0.171758
  0
VERTEX
  8
0
 10
272.203289
 20
78.885157
 42
-0.007445
  0
VERTEX
  8
0
 10
273.379235
 20
80.467462
 42
-0.011944
  0
VERTEX
  8
0
 10
274.870144
 20
82.319069
 42
-0.008161
  0
VERTEX
  8
0
 10
276.647311
 20
84.353071
 42
0.036090
  0
VERTEX
  8
0
 10
280.420402
 20
89.191801
 42
0.029543
  0
VERTEX
  8
0
 10
283.743479
 20
94.849560
 42
0.029643
  0
VERTEX
  8
0
 10
286.364416
 20
100.835105
 42
0.037209
  0
VERTEX
  8
0
 10
288.032312
 20
106.655646
 42
0.035247
  0
VERTEX
  8
0
 10
288.456784
 20
109.798966
 42
0.007324
  0
VERTEX
  8
0
 10
288.730500
 20
115.367416
 42
0.007379
  0
VERTEX
  8
0
 10
288.862595
 20
122.068386
 42
0.005759
  0
VERTEX
  8
0
 10
288.814802
 20
129.349135
 42
0.000000
  0
VERTEX
  8
0
 10
288.500000
 20
146.756995
 42
0.000000
  0
VERTEX
  8
0
 10
284.500000
 20
150.877609
 42
0.035190
  0
VERTEX
  8
0
 10
281.554214
 20
153.513310
 42
0.099540
  0
VERTEX
  8
0
 10
279.094582
 20
154.735370
 42
0.134065
  0
VERTEX
  8
0
 10
276.806098
 20
154.726570
 42
0.090329
  0
VERTEX
  8
0
 10
274.441130
 20
153.582541
 42
0.161989
  0
VERTEX
  8
0
 10
273.324064
 20
152.014131
 42
0.047737
  0
VERTEX
  8
0
 10
272.722993
 20
149.083527
 42
0.018956
  0
VERTEX
  8
0
 10
272.350675
 20
143.695098
 42
0.001911
  0
VERTEX
  8
0
 10
272.000000
 20
130.832541
 42
-0.002245
  0
VERTEX
  8
0
 10
271.636150
 20
117.806047
 42
-0.019427
  0
VERTEX
  8
0
 10
271.222731
 20
112.014588
 42
-0.043521
  0
VERTEX
  8
0
 10
270.487483
 20
108.332680
 42
-0.049598
  0
VERTEX
  8
0
 10
269.143975
 20
105.000000
 42
-0.038764
  0
VERTEX
  8
0
 10
266.367766
 20
100.569989
 42
-0.035449
  0
VERTEX
  8
0
 10
262.863850
 20
96.478271
 42
-0.035620
  0
VERTEX
  8
0
 10
258.836520
 20
92.942090
 42
-0.040174
  0
VERTEX
  8
0
 10
254.500000
 20
90.168407
 42
-0.027095
  0
VERTEX
  8
0
 10
251.403856
 20
88.731351
 42
-0.049717
  0
VERTEX
  8
0
 10
248.734817
 20
87.960897
 42
-0.036513
  0
VERTEX
  8
0
 10
245.460320
 20
87.603623
 42
-0.008795
  0
VERTEX
  8
0
 10
240.000000
 20
87.504805
 42
-0.021293
  0
VERTEX
  8
0
 10
233.096488
 20
87.795433
 42
-0.062127
  0
VERTEX
  8
0
 10
228.439612
 20
88.781917
 42
-0.071080
  0
VERTEX
  8
0
 10
224.524709
 20
90.794075
 42
-0.034576
  0
VERTEX
  8
0
 10
220.164681
 20
94.361953
 42
-0.035131
  0
VERTEX
  8
0
 10
217.189633
 20
97.583565
 42
-0.063949
  0
VERTEX
  8
0
 10
215.327305
 20
100.637028
 42
-0.065766
  0
VERTEX
  8
0
 10
214.328285
 20
104.001914
 42
-0.039336
  0
VERTEX
  8
0
 10
214.000000
 20
108.168278
 42
0.000000
  0
VERTEX
  8
0
 10
214.000000
 20
113.435875
 42
0.000000
  0
VERTEX
  8
0
 10
222.411114
 20
121.467938
 42
0.008797
  0
VERTEX
  8
0
 10
226.863995
 20
125.872497
 42
0.030420
  0
VERTEX
  8
0
 10
229.514210
 20
128.940663
 42
0.044174
  0
VERTEX
  8
0
 10
231.215545
 20
131.634389
 42
0.041896
  0
VERTEX
  8
0
 10
232.452418
 20
134.632392
 42
-0.033387
  0
VERTEX
  8
0
 10
233.987616
 20
138.540569
 42
-0.083808
  0
VERTEX
  8
0
 10
235.731673
 20
141.045131
 42
-0.071696
  0
VERTEX
  8
0
 10
238.368758
 20
143.058820
 42
-0.019764
  0
VERTEX
  8
0
 10
243.033986
 20
145.425562
 42
0.031309
  0
VERTEX
  8
0
 10
248.800396
 20
148.520263
 42
0.079295
  0
VERTEX
  8
0
 10
252.386769
 20
151.624201
 42
0.100706
  0
VERTEX
  8
0
 10
254.331268
 20
155.197257
 42
0.074551
  0
VERTEX
  8
0
 10
255.000000
 20
159.657407
 42
0.040321
  0
VERTEX
  8
0
 10
254.673950
 20
163.694033
 42
0.068416
  0
VERTEX
  8
0
 10
253.681103
 20
166.928653
 42
0.057668
  0
VERTEX
  8
0
 10
251.718253
 20
170.132713
 42
0.021173
  0
VERTEX
  8
0
 10
248.264258
 20
174.174112
 42
0.051298
  0
VERTEX
  8
0
 10
242.247252
 20
179.438268
 42
0.106556
  0
VERTEX
  8
0
 10
236.540140
 20
181.877783
 42
0.044654
  0
VERTEX
  8
0
 10
227.619259
 20
182.794360
 42
0.003284
  0
VERTEX
  8
0
 10
203.000000
 20
182.956076
 42
0.001305
  0
VERTEX
  8
0
 10
183.429984
 20
182.904996
 42
0.011773
  0
VERTEX
  8
0
 10
174.869602
 20
182.658684
 42
0.027507
  0
VERTEX
  8
0
 10
169.841620
 20
182.117044
 42
0.066048
  0
VERTEX
  8
0
 10
166.262544
 20
181.032546
 42
0.078978
  0
VERTEX
  8
0
 10
163.026539
 20
178.895033
 42
0.040012
  0
VERTEX
  8
0
 10
159.691469
 20
175.311041
 42
0.039716
  0
VERTEX
  8
0
 10
156.909005
 20
171.155938
 42
0.065869
  0
VERTEX
  8
0
 10
155.350262
 20
167.243427
 42
0.134283
  0
VERTEX
  8
0
 10
155.459469
 20
161.612313
 42
0.085176
  0
VERTEX
  8
0
 10
158.369010
 20
155.684750
 42
0.071077
  0
VERTEX
  8
0
 10
163.729054
 20
150.136617
 42
0.052946
  0
VERTEX
  8
0
 10
170.973472
 20
145.645730
 42
-0.012600
  0
VERTEX
  8
0
 10
174.843267
 20
143.658848
 42
-0.068724
  0
VERTEX
  8
0
 10
176.731551
 20
142.262399
 42
-0.091117
  0
VERTEX
  8
0
 10
177.915727
 20
140.586233
 42
-0.031108
  0
VERTEX
  8
0
 10
179.000000
 20
137.800092
 42
0.068566
  0
VERTEX
  8
0
 10
180.864138
 20
133.899824
 42
0.028773
  0
VERTEX
  8
0
 10
184.347488
 20
129.224268
 42
0.027283
  0
VERTEX
  8
0
 10
188.788272
 20
124.480147
 42
0.028071
  0
VERTEX
  8
0
 10
193.679091
 20
120.295603
 42
-0.034097
  0
VERTEX
  8
0
 10
195.651860
 20
118.566149
 42
-0.114768
  0
VERTEX
  8
0
 10
196.549453
 20
117.116234
 42
-0.072954
  0
VERTEX
  8
0
 10
196.920437
 20
115.079071
 42
-0.008621
  0
VERTEX
  8
0
 10
197.000000
 20
110.465215
 42
0.000000
  0
VERTEX
  8
0
 10
197.000000
 20
103.167807
 42
0.000000
  0
VERTEX
  8
0
 10
190.845532
 20
97.598333
 42
-0.023910
  0
VERTEX
  8
0
 10
184.469404
 20
92.360153
 42
-0.061761
  0
VERTEX
  8
0
 10
179.300210
 20
89.424055
 42
-0.066702
  0
VERTEX
  8
0
 10
173.811811
 20
87.964109
 42
-0.031705
  0
VERTEX
  8
0
 10
166.500000
 20
87.500000
 42
-0.029050
  0
VERTEX
  8
0
 10
159.170151
 20
87.926230
 42
-0.072836
  0
VERTEX
  8
0
 10
154.008625
 20
89.308064
 42
-0.083172
  0
VERTEX
  8
0
 10
149.871434
 20
91.977182
 42
-0.047140
  0
VERTEX
  8
0
 10
145.850810
 20
96.401197
 42
-0.050685
  0
VERTEX
  8
0
 10
142.358162
 20
102.199205
 42
-0.068009
  0
VERTEX
  8
0
 10
140.517528
 20
108.044092
 42
-0.037454
  0
VERTEX
  8
0
 10
139.722169
 20
116.444358
 42
-0.005946
  0
VERTEX
  8
0
 10
139.595731
 20
133.000000
 42
-0.002859
  0
VERTEX
  8
0
 10
139.723647
 20
145.826401
 42
-0.014446
  0
VERTEX
  8
0
 10
140.042723
 20
152.979108
 42
-0.024416
  0
VERTEX
  8
0
 10
140.682008
 20
158.180577
 42
-0.023733
  0
VERTEX
  8
0
 10
141.829180
 20
163.345247
 42
-0.030441
  0
VERTEX
  8
0
 10
144.747488
 20
171.952437
 42
-0.022406
  0
VERTEX
  8
0
 10
148.969575
 20
181.096629
 42
-0.022269
  0
VERTEX
  8
0
 10
154.034517
 20
189.903972
 42
-0.028487
  0
VERTEX
  8
0
 10
159.496304
 20
197.500000
 42
0.018944
  0
VERTEX
  8
0
 10
163.676790
 20
203.086077
 42
0.070008
  0
VERTEX
  8
0
 10
165.646587
 20
207.014444
 42
0.132882
  0
VERTEX
  8
0
 10
165.823580
 20
209.922556
 42
0.169731
  0
VERTEX
  8
0
 10
164.453051
 20
212.210573
 42
-0.010924
  0
VERTEX
  8
0
 10
163.697937
 20
212.868464
 42
-0.004135
  0
VERTEX
  8
0
 10
162.671198
 20
213.818887
 42
-0.004094
  0
VERTEX
  8
0
 10
161.571263
 20
214.871204
 42
-0.004986
  0
VERTEX
  8
0
 10
160.559482
 20
215.875000
 42
0.092770
  0
VERTEX
  8
0
 10
157.636678
 20
217.902173
 42
0.164201
  0
VERTEX
  8
0
 10
154.746971
 20
218.180120
 42
0.117076
  0
VERTEX
  8
0
 10
151.582270
 20
216.601526
 42
0.036143
  0
VERTEX
  8
0
 10
147.724097
 20
212.875000
 42
0.029726
  0
VERTEX
  8
0
 10
140.229913
 20
203.436336
 42
0.029609
  0
VERTEX
  8
0
 10
133.897196
 20
193.163515
 42
0.029185
  0
VERTEX
  8
0
 10
128.743373
 20
182.068980
 42
0.027104
  0
VERTEX
  8
0
 10
124.771215
 20
170.175433
 42
0.026162
  0
VERTEX
  8
0
 10
123.639184
 20
165.011920
 42
0.021610
  0
VERTEX
  8
0
 10
122.962941
 20
159.417608
 42
0.012547
  0
VERTEX
  8
0
 10
122.550962
 20
151.500540
 42
0.002559
  0
VERTEX
  8
0
 10
122.245419
 20
137.473082
 42
0.001878
  0
VERTEX
  8
0
 10
122.046389
 20
122.050206
 42
0.016136
  0
VERTEX
  8
0
 10
122.205750
 20
115.158952
 42
0.034565
  0
VERTEX
  8
0
 10
122.781304
 20
110.559677
 42
0.032254
  0
VERTEX
  8
0
 10
123.992018
 20
105.973082
 42
0.027521
  0
VERTEX
  8
0
 10
126.278021
 20
100.209497
 42
0.033144
  0
VERTEX
  8
0
 10
129.065597
 20
95.093374
 42
0.032486
  0
VERTEX
  8
0
 10
132.555087
 20
90.308475
 42
0.024749
  0
VERTEX
  8
0
 10
136.951208
 20
85.537592
 42
-0.007628
  0
VERTEX
  8
0
 10
140.530303
 20
81.910737
 42
-0.083233
  0
VERTEX
  8
0
 10
141.679868
 20
80.221125
 42
-0.395155
  0
VERTEX
  8
0
 10
141.394545
 20
79.363857
 42
-0.124857
  0
VERTEX
  8
0
 10
139.960162
 20
79.000000
 42
0.095241
  0
VERTEX
  8
0
 10
137.183696
 20
78.466291
 42
0.036505
  0
VERTEX
  8
0
 10
133.633023
 20
76.738857
 42
0.036372
  0
VERTEX
  8
0
 10
130.200222
 20
74.397980
 42
0.058955
  0
VERTEX
  8
0
 10
127.714437
 20
71.894373
 42
-0.049361
  0
VERTEX
  8
0
 10
125.757350
 20
69.846340
 42
-0.270126
  0
VERTEX
  8
0
 10
124.310426
 20
69.580352
 42
-0.158520
  0
VERTEX
  8
0
 10
122.825588
 20
70.733415
 42
-0.016501
  0
VERTEX
  8
0
 10
120.437404
 20
74.516600
 42
-0.033328
  0
VERTEX
  8
0
 10
119.178922
 20
77.034749
 42
-0.035226
  0
VERTEX
  8
0
 10
118.292866
 20
79.652248
 42
-0.029940
  0
VERTEX
  8
0
 10
117.684613
 20
82.713820
 42
-0.015194
  0
VERTEX
  8
0
 10
117.269391
 20
86.621064
 42
0.013440
  0
VERTEX
  8
0
 10
116.764239
 20
91.538678
 42
0.075507
  0
VERTEX
  8
0
 10
116.035989
 20
94.071527
 42
0.091394
  0
VERTEX
  8
0
 10
114.645361
 20
96.048632
 42
0.024434
  0
VERTEX
  8
0
 10
111.758690
 20
98.614729
 42
0.093212
  0
VERTEX
  8
0
 10
107.650068
 20
100.816409
 42
0.094317
  0
VERTEX
  8
0
 10
103.039800
 20
101.362794
 42
0.078250
  0
VERTEX
  8
0
 10
97.860581
 20
100.170339
 42
0.043452
  0
VERTEX
  8
0
 10
92.065916
 20
97.231756
 42
0.000000
  0
VERTEX
  8
0
 10
87.225528
 20
94.222806
 42
0.000000
  0
VERTEX
  8
0
 10
86.686226
 20
97.546136
 42
-0.047614
  0
VERTEX
  8
0
 10
86.574748
 20
99.239955
 42
-0.016231
  0
VERTEX
  8
0
 10
86.727344
 20
101.702189
 42
-0.015970
  0
VERTEX
  8
0
 10
87.073195
 20
104.426118
 42
-0.017741
  0
VERTEX
  8
0
 10
87.583519
 20
107.027599
 42
0.036265
  0
VERTEX
  8
0
 10
88.366485
 20
111.983642
 42
0.111946
  0
VERTEX
  8
0
 10
87.900241
 20
115.321748
 42
0.111321
  0
VERTEX
  8
0
 10
86.037781
 20
118.143071
 42
0.035647
  0
VERTEX
  8
0
 10
82.153827
 20
121.377042
 42
0.024923
  0
VERTEX
  8
0
 10
79.496089
 20
123.092723
 42
0.063252
  0
VERTEX
  8
0
 10
77.381097
 20
123.979616
 42
0.053641
  0
VERTEX
  8
0
 10
74.912956
 20
124.386914
 42
0.014093
  0
VERTEX
  8
0
 10
70.901609
 20
124.500000
 42
-0.006938
  0
VERTEX
  8
0
 10
66.415657
 20
124.562247
 42
-0.086357
  0
VERTEX
  8
0
 10
64.753593
 20
124.899229
 42
-0.173515
  0
VERTEX
  8
0
 10
63.791585
 20
125.736079
 42
-0.047958
  0
VERTEX
  8
0
 10
62.970600
 20
127.597377
 42
-0.056530
  0
VERTEX
  8
0
 10
62.246935
 20
131.049588
 42
-0.255419
  0
VERTEX
  8
0
 10
63.032784
 20
132.875362
 42
-0.149321
  0
VERTEX
  8
0
 10
65.421664
 20
133.795738
 42
-0.017826
  0
VERTEX
  8
0
 10
71.149147
 20
134.000000
 42
0.027122
  0
VERTEX
  8
0
 10
79.230620
 20
134.438702
 42
0.026768
  0
VERTEX
  8
0
 10
87.253243
 20
135.749744
 42
0.027428
  0
VERTEX
  8
0
 10
94.885111
 20
137.864817
 42
0.032615
  0
VERTEX
  8
0
 10
101.796270
 20
140.708925
 42
0.031542
  0
VERTEX
  8
0
 10
110.570814
 20
145.717414
 42
0.135458
  0
VERTEX
  8
0
 10
114.500325
 20
150.199628
 42
0.233556
  0
VERTEX
  8
0
 10
114.463439
 20
154.602816
 42
0.105399
  0
VERTEX
  8
0
 10
110.750000
 20
159.220486
 42
0.032873
  0
VERTEX
  8
0
 10
107.888479
 20
161.253720
 42
0.068284
  0
VERTEX
  8
0
 10
105.388131
 20
162.357399
 42
0.039657
  0
VERTEX
  8
0
 10
101.922590
 20
163.060110
 42
0.005288
  0
VERTEX
  8
0
 10
94.500000
 20
163.881483
 42
-0.017321
  0
VERTEX
  8
0
 10
80.804732
 20
165.731513
 42
-0.026597
  0
VERTEX
  8
0
 10
69.134057
 20
168.366944
 42
-0.028289
  0
VERTEX
  8
0
 10
60.214102
 20
171.440550
 42
-0.151738
  0
VERTEX
  8
0
 10
56.295261
 20
174.672127
 42
-0.066952
  0
VERTEX
  8
0
 10
55.612086
 20
176.099745
 42
-0.045441
  0
VERTEX
  8
0
 10
55.215075
 20
177.860165
 42
-0.034829
  0
VERTEX
  8
0
 10
55.077529
 20
180.098927
 42
-0.015986
  0
VERTEX
  8
0
 10
55.195211
 20
183.022008
 42
-0.022220
  0
VERTEX
  8
0
 10
55.774517
 20
187.966062
 42
-0.148750
  0
VERTEX
  8
0
 10
56.852754
 20
190.162139
 42
-0.272019
  0
VERTEX
  8
0
 10
58.578944
 20
190.673248
 42
-0.075429
  0
VERTEX
  8
0
 10
61.293378
 20
189.545096
 42
0.025926
  0
VERTEX
  8
0
 10
71.274212
 20
184.187725
 42
0.035302
  0
VERTEX
  8
0
 10
80.795453
 20
180.492460
 42
0.039502
  0
VERTEX
  8
0
 10
89.750350
 20
178.483616
 42
0.053531
  0
VERTEX
  8
0
 10
98.029721
 20
178.195769
 42
0.039826
  0
VERTEX
  8
0
 10
102.457134
 20
178.873138
 42
0.090842
  0
VERTEX
  8
0
 10
105.542323
 20
180.223656
 42
0.125881
  0
VERTEX
  8
0
 10
107.340421
 20
182.246893
 42
0.122700
  0
VERTEX
  8
0
 10
107.968197
 20
184.904988
 42
0.087761
  0
VERTEX
  8
0
 10
107.523893
 20
187.248962
 42
0.087439
  0
VERTEX
  8
0
 10
106.302253
 20
189.301656
 42
0.036946
  0
VERTEX
  8
0
 10
103.646640
 20
191.958686
 42
0.004119
  0
VERTEX
  8
0
 10
97.112677
 20
197.502142
 42
-0.036074
  0
VERTEX
  8
0
 10
85.178438
 20
209.015415
 42
-0.035270
  0
VERTEX
  8
0
 10
74.924897
 20
222.207260
 42
-0.037069
  0
VERTEX
  8
0
 10
67.720099
 20
234.905055
 42
-0.114957
  0
VERTEX
  8
0
 10
65.650297
 20
244.470578
 42
-0.089447
  0
VERTEX
  8
0
 10
67.776577
 20
255.279763
 42
-0.024575
  0
VERTEX
  8
0
 10
74.906546
 20
271.169334
 42
-0.025276
  0
VERTEX
  8
0
 10
84.383622
 20
287.665113
 42
-0.035114
  0
VERTEX
  8
0
 10
94.588079
 20
301.307733
 42
-0.041458
  0
VERTEX
  8
0
 10
106.497013
 20
312.983699
 42
-0.029711
  0
VERTEX
  8
0
 10
121.534104
 20
324.022476
 42
-0.029306
  0
VERTEX
  8
0
 10
138.069690
 20
333.386139
 42
-0.036074
  0
VERTEX
  8
0
 10
154.500000
 20
340.035263
 42
0.015718
  0
VERTEX
  8
0
 10
161.275017
 20
342.461269
 42
0.047544
  0
VERTEX
  8
0
 10
165.639085
 20
344.679738
 42
0.077873
  0
VERTEX
  8
0
 10
168.149833
 20
346.885183
 42
0.175419
  0
VERTEX
  8
0
 10
169.000000
 20
349.233857
 42
0.111131
  0
VERTEX
  8
0
 10
168.774765
 20
350.234721
 42
0.021987
  0
VERTEX
  8
0
 10
167.909670
 20
351.869684
 42
0.022299
  0
VERTEX
  8
0
 10
166.709176
 20
353.721235
 42
0.019110
  0
VERTEX
  8
0
 10
165.288238
 20
355.559543
 42
0.018647
  0
VERTEX
  8
0
 10
163.306449
 20
357.758329
 42
0.053694
  0
VERTEX
  8
0
 10
161.728735
 20
359.067608
 42
0.074787
  0
VERTEX
  8
0
 10
160.239000
 20
359.761869
 42
0.071825
  0
VERTEX
  8
0
 10
158.589841
 20
360.000000
 42
0.065054
  0
VERTEX
  8
0
 10
154.230010
 20
359.430342
 42
0.011956
  0
VERTEX
  8
0
 10
146.421146
 20
357.153054
 42
0.013261
  0
VERTEX
  8
0
 10
137.777284
 20
354.151791
 42
0.015594
  0
VERTEX
  8
0
 10
129.766301
 20
350.841057
 42
0.000000
  0
VERTEX
  8
0
 10
120.966708
 20
346.878814
 42
0.000000
  0
VERTEX
  8
0
 10
112.233354
 20
354.555085
 42
0.024432
  0
VERTEX
  8
0
 10
98.054746
 20
365.839333
 42
0.044977
  0
VERTEX
  8
0
 10
85.368268
 20
373.331750
 42
0.053659
  0
VERTEX
  8
0
 10
73.249592
 20
377.568977
 42
0.058462
  0
VERTEX
  8
0
 10
60.855655
 20
378.967354
 42
0.018292
  0
VERTEX
  8
0
 10
57.518969
 20
378.830412
 42
0.016720
  0
VERTEX
  8
0
 10
54.098957
 20
378.449105
 42
0.017400
  0
VERTEX
  8
0
 10
50.915906
 20
377.872294
 42
0.029669
  0
SEQEND
  0
POLYLINE
  8
0
 66
1
 70
1
  0
VERTEX
  8
0
 10
84.746457
 20
357.028516
 42
-0.039082
  0
VERTEX
  8
0
 10
90.569301
 20
353.815388
 42
-0.013865
  0
VERTEX
  8
0
 10
98.372344
 20
348.360670
 42
-0.009191
  0
VERTEX
  8
0
 10
105.833869
 20
342.615051
 42
-0.131294
  0
VERTEX
  8
0
 10
107.808146
 20
339.936203
 42
-0.275947
  0
VERTEX
  8
0
 10
107.735325
 20
339.497431
 42
-0.024246
  0
VERTEX
  8
0
 10
106.934279
 20
338.640051
 42
-0.026341
  0
VERTEX
  8
0
 10
105.802118
 20
337.650669
 42
-0.017173
  0
VERTEX
  8
0
 10
104.400563
 20
336.626222
 42
0.000000
  0
VERTEX
  8
0
 10
100.684835
 20
334.101319
 42
0.000000
  0
VERTEX
  8
0
 10
88.592417
 20
345.664659
 42
-0.002289
  0
VERTEX
  8
0
 10
83.933583
 20
350.160663
 42
-0.003539
  0
VERTEX
  8
0
 10
79.954231
 20
354.091530
 42
-0.001146
  0
VERTEX
  8
0
 10
76.546140
 20
357.521778
 42
-0.105394
  0
VERTEX
  8
0
 10
76.166667
 20
358.113999
 42
-0.473274
  0
VERTEX
  8
0
 10
76.598706
 20
358.861215
 42
-0.072208
  0
VERTEX
  8
0
 10
78.578940
 20
358.897492
 42
-0.044371
  0
VERTEX
  8
0
 10
81.541319
 20
358.252034
 42
-0.030733
  0
SEQEND
  0
POLYLINE
  8
0
 66
1
 70
1
  0
VERTEX
  8
0
 10
317.708263
 20
344.995130
 42
-0.007162
  0
VERTEX
  8
0
 10
310.205428
 20
337.760681
 42
-0.050441
  0
VERTEX
  8
0
 10
306.178843
 20
334.686493
 42
-0.395090
  0
VERTEX
  8
0
 10
304.741170
 20
334.979811
 42
-0.235287
  0
VERTEX
  8
0
 10
304.450293
 20
336.843388
 42
-0.123467
  0
VERTEX
  8
0
 10
305.984325
 20
339.328576
 42
-0.014247
  0
VERTEX
  8
0
 10
310.849657
 20
343.803218
 42
-0.017447
  0
VERTEX
  8
0
 10
316.756086
 20
348.581570
 42
-0.018157
  0
VERTEX
  8
0
 10
322.905036
 20
352.870133
 42
-0.001652
  0
VERTEX
  8
0
 10
325.378331
 20
354.453329
 42
-0.002645
  0
VERTEX
  8
0
 10
327.501548
 20
355.786852
 42
-0.000518
  0
VERTEX
  8
0
 10
329.377567
 20
356.948634
 42
-0.139250
  0
VERTEX
  8
0
 10
329.558429
 20
357.000000
 42
-0.665617
  0
VERTEX
  8
0
 10
329.588307
 20
356.928585
 42
-0.000152
  0
VERTEX
  8
0
 10
326.179890
 20
353.473569
 42
-0.001630
  0
VERTEX
  8
0
 10
322.330103
 20
349.598877
 42
-0.000962
  0
SEQEND
  0
POLYLINE
  8
0
 66
1
 70
1
  0
VERTEX
  8
0
 10
369.323406
 20
350.750000
 42
-0.073160
  0
VERTEX
  8
0
 10
372.633432
 20
344.618556
 42
-0.034385
  0
VERTEX
  8
0
 10
375.130290
 20
335.942382
 42
-0.030417
  0
VERTEX
  8
0
 10
376.711413
 20
325.526870
 42
-0.023186
  0
VERTEX
  8
0
 10
377.212860
 20
314.000000
 42
-0.022798
  0
VERTEX
  8
0
 10
376.771045
 20
304.893205
 42
-0.048345
  0
VERTEX
  8
0
 10
375.434100
 20
297.966886
 42
-0.055296
  0
VERTEX
  8
0
 10
372.940307
 20
292.031692
 42
-0.040182
  0
VERTEX
  8
0
 10
368.960048
 20
286.068673
 42
-0.030926
  0
VERTEX
  8
0
 10
365.485786
 20
282.192123
 42
-0.020044
  0
VERTEX
  8
0
 10
361.030474
 20
278.139063
 42
-0.014719
  0
VERTEX
  8
0
 10
356.667946
 20
274.692493
 42
-0.161175
  0
VERTEX
  8
0
 10
354.575483
 20
274.000000
 42
-0.275652
  0
VERTEX
  8
0
 10
353.270071
 20
274.778861
 42
-0.006299
  0
VERTEX
  8
0
 10
349.779553
 20
281.445895
 42
-0.010467
  0
VERTEX
  8
0
 10
346.633078
 20
287.979985
 42
-0.107371
  0
VERTEX
  8
0
 10
346.000000
 20
290.894099
 42
-0.114838
  0
VERTEX
  8
0
 10
346.368532
 20
292.477511
 42
-0.120183
  0
VERTEX
  8
0
 10
347.395141
 20
293.704869
 42
-0.070822
  0
VERTEX
  8
0
 10
349.347244
 20
294.755146
 42
-0.018429
  0
VERTEX
  8
0
 10
352.744175
 20
295.863314
 42
0.032021
  0
VERTEX
  8
0
 10
354.827296
 20
296.606073
 42
0.057793
  0
VERTEX
  8
0
 10
356.395959
 20
297.508370
 42
0.064066
  0
VERTEX
  8
0
 10
357.608361
 20
298.673224
 42
0.050089
  0
VERTEX
  8
0
 10
358.605550
 20
300.204110
 42
0.052425
  0
VERTEX
  8
0
 10
359.491265
 20
302.470896
 42
0.070521
  0
VERTEX
  8
0
 10
359.769915
 20
304.654374
 42
0.032937
  0
VERTEX
  8
0
 10
359.514053
 20
307.856694
 42
0.003680
  0
VERTEX
  8
0
 10
358.398925
 20
315.091049
 42
-0.024431
  0
VERTEX
  8
0
 10
358.159614
 20
317.229459
 42
-0.139346
  0
VERTEX
  8
0
 10
358.400344
 20
318.335458
 42
-0.145362
  0
VERTEX
  8
0
 10
359.181487
 20
319.125196
 42
-0.027374
  0
VERTEX
  8
0
 10
361.032157
 20
320.013320
 42
0.051350
  0
VERTEX
  8
0
 10
362.494158
 20
320.803133
 42
0.049628
  0
VERTEX
  8
0
 10
363.782899
 20
321.882240
 42
0.048734
  0
VERTEX
  8
0
 10
364.853809
 20
323.214323
 42
0.046024
  0
VERTEX
  8
0
 10
365.670357
 20
324.753479
 42
0.033260
  0
VERTEX
  8
0
 10
366.373245
 20
326.810363
 42
0.069172
  0
VERTEX
  8
0
 10
366.583578
 20
328.488814
 42
0.053720
  0
VERTEX
  8
0
 10
366.349599
 20
330.416332
 42
0.013695
  0
VERTEX
  8
0
 10
365.553087
 20
333.465382
 42
0.033768
  0
VERTEX
  8
0
 10
364.664653
 20
335.896081
 42
0.020560
  0
VERTEX
  8
0
 10
363.309163
 20
338.638533
 42
0.020280
  0
VERTEX
  8
0
 10
361.692951
 20
341.330412
 42
0.027340
  0
VERTEX
  8
0
 10
360.005737
 20
343.615843
 42
-0.013372
  0
VERTEX
  8
0
 10
357.106370
 20
347.322007
 42
-0.109990
  0
VERTEX
  8
0
 10
356.241712
 20
349.268572
 42
-0.219135
  0
VERTEX
  8
0
 10
356.594578
 20
350.758618
 42
-0.074569
  0
VERTEX
  8
0
 10
358.250000
 20
352.325576
 42
-0.082370
  0
VERTEX
  8
0
 10
361.217955
 20
353.739983
 42
-0.105814
  0
VERTEX
  8
0
 10
364.226931
 20
353.949465
 42
-0.108234
  0
VERTEX
  8
0
 10
367.007554
 20
352.912456
 42
-0.089521
  0
SEQEND
  0
POLYLINE
  8
0
 66
1
 70
1
  0
VERTEX
  8
0
 10
77.799660
 20
336.578455
 42
-0.043020
  0
VERTEX
  8
0
 10
79.158997
 20
335.706098
 42
-0.011607
  0
VERTEX
  8
0
 10
81.152594
 20
334.094762
 42
-0.011664
  0
VERTEX
  8
0
 10
83.339425
 20
332.152281
 42
-0.011843
  0
VERTEX
  8
0
 10
85.421938
 20
330.119543
 42
0.000000
  0
VERTEX
  8
0
 10
90.343877
 20
325.082175
 42
0.000000
  0
VERTEX
  8
0
 10
82.422619
 20
316.791088
 42
-0.005403
  0
VERTEX
  8
0
 10
79.320392
 20
313.613485
 42
-0.008287
  0
VERTEX
  8
0
 10
76.558759
 20
310.935507
 42
-0.003694
  0
VERTEX
  8
0
 10
74.168439
 20
308.726230
 42
-0.186796
  0
VERTEX
  8
0
 10
73.584014
 20
308.500000
 42
-0.217756
  0
VERTEX
  8
0
 10
72.627998
 20
308.937083
 42
-0.210878
  0
VERTEX
  8
0
 10
72.315969
 20
309.954819
 42
-0.121893
  0
VERTEX
  8
0
 10
72.849298
 20
311.368453
 42
-0.071672
  0
VERTEX
  8
0
 10
74.082917
 20
312.702105
 42
0.039334
  0
VERTEX
  8
0
 10
78.852782
 20
317.234448
 42
0.189360
  0
VERTEX
  8
0
 10
80.140581
 20
320.676534
 42
0.172136
  0
VERTEX
  8
0
 10
78.795465
 20
324.280627
 42
0.031450
  0
VERTEX
  8
0
 10
73.809185
 20
329.516175
 42
-0.004937
  0
VERTEX
  8
0
 10
70.015789
 20
333.098391
 42
-0.064882
  0
VERTEX
  8
0
 10
68.811837
 20
334.603867
 42
-0.236229
  0
VERTEX
  8
0
 10
68.728371
 20
335.631655
 42
-0.140031
  0
VERTEX
  8
0
 10
69.500315
 20
336.623889
 42
-0.072202
  0
VERTEX
  8
0
 10
71.346609
 20
337.602093
 42
-0.087356
  0
VERTEX
  8
0
 10
73.276790
 20
337.931028
 42
-0.076888
  0
VERTEX
  8
0
 10
75.392657
 20
337.591853
 42
-0.043063
  0
SEQEND
  0
POLYLINE
  8
0
 66
1
 70
1
  0
VERTEX
  8
0
 10
341.270929
 20
335.905064
 42
0.049594
  0
VERTEX
  8
0
 10
337.754831
 20
333.706812
 42
0.036975
  0
VERTEX
  8
0
 10
334.349335
 20
330.648337
 42
0.036140
  0
VERTEX
  8
0
 10
331.733432
 20
327.497284
 42
0.157330
  0
VERTEX
  8
0
 10
331.006148
 20
325.215204
 42
0.134014
  0
VERTEX
  8
0
 10
331.270057
 20
324.261724
 42
0.017547
  0
VERTEX
  8
0
 10
332.418894
 20
322.475506
 42
0.019377
  0
VERTEX
  8
0
 10
333.970431
 20
320.414943
 42
0.015110
  0
VERTEX
  8
0
 10
335.806863
 20
318.297157
 42
0.000000
  0
VERTEX
  8
0
 10
340.601432
 20
313.094314
 42
0.000000
  0
VERTEX
  8
0
 10
336.582431
 20
310.462998
 42
0.000000
  0
VERTEX
  8
0
 10
332.563430
 20
307.831682
 42
0.000000
  0
VERTEX
  8
0
 10
327.281715
 20
313.327900
 42
-0.013986
  0
VERTEX
  8
0
 10
325.258966
 20
315.554208
 42
-0.018474
  0
VERTEX
  8
0
 10
323.551504
 20
317.697869
 42
-0.016063
  0
VERTEX
  8
0
 10
322.275262
 20
319.549226
 42
-0.143835
  0
VERTEX
  8
0
 10
322.000000
 20
320.486296
 42
-0.179102
  0
VERTEX
  8
0
 10
322.785351
 20
322.608431
 42
-0.009585
  0
VERTEX
  8
0
 10
327.644740
 20
328.059635
 42
-0.015403
  0
VERTEX
  8
0
 10
332.747704
 20
333.238301
 42
-0.052095
  0
VERTEX
  8
0
 10
336.500000
 20
336.137635
 42
-0.037324
  0
VERTEX
  8
0
 10
337.867878
 20
336.848290
 42
-0.026071
  0
VERTEX
  8
0
 10
339.500000
 20
337.448517
 42
-0.026409
  0
VERTEX
  8
0
 10
341.134469
 20
337.861464
 42
-0.048458
  0
VERTEX
  8
0
 10
342.500000
 20
337.995473
 42
-0.009037
  0
VERTEX
  8
0
 10
344.409990
 20
337.962828
 42
-0.568304
  0
VERTEX
  8
0
 10
344.542826
 20
337.720858
 42
-0.143627
  0
VERTEX
  8
0
 10
344.137333
 20
337.340080
 42
-0.002260
  0
SEQEND
  0
POLYLINE
  8
0
 66
1
 70
1
  0
VERTEX
  8
0
 10
352.021533
 20
214.030241
 42
-0.013840
  0
VERTEX
  8
0
 10
351.123623
 20
212.840365
 42
-0.014497
  0
VERTEX
  8
0
 10
350.174548
 20
211.720702
 42
-0.014286
  0
VERTEX
  8
0
 10
349.301571
 20
210.803476
 42
-0.060333
  0
VERTEX
  8
0
 10
348.703439
 20
210.338282
 42
-0.600279
  0
VERTEX
  8
0
 10
348.461114
 20
210.483785
 42
-0.130750
  0
VERTEX
  8
0
 10
348.658661
 20
211.097894
 42
-0.024119
  0
VERTEX
  8
0
 10
349.814637
 20
212.718895
 42
-0.006019
  0
VERTEX
  8
0
 10
351.860382
 20
215.250000
 42
-0.010541
  0
VERTEX
  8
0
 10
353.377949
 20
217.005383
 42
-0.639661
  0
VERTEX
  8
0
 10
353.681520
 20
216.911046
 42
-0.181801
  0
VERTEX
  8
0
 10
353.516066
 20
216.199014
 42
-0.007697
  0
SEQEND
  0
POLYLINE
  8
0
 66
1
 70
1
  0
VERTEX
  8
0
 10
66.386541
 20
209.138681
 42
-0.003791
  0
VERTEX
  8
0
 10
70.329374
 20
204.244115
 42
-0.050765
  0
VERTEX
  8
0
 10
71.571158
 20
202.302889
 42
-0.310474
  0
VERTEX
  8
0
 10
71.452221
 20
201.423452
 42
-0.211652
  0
VERTEX
  8
0
 10
70.496683
 20
201.000000
 42
-0.182581
  0
VERTEX
  8
0
 10
68.243853
 20
201.851020
 42
-0.017410
  0
VERTEX
  8
0
 10
63.895555
 20
205.960626
 42
-0.017541
  0
VERTEX
  8
0
 10
59.845962
 20
210.362689
 42
-0.179037
  0
VERTEX
  8
0
 10
59.000000
 20
212.649495
 42
-0.049357
  0
VERTEX
  8
0
 10
59.120816
 20
213.870425
 42
-0.059274
  0
VERTEX
  8
0
 10
59.478920
 20
214.966896
 42
-0.072354
  0
VERTEX
  8
0
 10
59.986657
 20
215.744340
 42
-0.215182
  0
VERTEX
  8
0
 10
60.553208
 20
216.000000
 42
-0.219532
  0
VERTEX
  8
0
 10
60.697499
 20
215.933439
 42
-0.000446
  0
VERTEX
  8
0
 10
62.357447
 20
213.984488
 42
-0.002927
  0
VERTEX
  8
0
 10
64.218550
 20
211.769260
 42
-0.001797
  0
SEQEND
  0
POLYLINE
  8
0
 66
1
 70
1
  0
VERTEX
  8
0
 10
237.878115
 20
165.096491
 42
-0.164507
  0
VERTEX
  8
0
 10
238.575765
 20
164.233933
 42
-0.188503
  0
VERTEX
  8
0
 10
238.556115
 20
163.179436
 42
-0.166008
  0
VERTEX
  8
0
 10
237.802490
 20
162.320666
 42
-0.131119
  0
VERTEX
  8
0
 10
236.600705
 20
162.000000
 42
0.090891
  0
VERTEX
  8
0
 10
235.804165
 20
161.853997
 42
0.007670
  0
VERTEX
  8
0
 10
233.855640
 20
161.080454
 42
0.009985
  0
VERTEX
  8
0
 10
231.547777
 20
160.068545
 42
0.007557
  0
VERTEX
  8
0
 10
229.055020
 20
158.869630
 42
0.049095
  0
VERTEX
  8
0
 10
224.433659
 20
155.962455
 42
0.057281
  0
VERTEX
  8
0
 10
220.727166
 20
152.338992
 42
0.055832
  0
VERTEX
  8
0
 10
217.868844
 20
147.886864
 42
0.043210
  0
VERTEX
  8
0
 10
215.767970
 20
142.515376
 42
0.000000
  0
VERTEX
  8
0
 10
214.585207
 20
138.500000
 42
0.000000
  0
VERTEX
  8
0
 10
213.992511
 20
146.255457
 42
0.010267
  0
VERTEX
  8
0
 10
213.517197
 20
151.149952
 42
0.069121
  0
VERTEX
  8
0
 10
212.902574
 20
153.504264
 42
0.086389
  0
VERTEX
  8
0
 10
211.715780
 20
155.373322
 42
0.020561
  0
VERTEX
  8
0
 10
209.116054
 20
158.005457
 42
0.030750
  0
VERTEX
  8
0
 10
205.845479
 20
160.699254
 42
0.108635
  0
VERTEX
  8
0
 10
203.365190
 20
161.780483
 42
0.157254
  0
VERTEX
  8
0
 10
201.193960
 20
161.524658
 42
0.089276
  0
VERTEX
  8
0
 10
199.000000
 20
160.000000
 42
0.089711
  0
VERTEX
  8
0
 10
197.934261
 20
158.463592
 42
0.067203
  0
VERTEX
  8
0
 10
197.337637
 20
156.488151
 42
0.033282
  0
VERTEX
  8
0
 10
197.046563
 20
153.352667
 42
0.005440
  0
VERTEX
  8
0
 10
196.954111
 20
147.250000
 42
0.000000
  0
VERTEX
  8
0
 10
196.908222
 20
136.500000
 42
0.000000
  0
VERTEX
  8
0
 10
194.112822
 20
142.536226
 42
0.045143
  0
VERTEX
  8
0
 10
191.491763
 20
147.072643
 42
0.040601
  0
VERTEX
  8
0
 10
188.013871
 20
151.241312
 42
0.037379
  0
VERTEX
  8
0
 10
183.621360
 20
155.090822
 42
0.027856
  0
VERTEX
  8
0
 10
178.261929
 20
158.672980
 42
-0.014240
  0
VERTEX
  8
0
 10
176.007373
 20
160.092670
 42
-0.083834
  0
VERTEX
  8
0
 10
174.995934
 20
161.049625
 42
-0.172677
  0
VERTEX
  8
0
 10
174.714655
 20
161.946793
 42
-0.113794
  0
VERTEX
  8
0
 10
175.000470
 20
163.000878
 42
-0.036906
  0
VERTEX
  8
0
 10
175.467128
 20
163.736719
 42
-0.031429
  0
VERTEX
  8
0
 10
176.060756
 20
164.438940
 42
-0.032642
  0
VERTEX
  8
0
 10
176.685342
 20
165.010282
 42
-0.073297
  0
VERTEX
  8
0
 10
177.238541
 20
165.333900
 42
-0.096309
  0
VERTEX
  8
0
 10
180.472069
 20
165.958971
 42
-0.000711
  0
VERTEX
  8
0
 10
207.852565
 20
165.890709
 42
-0.000509
  0
VERTEX
  8
0
 10
235.637456
 20
165.753632
 42
-0.140580
  0
SEQEND
  0
POLYLINE
  8
0
 66
1
 70
1
  0
VERTEX
  8
0
 10
67.500000
 20
153.000000
 42
0.000000
  0
VERTEX
  8
0
 10
71.500000
 20
151.148327
 42
0.000000
  0
VERTEX
  8
0
 10
66.684259
 20
151.074164
 42
-0.033779
  0
VERTEX
  8
0
 10
63.177039
 20
151.257172
 42
-0.057643
  0
VERTEX
  8
0
 10
60.327499
 20
151.938889
 42
-0.097957
  0
VERTEX
  8
0
 10
58.686336
 20
152.934455
 42
-0.360447
  0
VERTEX
  8
0
 10
58.531009
 20
154.050173
 42
-0.217344
  0
VERTEX
  8
0
 10
59.642121
 20
154.792823
 42
-0.069541
  0
VERTEX
  8
0
 10
61.676840
 20
154.838206
 42
-0.051054
  0
VERTEX
  8
0
 10
64.367479
 20
154.240543
 42
-0.028244
  0
SEQEND
  0
POLYLINE
  8
0
 66
1
 70
1
  0
VERTEX
  8
0
 10
353.418750
 20
154.018750
 42
-0.091771
  0
VERTEX
  8
0
 10
352.817880
 20
153.605579
 42
-0.023076
  0
VERTEX
  8
0
 10
351.706797
 20
153.170539
 42
-0.022774
  0
VERTEX
  8
0
 10
350.368645
 20
152.783554
 42
-0.021208
  0
VERTEX
  8
0
 10
348.968750
 20
152.509149
 42
0.000000
  0
VERTEX
  8
0
 10
345.500000
 20
151.980798
 42
0.000000
  0
VERTEX
  8
0
 10
348.500000
 20
153.445295
 42
-0.025719
  0
VERTEX
  8
0
 10
350.912058
 20
154.472808
 42
-0.058873
  0
VERTEX
  8
0
 10
352.831584
 20
154.929693
 42
-0.277933
  0
VERTEX
  8
0
 10
353.475485
 20
154.637405
 42
-0.361602
  0
SEQEND
  0
POLYLINE
  8
0
 66
1
 70
1
  0
VERTEX
  8
0
 10
210.065741
 20
84.964816
 42
-0.034469
  0
VERTEX
  8
0
 10
210.806010
 20
84.500389
 42
-0.040813
  0
VERTEX
  8
0
 10
211.431812
 20
83.961625
 42
-0.045245
  0
VERTEX
  8
0
 10
211.868479
 20
83.430374
 42
-0.150512
  0
VERTEX
  8
0
 10
212.000000
 20
83.003360
 42
-0.317238
  0
VERTEX
  8
0
 10
211.314016
 20
82.030988
 42
-0.023679
  0
VERTEX
  8
0
 10
208.035911
 20
81.036080
 42
-0.028906
  0
VERTEX
  8
0
 10
204.599280
 20
80.376857
 42
-0.125181
  0
VERTEX
  8
0
 10
202.552840
 20
80.618097
 42
-0.064785
  0
VERTEX
  8
0
 10
201.733197
 20
81.061407
 42
-0.290775
  0
VERTEX
  8
0
 10
201.540264
 20
81.544921
 42
-0.130572
  0
VERTEX
  8
0
 10
201.865962
 20
82.226189
 42
-0.012140
  0
VERTEX
  8
0
 10
203.120067
 20
83.627805
 42
-0.044602
  0
VERTEX
  8
0
 10
204.864136
 20
85.180650
 42
-0.112508
  0
VERTEX
  8
0
 10
206.411053
 20
85.860806
 42
-0.118510
  0
VERTEX
  8
0
 10
208.048530
 20
85.785838
 42
-0.052480
  0
SEQEND
  0
POLYLINE
  8
0
 66
1
 70
1
  0
VERTEX
  8
0
 10
192.090278
 20
67.771656
 42
0.017286
  0
VERTEX
  8
0
 10
195.950565
 20
65.991865
 42
0.045736
  0
VERTEX
  8
0
 10
198.847582
 20
65.076537
 42
0.041155
  0
VERTEX
  8
0
 10
202.033133
 20
64.652423
 42
0.011887
  0
VERTEX
  8
0
 10
207.000000
 20
64.521656
 42
0.012375
  0
VERTEX
  8
0
 10
211.981436
 20
64.632263
 42
0.040511
  0
VERTEX
  8
0
 10
215.246326
 20
65.052220
 42
0.043030
  0
VERTEX
  8
0
 10
218.296593
 20
65.978794
 42
0.015331
  0
VERTEX
  8
0
 10
222.473243
 20
67.801929
 42
-0.013650
  0
VERTEX
  8
0
 10
227.030477
 20
69.809454
 42
-0.059388
  0
VERTEX
  8
0
 10
229.870018
 20
70.592272
 42
-0.047615
  0
VERTEX
  8
0
 10
233.089228
 20
70.770176
 42
-0.006734
  0
VERTEX
  8
0
 10
239.723243
 20
70.415460
 42
-0.003751
  0
VERTEX
  8
0
 10
243.663713
 20
70.121797
 42
-0.006224
  0
VERTEX
  8
0
 10
246.981203
 20
69.807904
 42
-0.001555
  0
VERTEX
  8
0
 10
249.840586
 20
69.492400
 42
-0.381489
  0
VERTEX
  8
0
 10
250.000000
 20
69.313871
 42
-0.166623
  0
VERTEX
  8
0
 10
248.939300
 20
66.219309
 42
-0.028748
  0
VERTEX
  8
0
 10
244.803012
 20
61.483293
 42
-0.032051
  0
VERTEX
  8
0
 10
239.784251
 20
56.979882
 42
-0.060315
  0
VERTEX
  8
0
 10
235.139564
 20
54.152830
 42
-0.102049
  0
VERTEX
  8
0
 10
228.050215
 20
52.546000
 42
-0.004838
  0
VERTEX
  8
0
 10
203.508472
 20
52.305043
 42
-0.004835
  0
VERTEX
  8
0
 10
178.965079
 20
52.538892
 42
-0.102169
  0
VERTEX
  8
0
 10
171.881822
 20
54.143895
 42
-0.086787
  0
VERTEX
  8
0
 10
167.914275
 20
56.855911
 42
-0.049579
  0
VERTEX
  8
0
 10
164.169034
 20
61.311639
 42
-0.049683
  0
VERTEX
  8
0
 10
161.648611
 20
65.918472
 42
-0.243368
  0
VERTEX
  8
0
 10
161.867251
 20
68.785207
 42
-0.196725
  0
VERTEX
  8
0
 10
162.494885
 20
69.241607
 42
-0.015578
  0
VERTEX
  8
0
 10
164.549907
 20
69.677664
 42
-0.019284
  0
VERTEX
  8
0
 10
167.116906
 20
70.037768
 42
-0.013514
  0
VERTEX
  8
0
 10
170.029187
 20
70.253037
 42
0.000085
  0
VERTEX
  8
0
 10
173.189348
 20
70.401440
 42
0.000073
  0
VERTEX
  8
0
 10
176.506968
 20
70.558287
 42
0.000074
  0
VERTEX
  8
0
 10
179.514098
 20
70.701339
 42
0.000214
  0
VERTEX
  8
0
 10
181.590278
 20
70.801303
 42
-0.046083
  0
VERTEX
  8
0
 10
183.838035
 20
70.703325
 42
-0.036327
  0
VERTEX
  8
0
 10
186.222418
 20
70.199383
 42
-0.030097
  0
VERTEX
  8
0
 10
188.909050
 20
69.245744
 42
-0.016330
  0
SEQEND
  0
POLYLINE
  8
0
 66
1
 70
1
  0
VERTEX
  8
0
 10
184.449604
 20
341.603475
 42
0.020441
  0
VERTEX
  8
0
 10
173.536649
 20
339.054606
 42
0.026020
  0
VERTEX
  8
0
 10
163.731808
 20
335.779744
 42
0.027220
  0
VERTEX
  8
0
 10
154.694648
 20
331.648127
 42
0.026606
  0
VERTEX
  8
0
 10
146.088191
 20
326.530766
 42
0.022669
  0
VERTEX
  8
0
 10
140.055821
 20
322.086431
 42
0.022412
  0
VERTEX
  8
0
 10
134.426692
 20
317.098150
 42
0.017953
  0
VERTEX
  8
0
 10
129.938497
 20
312.422677
 42
0.184311
  0
VERTEX
  8
0
 10
129.000000
 20
309.963203
 42
0.175827
  0
VERTEX
  8
0
 10
129.902816
 20
307.475226
 42
0.025829
  0
VERTEX
  8
0
 10
133.608344
 20
303.480326
 42
0.026124
  0
VERTEX
  8
0
 10
137.711297
 20
299.888457
 42
0.168292
  0
VERTEX
  8
0
 10
140.276316
 20
299.000171
 42
0.031989
  0
VERTEX
  8
0
 10
141.579761
 20
299.083749
 42
0.004970
  0
VERTEX
  8
0
 10
144.140534
 20
299.439210
 42
0.005520
  0
VERTEX
  8
0
 10
147.155885
 20
299.922452
 42
0.004780
  0
VERTEX
  8
0
 10
150.308482
 20
300.494530
 42
-0.021867
  0
VERTEX
  8
0
 10
176.041105
 20
304.261137
 42
-0.022338
  0
VERTEX
  8
0
 10
201.821417
 20
305.730850
 42
-0.021865
  0
VERTEX
  8
0
 10
228.143292
 20
304.902876
 42
-0.019137
  0
VERTEX
  8
0
 10
255.500000
 20
301.786180
 42
0.004219
  0
VERTEX
  8
0
 10
268.116178
 20
299.966171
 42
0.037933
  0
VERTEX
  8
0
 10
273.688670
 20
299.636990
 42
0.097946
  0
VERTEX
  8
0
 10
276.925008
 20
300.333881
 42
0.130543
  0
VERTEX
  8
0
 10
279.277743
 20
302.186312
 42
0.028059
  0
VERTEX
  8
0
 10
280.343771
 20
303.785032
 42
0.101147
  0
VERTEX
  8
0
 10
280.739083
 20
304.937704
 42
0.101962
  0
VERTEX
  8
0
 10
280.648814
 20
306.147983
 42
0.028765
  0
VERTEX
  8
0
 10
280.023285
 20
307.943786
 42
0.089141
  0
VERTEX
  8
0
 10
277.741480
 20
311.499712
 42
0.018928
  0
VERTEX
  8
0
 10
272.513294
 20
316.719785
 42
0.020059
  0
VERTEX
  8
0
 10
266.161963
 20
322.142143
 42
0.023057
  0
VERTEX
  8
0
 10
259.676263
 20
326.776654
 42
0.032677
  0
VERTEX
  8
0
 10
247.261403
 20
333.704782
 42
0.039386
  0
VERTEX
  8
0
 10
234.786317
 20
338.470966
 42
0.037972
  0
VERTEX
  8
0
 10
221.341915
 20
341.340809
 42
0.027127
  0
VERTEX
  8
0
 10
206.000000
 20
342.573165
 42
0.007125
  0
VERTEX
  8
0
 10
199.276911
 20
342.651579
 42
0.010595
  0
VERTEX
  8
0
 10
193.392709
 20
342.511647
 42
0.012187
  0
VERTEX
  8
0
 10
188.401834
 20
342.165034
 42
0.023720
  0
SEQEND
  0
POLYLINE
  8
0
 66
1
 70
1
  0
VERTEX
  8
0
 10
222.500000
 20
324.057369
 42
-0.796791
  0
VERTEX
  8
0
 10
222.507221
 20
323.717891
 42
-0.048164
  0
VERTEX
  8
0
 10
220.692239
 20
323.443121
 42
-0.011019
  0
VERTEX
  8
0
 10
215.707951
 20
323.283771
 42
-0.002700
  0
VERTEX
  8
0
 10
207.500000
 20
323.246640
 42
-0.003489
  0
VERTEX
  8
0
 10
200.313900
 20
323.303083
 42
-0.008433
  0
VERTEX
  8
0
 10
195.004406
 20
323.471445
 42
-0.015930
  0
VERTEX
  8
0
 10
192.013693
 20
323.712489
 42
-0.851669
  0
VERTEX
  8
0
 10
192.000000
 20
324.000000
 42
-0.044097
  0
VERTEX
  8
0
 10
197.188488
 20
324.622076
 42
-0.007327
  0
VERTEX
  8
0
 10
207.250995
 20
324.788478
 42
-0.007323
  0
VERTEX
  8
0
 10
217.314024
 20
324.660018
 42
-0.044168
  0
SEQEND
  0
POLYLINE
  8
0
 66
1
 70
1
  0
VERTEX
  8
0
 10
229.729167
 20
322.395833
 42
-0.126455
  0
VERTEX
  8
0
 10
229.402231
 20
322.202593
 42
-0.060344
  0
VERTEX
  8
0
 10
228.916927
 20
322.123424
 42
-0.054150
  0
VERTEX
  8
0
 10
228.359369
 20
322.160852
 42
-0.051402
  0
VERTEX
  8
0
 10
227.812500
 20
322.316886
 42
-0.054073
  0
VERTEX
  8
0
 10
227.395823
 20
322.538436
 42
-0.470617
  0
VERTEX
  8
0
 10
227.378580
 20
322.720685
 42
-0.168741
  0
VERTEX
  8
0
 10
227.670344
 20
322.862007
 42
-0.018894
  0
VERTEX
  8
0
 10
228.416667
 20
322.921053
 42
-0.028489
  0
VERTEX
  8
0
 10
229.112848
 20
322.910055
 42
-0.077125
  0
VERTEX
  8
0
 10
229.592839
 20
322.799335
 42
-0.208169
  0
VERTEX
  8
0
 10
229.775380
 20
322.614691
 42
-0.296942
  0
SEQEND
  0
POLYLINE
  8
0
 66
1
 70
1
  0
VERTEX
  8
0
 10
187.536126
 20
298.904649
 42
0.021256
  0
VERTEX
  8
0
 10
182.956894
 20
297.091340
 42
0.033551
  0
VERTEX
  8
0
 10
179.223585
 20
295.116199
 42
0.032159
  0
VERTEX
  8
0
 10
175.679078
 20
292.596443
 42
0.017649
  0
VERTEX
  8
0
 10
171.665266
 20
289.093139
 42
0.036620
  0
VERTEX
  8
0
 10
168.910825
 20
286.104879
 42
0.029412
  0
VERTEX
  8
0
 10
166.395572
 20
282.526631
 42
0.028980
  0
VERTEX
  8
0
 10
164.529323
 20
279.077248
 42
0.109938
  0
VERTEX
  8
0
 10
164.000000
 20
276.698975
 42
0.182929
  0
VERTEX
  8
0
 10
164.765184
 20
274.677487
 42
0.019864
  0
VERTEX
  8
0
 10
168.272157
 20
271.013005
 42
0.023608
  0
VERTEX
  8
0
 10
172.117280
 20
267.637661
 42
0.100275
  0
VERTEX
  8
0
 10
174.827325
 20
266.249645
 42
0.061356
  0
VERTEX
  8
0
 10
176.803139
 20
265.949210
 42
0.001550
  0
VERTEX
  8
0
 10
185.873311
 20
265.720208
 42
0.003296
  0
VERTEX
  8
0
 10
196.537143
 20
265.554374
 42
0.002239
  0
VERTEX
  8
0
 10
208.677565
 20
265.500000
 42
0.001113
  0
VERTEX
  8
0
 10
228.525859
 20
265.544169
 42
0.014302
  0
VERTEX
  8
0
 10
235.944585
 20
265.789462
 42
0.040253
  0
VERTEX
  8
0
 10
240.006526
 20
266.370648
 42
0.104588
  0
VERTEX
  8
0
 10
242.677565
 20
267.598871
 42
0.094933
  0
VERTEX
  8
0
 10
244.968849
 20
270.097781
 42
0.136683
  0
VERTEX
  8
0
 10
245.796669
 20
272.964721
 42
0.106825
  0
VERTEX
  8
0
 10
245.092872
 20
276.376622
 42
0.043904
  0
VERTEX
  8
0
 10
242.799412
 20
280.534973
 42
0.045729
  0
VERTEX
  8
0
 10
238.923419
 20
285.297182
 42
0.028775
  0
VERTEX
  8
0
 10
233.615615
 20
290.131095
 42
0.025866
  0
VERTEX
  8
0
 10
228.291866
 20
294.008240
 42
0.145445
  0
VERTEX
  8
0
 10
224.954593
 20
295.000000
 42
0.141359
  0
VERTEX
  8
0
 10
221.695835
 20
294.059906
 42
0.154131
  0
VERTEX
  8
0
 10
219.569619
 20
291.552043
 42
0.159110
  0
VERTEX
  8
0
 10
219.306480
 20
288.342258
 42
0.151507
  0
VERTEX
  8
0
 10
220.976419
 20
285.521341
 42
-0.035466
  0
VERTEX
  8
0
 10
221.693852
 20
284.773023
 42
-0.049082
  0
VERTEX
  8
0
 10
222.214980
 20
284.003626
 42
-0.059465
  0
VERTEX
  8
0
 10
222.485163
 20
283.324153
 42
-0.206161
  0
VERTEX
  8
0
 10
222.417402
 20
282.866353
 42
-0.238131
  0
VERTEX
  8
0
 10
221.853724
 20
282.521017
 42
-0.004908
  0
VERTEX
  8
0
 10
218.458149
 20
282.275091
 42
-0.010391
  0
VERTEX
  8
0
 10
214.402305
 20
282.105858
 42
-0.006668
  0
VERTEX
  8
0
 10
209.690983
 20
282.070128
 42
0.000000
  0
VERTEX
  8
0
 10
197.500000
 20
282.140255
 42
0.000000
  0
VERTEX
  8
0
 10
202.880190
 20
283.971762
 42
0.016177
  0
VERTEX
  8
0
 10
205.002735
 20
284.771819
 42
0.019708
  0
VERTEX
  8
0
 10
206.930957
 20
285.661346
 42
0.018609
  0
VERTEX
  8
0
 10
208.472706
 20
286.521415
 42
0.115479
  0
VERTEX
  8
0
 10
209.114877
 20
287.151634
 42
0.101848
  0
VERTEX
  8
0
 10
209.853127
 20
289.101984
 42
0.066547
  0
VERTEX
  8
0
 10
209.915778
 20
291.514748
 42
0.068733
  0
VERTEX
  8
0
 10
209.355932
 20
293.761696
 42
0.136443
  0
VERTEX
  8
0
 10
208.250000
 20
295.208513
 42
-0.033336
  0
VERTEX
  8
0
 10
207.499624
 20
295.858174
 42
-0.019653
  0
VERTEX
  8
0
 10
206.689907
 20
296.725149
 42
-0.019609
  0
VERTEX
  8
0
 10
205.945913
 20
297.658948
 42
-0.031538
  0
VERTEX
  8
0
 10
205.396490
 20
298.515217
 42
0.207292
  0
VERTEX
  8
0
 10
203.201372
 20
300.199856
 42
0.056053
  0
VERTEX
  8
0
 10
198.758404
 20
300.797854
 42
0.048601
  0
VERTEX
  8
0
 10
193.234942
 20
300.381015
 42
0.040544
  0
SEQEND
  0
POLYLINE
  8
0
 66
1
 70
1
  0
VERTEX
  8
0
 10
198.556704
 20
250.777494
 42
0.108263
  0
VERTEX
  8
0
 10
197.742841
 20
248.827161
 42
0.026462
  0
VERTEX
  8
0
 10
197.300179
 20
245.352856
 42
0.015439
  0
VERTEX
  8
0
 10
197.060624
 20
239.777323
 42
0.003016
  0
VERTEX
  8
0
 10
197.000000
 20
229.726511
 42
0.000000
  0
VERTEX
  8
0
 10
197.000000
 20
210.898034
 42
0.000000
  0
VERTEX
  8
0
 10
200.750000
 20
207.446614
 42
0.021118
  0
VERTEX
  8
0
 10
203.818791
 20
204.852709
 42
0.076072
  0
VERTEX
  8
0
 10
206.051256
 20
203.610833
 42
0.118075
  0
VERTEX
  8
0
 10
207.993278
 20
203.375205
 42
0.094549
  0
VERTEX
  8
0
 10
210.010095
 20
204.005403
 42
0.145053
  0
VERTEX
  8
0
 10
212.078658
 20
206.049679
 42
0.081377
  0
VERTEX
  8
0
 10
213.269805
 20
209.408346
 42
0.038140
  0
VERTEX
  8
0
 10
213.857509
 20
215.140459
 42
0.006482
  0
VERTEX
  8
0
 10
214.000000
 20
226.130841
 42
0.006064
  0
VERTEX
  8
0
 10
213.864819
 20
237.276156
 42
0.050000
  0
VERTEX
  8
0
 10
213.237460
 20
242.302485
 42
0.090756
  0
VERTEX
  8
0
 10
211.724105
 20
245.831580
 42
0.042193
  0
VERTEX
  8
0
 10
208.616814
 20
249.750000
 42
0.064615
  0
VERTEX
  8
0
 10
205.850307
 20
252.019174
 42
0.114528
  0
VERTEX
  8
0
 10
203.073430
 20
252.969839
 42
0.142006
  0
VERTEX
  8
0
 10
200.572173
 20
252.513799
 42
0.124973
  0
SEQEND
  0
POLYLINE
  8
0
 66
1
 70
1
  0
VERTEX
  8
0
 10
129.556704
 20
245.777494
 42
0.089048
  0
VERTEX
  8
0
 10
128.802924
 20
244.148488
 42
0.034273
  0
VERTEX
  8
0
 10
128.337252
 20
241.690550
 42
0.022707
  0
VERTEX
  8
0
 10
128.075318
 20
238.124088
 42
0.006977
  0
VERTEX
  8
0
 10
128.000000
 20
232.726511
 42
0.000000
  0
VERTEX
  8
0
 10
128.000000
 20
221.898034
 42
0.000000
  0
VERTEX
  8
0
 10
131.750000
 20
218.426295
 42
0.018420
  0
VERTEX
  8
0
 10
133.344005
 20
217.056059
 42
0.018510
  0
VERTEX
  8
0
 10
135.032015
 20
215.809201
 42
0.018684
  0
VERTEX
  8
0
 10
136.580842
 20
214.834228
 42
0.067459
  0
VERTEX
  8
0
 10
137.656859
 20
214.392247
 42
0.197079
  0
VERTEX
  8
0
 10
141.412422
 20
214.899061
 42
0.155299
  0
VERTEX
  8
0
 10
144.202207
 20
217.958377
 42
0.089730
  0
VERTEX
  8
0
 10
145.689865
 20
223.730710
 42
0.036881
  0
VERTEX
  8
0
 10
145.686007
 20
231.843467
 42
0.012355
  0
VERTEX
  8
0
 10
145.235138
 20
236.386854
 42
0.067409
  0
VERTEX
  8
0
 10
144.605672
 20
238.769996
 42
0.077098
  0
VERTEX
  8
0
 10
143.398414
 20
240.753564
 42
0.018930
  0
VERTEX
  8
0
 10
140.820046
 20
243.585945
 42
0.041841
  0
VERTEX
  8
0
 10
137.309730
 20
246.608178
 42
0.109185
  0
VERTEX
  8
0
 10
134.271844
 20
247.927384
 42
0.161366
  0
VERTEX
  8
0
 10
131.700336
 20
247.596942
 42
0.128706
  0
SEQEND
  0
POLYLINE
  8
0
 66
1
 70
1
  0
VERTEX
  8
0
 10
267.556704
 20
245.777494
 42
0.088896
  0
VERTEX
  8
0
 10
266.803508
 20
244.151036
 42
0.034309
  0
VERTEX
  8
0
 10
266.337664
 20
241.699327
 42
0.022769
  0
VERTEX
  8
0
 10
266.075479
 20
238.145822
 42
0.007030
  0
VERTEX
  8
0
 10
266.000000
 20
232.777494
 42
0.000000
  0
VERTEX
  8
0
 10
266.000000
 20
222.000000
 42
0.000000
  0
VERTEX
  8
0
 10
270.000000
 20
218.000000
 42
0.032540
  0
VERTEX
  8
0
 10
273.060050
 20
215.314285
 42
0.113523
  0
VERTEX
  8
0
 10
275.434224
 20
214.227722
 42
0.149733
  0
VERTEX
  8
0
 10
277.657914
 20
214.437660
 42
0.072444
  0
VERTEX
  8
0
 10
280.139216
 20
215.911647
 42
0.078830
  0
VERTEX
  8
0
 10
281.459254
 20
217.378389
 42
0.096610
  0
VERTEX
  8
0
 10
282.146789
 20
219.085628
 42
0.042726
  0
VERTEX
  8
0
 10
282.438702
 20
221.860219
 42
0.004856
  0
VERTEX
  8
0
 10
282.500000
 20
228.172109
 42
0.000000
  0
VERTEX
  8
0
 10
282.500000
 20
238.520925
 42
0.000000
  0
VERTEX
  8
0
 10
278.538238
 20
243.260463
 42
0.044767
  0
VERTEX
  8
0
 10
275.276778
 20
246.519800
 42
0.118116
  0
VERTEX
  8
0
 10
272.338086
 20
247.977441
 42
0.173023
  0
VERTEX
  8
0
 10
269.763595
 20
247.673955
 42
0.125601
  0
SEQEND
  0
POLYLINE
  8
0
 66
1
 70
1
  0
VERTEX
  8
0
 10
248.278076
 20
217.907164
 42
0.093894
  0
VERTEX
  8
0
 10
246.488087
 20
216.830409
 42
0.084399
  0
VERTEX
  8
0
 10
245.136563
 20
215.137064
 42
0.089823
  0
VERTEX
  8
0
 10
244.479687
 20
213.194263
 42
0.129030
  0
VERTEX
  8
0
 10
244.677706
 20
211.397501
 42
0.061398
  0
VERTEX
  8
0
 10
245.245809
 20
210.329976
 42
0.004770
  0
VERTEX
  8
0
 10
247.132552
 20
207.694013
 42
0.006459
  0
VERTEX
  8
0
 10
249.460844
 20
204.590842
 42
0.004889
  0
VERTEX
  8
0
 10
252.093029
 20
201.243655
 42
-0.018144
  0
VERTEX
  8
0
 10
256.870955
 20
194.824772
 42
-0.019052
  0
VERTEX
  8
0
 10
261.089369
 20
188.177748
 42
-0.019697
  0
VERTEX
  8
0
 10
264.654006
 20
181.462556
 42
-0.023209
  0
VERTEX
  8
0
 10
267.471331
 20
174.839781
 42
0.048558
  0
VERTEX
  8
0
 10
269.481508
 20
170.708403
 42
0.064681
  0
VERTEX
  8
0
 10
272.100693
 20
167.463273
 42
0.075692
  0
VERTEX
  8
0
 10
275.070194
 20
165.381391
 42
0.115601
  0
VERTEX
  8
0
 10
278.120228
 20
164.666667
 42
0.178559
  0
VERTEX
  8
0
 10
282.000863
 20
166.098153
 42
0.207416
  0
VERTEX
  8
0
 10
283.718012
 20
169.608222
 42
0.097133
  0
VERTEX
  8
0
 10
282.808866
 20
175.718070
 42
0.026509
  0
VERTEX
  8
0
 10
279.044198
 20
184.763742
 42
0.019846
  0
VERTEX
  8
0
 10
274.964107
 20
192.467365
 42
0.022277
  0
VERTEX
  8
0
 10
270.428787
 20
199.522804
 42
0.022808
  0
VERTEX
  8
0
 10
265.389322
 20
205.996544
 42
0.023075
  0
VERTEX
  8
0
 10
259.799711
 20
211.958078
 42
0.011597
  0
VERTEX
  8
0
 10
255.493860
 20
215.955338
 42
0.062186
  0
VERTEX
  8
0
 10
252.858080
 20
217.761846
 42
0.115239
  0
VERTEX
  8
0
 10
250.670898
 20
218.313734
 42
0.093273
  0
SEQEND
  0
POLYLINE
  8
0
 66
1
 70
1
  0
VERTEX
  8
0
 10
163.571429
 20
128.428571
 42
0.115606
  0
VERTEX
  8
0
 10
162.220219
 20
126.250232
 42
0.153056
  0
VERTEX
  8
0
 10
162.170892
 20
123.930569
 42
0.108816
  0
VERTEX
  8
0
 10
163.546070
 20
121.408966
 42
0.042093
  0
VERTEX
  8
0
 10
166.418297
 20
118.620462
 42
0.029673
  0
VERTEX
  8
0
 10
169.775524
 20
116.187307
 42
0.097619
  0
VERTEX
  8
0
 10
172.311495
 20
115.194366
 42
0.148511
  0
VERTEX
  8
0
 10
174.412589
 20
115.439819
 42
0.106417
  0
VERTEX
  8
0
 10
176.345012
 20
116.828741
 42
0.098694
  0
VERTEX
  8
0
 10
177.651354
 20
119.013923
 42
0.140140
  0
VERTEX
  8
0
 10
177.794412
 20
121.260371
 42
0.106969
  0
VERTEX
  8
0
 10
176.687994
 20
123.685667
 42
0.042791
  0
VERTEX
  8
0
 10
174.250000
 20
126.428348
 42
0.050828
  0
VERTEX
  8
0
 10
171.240037
 20
128.750171
 42
0.092843
  0
VERTEX
  8
0
 10
168.358386
 20
129.868921
 42
0.118997
  0
VERTEX
  8
0
 10
165.765308
 20
129.734704
 42
0.124844
  0
SEQEND
  0
POLYLINE
  8
0
 66
1
 70
1
  0
VERTEX
  8
0
 10
233.556704
 20
127.777494
 42
0.062188
  0
VERTEX
  8
0
 10
232.345693
 20
125.489457
 42
0.165642
  0
VERTEX
  8
0
 10
232.283215
 20
123.667346
 42
0.112895
  0
VERTEX
  8
0
 10
233.382307
 20
121.742684
 42
0.021640
  0
VERTEX
  8
0
 10
236.249556
 20
118.884477
 42
0.034731
  0
VERTEX
  8
0
 10
239.480475
 20
116.318918
 42
0.100535
  0
VERTEX
  8
0
 10
242.096666
 20
115.208858
 42
0.147795
  0
VERTEX
  8
0
 10
244.326250
 20
115.415868
 42
0.112771
  0
VERTEX
  8
0
 10
246.345012
 20
116.828741
 42
0.093521
  0
VERTEX
  8
0
 10
247.624245
 20
118.919609
 42
0.141755
  0
VERTEX
  8
0
 10
247.795480
 20
121.030778
 42
0.103860
  0
VERTEX
  8
0
 10
246.780953
 20
123.379899
 42
0.036004
  0
VERTEX
  8
0
 10
244.428348
 20
126.250000
 42
0.056417
  0
VERTEX
  8
0
 10
241.322466
 20
128.863232
 42
0.112260
  0
VERTEX
  8
0
 10
238.333317
 20
129.999193
 42
0.147698
  0
VERTEX
  8
0
 10
235.694381
 20
129.590398
 42
0.128912
  0
SEQEND
  0
POLYLINE
  8
0
 66
1
 70
1
  0
VERTEX
  8
0
 10
146.571429
 20
118.428571
 42
0.120086
  0
VERTEX
  8
0
 10
145.168380
 20
116.121395
 42
0.134382
  0
VERTEX
  8
0
 10
145.064119
 20
113.528097
 42
0.107966
  0
VERTEX
  8
0
 10
146.350846
 20
110.809601
 42
0.059237
  0
VERTEX
  8
0
 10
148.941362
 20
108.167365
 42
0.046132
  0
VERTEX
  8
0
 10
152.233146
 20
105.988290
 42
0.101047
  0
VERTEX
  8
0
 10
155.115538
 20
105.124574
 42
0.138040
  0
VERTEX
  8
0
 10
157.523166
 20
105.574186
 42
0.125863
  0
VERTEX
  8
0
 10
159.443296
 20
107.222506
 42
0.060147
  0
VERTEX
  8
0
 10
160.649232
 20
109.478711
 42
0.168455
  0
VERTEX
  8
0
 10
160.714512
 20
111.245259
 42
0.112097
  0
VERTEX
  8
0
 10
159.638257
 20
113.124529
 42
0.019735
  0
VERTEX
  8
0
 10
156.750000
 20
116.027659
 42
0.035912
  0
VERTEX
  8
0
 10
153.577732
 20
118.575730
 42
0.093590
  0
VERTEX
  8
0
 10
150.913981
 20
119.759800
 42
0.135492
  0
VERTEX
  8
0
 10
148.618848
 20
119.673234
 42
0.120162
  0
SEQEND
  0
POLYLINE
  8
0
 66
1
 70
1
  0
VERTEX
  8
0
 10
251.654988
 20
118.171259
 42
0.101113
  0
VERTEX
  8
0
 10
250.294171
 20
115.869987
 42
0.134422
  0
VERTEX
  8
0
 10
250.136424
 20
113.455362
 42
0.108968
  0
VERTEX
  8
0
 10
251.264631
 20
110.922775
 42
0.051937
  0
VERTEX
  8
0
 10
253.681653
 20
108.275403
 42
0.118792
  0
VERTEX
  8
0
 10
259.486249
 20
105.174865
 42
0.276042
  0
VERTEX
  8
0
 10
264.045486
 20
106.508388
 42
0.278480
  0
VERTEX
  8
0
 10
265.004503
 20
111.135229
 42
0.119525
  0
VERTEX
  8
0
 10
261.428798
 20
116.631923
 42
0.047358
  0
VERTEX
  8
0
 10
258.568058
 20
118.858990
 42
0.103020
  0
VERTEX
  8
0
 10
255.977421
 20
119.838636
 42
0.135253
  0
VERTEX
  8
0
 10
253.674836
 20
119.578119
 42
0.113913
  0
SEQEND
  0
POLYLINE
  8
0
 66
1
 70
1
  0
VERTEX
  8
0
 10
163.571429
 20
107.428571
 42
0.115606
  0
VERTEX
  8
0
 10
162.220219
 20
105.250232
 42
0.153056
  0
VERTEX
  8
0
 10
162.170892
 20
102.930569
 42
0.108816
  0
VERTEX
  8
0
 10
163.546070
 20
100.408966
 42
0.042093
  0
VERTEX
  8
0
 10
166.418297
 20
97.620462
 42
0.029673
  0
VERTEX
  8
0
 10
169.775524
 20
95.187307
 42
0.097619
  0
VERTEX
  8
0
 10
172.311495
 20
94.194366
 42
0.148511
  0
VERTEX
  8
0
 10
174.412589
 20
94.439819
 42
0.106417
  0
VERTEX
  8
0
 10
176.345012
 20
95.828741
 42
0.101094
  0
VERTEX
  8
0
 10
177.759689
 20
98.220887
 42
0.140220
  0
VERTEX
  8
0
 10
177.893239
 20
100.694701
 42
0.114094
  0
VERTEX
  8
0
 10
176.658613
 20
103.238255
 42
0.053739
  0
VERTEX
  8
0
 10
174.058638
 20
105.832635
 42
0.045537
  0
VERTEX
  8
0
 10
170.952650
 20
107.894027
 42
0.086188
  0
VERTEX
  8
0
 10
168.112159
 20
108.844714
 42
0.112047
  0
VERTEX
  8
0
 10
165.633418
 20
108.665578
 42
0.123139
  0
SEQEND
  0
POLYLINE
  8
0
 66
1
 70
1
  0
VERTEX
  8
0
 10
233.381202
 20
106.459036
 42
0.108239
  0
VERTEX
  8
0
 10
232.444323
 20
104.002849
 42
0.146410
  0
VERTEX
  8
0
 10
232.778696
 20
101.663793
 42
0.099860
  0
VERTEX
  8
0
 10
234.543612
 20
99.252308
 42
0.033493
  0
VERTEX
  8
0
 10
237.973133
 20
96.518619
 42
0.012019
  0
VERTEX
  8
0
 10
240.579079
 20
94.803913
 42
0.088109
  0
VERTEX
  8
0
 10
241.958479
 20
94.249479
 42
0.136411
  0
VERTEX
  8
0
 10
243.174636
 20
94.328320
 42
0.043435
  0
VERTEX
  8
0
 10
244.845026
 20
95.079689
 42
0.107591
  0
VERTEX
  8
0
 10
247.109018
 20
97.080936
 42
0.168587
  0
VERTEX
  8
0
 10
247.865866
 20
99.540419
 42
0.133613
  0
VERTEX
  8
0
 10
246.984846
 20
102.376897
 42
0.058374
  0
VERTEX
  8
0
 10
244.476441
 20
105.457175
 42
0.054952
  0
VERTEX
  8
0
 10
241.198212
 20
108.006475
 42
0.115792
  0
VERTEX
  8
0
 10
238.156771
 20
109.016436
 42
0.151313
  0
VERTEX
  8
0
 10
235.519008
 20
108.453403
 42
0.120608
  0
SEQEND
  0
ENDSEC
  0
EOF
